  0
SECTION
  2
HEADER
  9
$ACADVER
  1
AC1009
  9
$INSBASE
 10
0.0
 20
0.0
 30
0.0
  9
$EXTMIN
 10
0.0
 20
0.0
 30
0.0
  9
$EXTMAX
 10
0.000000
 20
0.000000
 30
0.0
  9
$LIMMIN
 10
0.0
 20
0.0
  9
$LIMMAX
 10
0.000000
 20
0.000000
  0
ENDSEC
  0
SECTION
  2
TABLES
  0
TABLE
  2
LTYPE
 70
3
  0
LTYPE
  2
L00000001000000C400
 70
64
  3
Solid line
 72
65
 73
0
 40
0.000000
  0
LTYPE
  2
CONTINUOUS
 70
64
  3
Solid line
 72
65
 73
0
 40
0.000000
  0
LTYPE
  2
L014100020032000000
 70
64
  3
- - - - - - - -
 72
65
 73
2
 40
0.500000
 49
0.300000
 49
-0.200000
  0
ENDTAB
  0
TABLE
  2
LAYER
 70
8
  0
LAYER
  2
0
 70
64
 62
7
  6
CONTINUOUS
  0
LAYER
  2
1
 70
64
 62
7
  6
CONTINUOUS
  0
LAYER
  2
2
 70
64
 62
7
  6
CONTINUOUS
  0
LAYER
  2
3
 70
64
 62
-7
  6
CONTINUOUS
  0
LAYER
  2
4
 70
64
 62
7
  6
CONTINUOUS
  0
LAYER
  2
5
 70
64
 62
7
  6
CONTINUOUS
  0
LAYER
  2
6
 70
64
 62
7
  6
CONTINUOUS
  0
LAYER
  2
7
 70
64
 62
-7
  6
CONTINUOUS
  0
LAYER
  2
8
 70
64
 62
7
  6
CONTINUOUS
  0
LAYER
  2
9
 70
64
 62
7
  6
CONTINUOUS
  0
LAYER
  2
10
 70
64
 62
-7
  6
CONTINUOUS
  0
LAYER
  2
11
 70
64
 62
-7
  6
CONTINUOUS
  0
LAYER
  2
12
 70
64
 62
7
  6
CONTINUOUS
  0
LAYER
  2
13
 70
64
 62
7
  6
CONTINUOUS
  0
LAYER
  2
14
 70
64
 62
7
  6
CONTINUOUS
  0
LAYER
  2
15
 70
64
 62
7
  6
CONTINUOUS
  0
LAYER
  2
16
 70
64
 62
7
  6
CONTINUOUS
  0
LAYER
  2
17
 70
64
 62
7
  6
CONTINUOUS
  0
LAYER
  2
18
 70
64
 62
7
  6
CONTINUOUS
  0
LAYER
  2
19
 70
64
 62
7
  6
CONTINUOUS
  0
ENDTAB
  0
ENDSEC
  0
SECTION
  2
BLOCKS
  0
BLOCK
  8
0
  2
zh411
 70
 0
 10
0.0
 20
0.0
 30
0.0
  0
SOLID
  8
2
 62
8
  6
CONTINUOUS
 10
10.600000
 20
15.600000
 11
10.600000
 21
0.000000
 12
0.000000
 22
15.600000
 13
0.000000
 23
0.000000
  0
POLYLINE
  8
2
 62
7
  6
CONTINUOUS
 70
1
 66
1
  0
VERTEX
 10
10.600000
 20
15.600000
 30
0.000000
  8
2
 62
7
  6
CONTINUOUS
  0
VERTEX
 10
10.600000
 20
0.000000
 30
0.000000
  8
2
 62
7
  6
CONTINUOUS
  0
VERTEX
 10
0.000000
 20
0.000000
 30
0.000000
  8
2
 62
7
  6
CONTINUOUS
  0
VERTEX
 10
0.000000
 20
15.600000
 30
0.000000
  8
2
 62
7
  6
CONTINUOUS
  0
SEQEND
  0
POLYLINE
  8
2
 62
7
  6
CONTINUOUS
 70
1
 66
1
  0
VERTEX
 10
10.000000
 20
12.000000
 30
0.000000
  8
2
 62
7
  6
CONTINUOUS
  0
VERTEX
 10
10.000000
 20
14.400000
 30
0.000000
  8
2
 62
7
  6
CONTINUOUS
  0
VERTEX
 10
0.600000
 20
14.400000
 30
0.000000
  8
2
 62
7
  6
CONTINUOUS
  0
VERTEX
 10
0.600000
 20
12.000000
 30
0.000000
  8
2
 62
7
  6
CONTINUOUS
  0
SEQEND
  0
POLYLINE
  8
2
 62
7
  6
CONTINUOUS
 70
0
 66
1
  0
VERTEX
 10
0.000000
 20
2.000000
  8
2
 62
7
  6
CONTINUOUS
  0
VERTEX
 10
10.600000
 20
2.000000
  8
2
 62
7
  6
CONTINUOUS
  0
SEQEND
  0
SOLID
  8
2
 62
1
  6
CONTINUOUS
 10
10.000000
 20
10.700000
 11
10.000000
 21
11.700000
 12
0.700000
 22
10.700000
 13
0.700000
 23
11.700000
  0
POLYLINE
  8
2
 62
7
  6
CONTINUOUS
 70
1
 66
1
  0
VERTEX
 10
10.000000
 20
10.700000
 30
0.000000
  8
2
 62
7
  6
CONTINUOUS
  0
VERTEX
 10
10.000000
 20
11.700000
 30
0.000000
  8
2
 62
7
  6
CONTINUOUS
  0
VERTEX
 10
0.700000
 20
11.700000
 30
0.000000
  8
2
 62
7
  6
CONTINUOUS
  0
VERTEX
 10
0.700000
 20
10.700000
 30
0.000000
  8
2
 62
7
  6
CONTINUOUS
  0
SEQEND
  0
POLYLINE
  8
2
 62
7
  6
CONTINUOUS
 70
1
 66
1
  0
VERTEX
 10
0.600000
 20
10.400000
  8
2
 62
7
  6
CONTINUOUS
  0
VERTEX
 10
10.000000
 20
10.400000
  8
2
 62
7
  6
CONTINUOUS
  0
VERTEX
 10
10.000000
 20
8.900000
  8
2
 62
7
  6
CONTINUOUS
  0
VERTEX
 10
10.300000
 20
8.900000
  8
2
 62
7
  6
CONTINUOUS
  0
VERTEX
 10
10.300000
 20
2.200000
  8
2
 62
7
  6
CONTINUOUS
  0
VERTEX
 10
0.300000
 20
2.200000
  8
2
 62
7
  6
CONTINUOUS
  0
VERTEX
 10
0.300000
 20
8.900000
  8
2
 62
7
  6
CONTINUOUS
  0
VERTEX
 10
0.600000
 20
8.900000
  8
2
 62
7
  6
CONTINUOUS
  0
SEQEND
  0
CIRCLE
  8
2
 62
7
  6
CONTINUOUS
 10
2.300000
 20
3.200000
 30
0.0
 40
0.500000
  0
CIRCLE
  8
2
 62
7
  6
CONTINUOUS
 10
2.300000
 20
9.400000
 30
0.0
 40
0.500000
  0
CIRCLE
  8
2
 62
7
  6
CONTINUOUS
 10
5.300000
 20
9.400000
 30
0.0
 40
0.500000
  0
CIRCLE
  8
2
 62
7
  6
CONTINUOUS
 10
5.300000
 20
3.200000
 30
0.0
 40
0.500000
  0
CIRCLE
  8
2
 62
7
  6
CONTINUOUS
 10
8.300000
 20
9.400000
 30
0.0
 40
0.500000
  0
CIRCLE
  8
2
 62
7
  6
CONTINUOUS
 10
8.300000
 20
3.200000
 30
0.0
 40
0.500000
  0
POLYLINE
  8
2
 62
7
  6
L014100020032000000
 70
1
 66
1
  0
VERTEX
 10
9.300000
 20
4.500000
 30
0.000000
  8
2
 62
7
  6
L014100020032000000
  0
VERTEX
 10
9.300000
 20
8.000000
 30
0.000000
  8
2
 62
7
  6
L014100020032000000
  0
VERTEX
 10
7.300000
 20
8.000000
 30
0.000000
  8
2
 62
7
  6
L014100020032000000
  0
VERTEX
 10
7.300000
 20
4.500000
 30
0.000000
  8
2
 62
7
  6
L014100020032000000
  0
SEQEND
  0
POLYLINE
  8
2
 62
7
  6
L014100020032000000
 70
1
 66
1
  0
VERTEX
 10
3.300000
 20
4.500000
 30
0.000000
  8
2
 62
7
  6
L014100020032000000
  0
VERTEX
 10
3.300000
 20
8.000000
 30
0.000000
  8
2
 62
7
  6
L014100020032000000
  0
VERTEX
 10
1.300000
 20
8.000000
 30
0.000000
  8
2
 62
7
  6
L014100020032000000
  0
VERTEX
 10
1.300000
 20
4.500000
 30
0.000000
  8
2
 62
7
  6
L014100020032000000
  0
SEQEND
  0
POLYLINE
  8
2
 62
7
  6
L014100020032000000
 70
1
 66
1
  0
VERTEX
 10
6.300000
 20
4.500000
 30
0.000000
  8
2
 62
7
  6
L014100020032000000
  0
VERTEX
 10
6.300000
 20
8.000000
 30
0.000000
  8
2
 62
7
  6
L014100020032000000
  0
VERTEX
 10
4.300000
 20
8.000000
 30
0.000000
  8
2
 62
7
  6
L014100020032000000
  0
VERTEX
 10
4.300000
 20
4.500000
 30
0.000000
  8
2
 62
7
  6
L014100020032000000
  0
SEQEND
  0
TEXT
  8
2
 62
7
  6
L014100020032000000
 10
8.200000
 20
10.933333
 40
0.800000
  1
XLP00
 50
0.000000
 51
0.000000
 72
1
 73
0
 11
8.200000
 21
10.933333
  0
TEXT
  8
2
 62
7
  6
CONTINUOUS
 10
2.100000
 20
10.933333
 40
0.800000
  1
ABB
 50
0.000000
 51
0.000000
 72
1
 73
0
 11
2.100000
 21
10.933333
  0
LINE
  8
2
 62
7
  6
CONTINUOUS
 10
10.000000
 20
14.300000
 11
0.600000
 21
14.300000
  0
SOLID
  8
11
 62
8
  6
CONTINUOUS
 10
10.600000
 20
15.600000
 11
10.600000
 21
0.000000
 12
0.000000
 22
15.600000
 13
0.000000
 23
0.000000
  0
POLYLINE
  8
11
 62
7
  6
CONTINUOUS
 70
1
 66
1
  0
VERTEX
 10
10.600000
 20
15.600000
 30
0.000000
  8
11
 62
7
  6
CONTINUOUS
  0
VERTEX
 10
10.600000
 20
0.000000
 30
0.000000
  8
11
 62
7
  6
CONTINUOUS
  0
VERTEX
 10
0.000000
 20
0.000000
 30
0.000000
  8
11
 62
7
  6
CONTINUOUS
  0
VERTEX
 10
0.000000
 20
15.600000
 30
0.000000
  8
11
 62
7
  6
CONTINUOUS
  0
SEQEND
  0
POLYLINE
  8
11
 62
7
  6
CONTINUOUS
 70
1
 66
1
  0
VERTEX
 10
10.000000
 20
12.000000
 30
0.000000
  8
11
 62
7
  6
CONTINUOUS
  0
VERTEX
 10
10.000000
 20
14.400000
 30
0.000000
  8
11
 62
7
  6
CONTINUOUS
  0
VERTEX
 10
0.600000
 20
14.400000
 30
0.000000
  8
11
 62
7
  6
CONTINUOUS
  0
VERTEX
 10
0.600000
 20
12.000000
 30
0.000000
  8
11
 62
7
  6
CONTINUOUS
  0
SEQEND
  0
POLYLINE
  8
11
 62
7
  6
CONTINUOUS
 70
0
 66
1
  0
VERTEX
 10
0.000000
 20
2.000000
  8
11
 62
7
  6
CONTINUOUS
  0
VERTEX
 10
10.600000
 20
2.000000
  8
11
 62
7
  6
CONTINUOUS
  0
SEQEND
  0
SOLID
  8
11
 62
1
  6
CONTINUOUS
 10
10.000000
 20
10.700000
 11
10.000000
 21
11.700000
 12
0.700000
 22
10.700000
 13
0.700000
 23
11.700000
  0
POLYLINE
  8
11
 62
7
  6
CONTINUOUS
 70
1
 66
1
  0
VERTEX
 10
10.000000
 20
10.700000
 30
0.000000
  8
11
 62
7
  6
CONTINUOUS
  0
VERTEX
 10
10.000000
 20
11.700000
 30
0.000000
  8
11
 62
7
  6
CONTINUOUS
  0
VERTEX
 10
0.700000
 20
11.700000
 30
0.000000
  8
11
 62
7
  6
CONTINUOUS
  0
VERTEX
 10
0.700000
 20
10.700000
 30
0.000000
  8
11
 62
7
  6
CONTINUOUS
  0
SEQEND
  0
POLYLINE
  8
11
 62
7
  6
CONTINUOUS
 70
1
 66
1
  0
VERTEX
 10
0.600000
 20
10.400000
  8
11
 62
7
  6
CONTINUOUS
  0
VERTEX
 10
10.000000
 20
10.400000
  8
11
 62
7
  6
CONTINUOUS
  0
VERTEX
 10
10.000000
 20
8.900000
  8
11
 62
7
  6
CONTINUOUS
  0
VERTEX
 10
10.300000
 20
8.900000
  8
11
 62
7
  6
CONTINUOUS
  0
VERTEX
 10
10.300000
 20
2.200000
  8
11
 62
7
  6
CONTINUOUS
  0
VERTEX
 10
0.300000
 20
2.200000
  8
11
 62
7
  6
CONTINUOUS
  0
VERTEX
 10
0.300000
 20
8.900000
  8
11
 62
7
  6
CONTINUOUS
  0
VERTEX
 10
0.600000
 20
8.900000
  8
11
 62
7
  6
CONTINUOUS
  0
SEQEND
  0
CIRCLE
  8
11
 62
7
  6
CONTINUOUS
 10
2.300000
 20
3.200000
 30
0.0
 40
0.500000
  0
CIRCLE
  8
11
 62
7
  6
CONTINUOUS
 10
2.300000
 20
9.400000
 30
0.0
 40
0.500000
  0
CIRCLE
  8
11
 62
7
  6
CONTINUOUS
 10
5.300000
 20
9.400000
 30
0.0
 40
0.500000
  0
CIRCLE
  8
11
 62
7
  6
CONTINUOUS
 10
5.300000
 20
3.200000
 30
0.0
 40
0.500000
  0
CIRCLE
  8
11
 62
7
  6
CONTINUOUS
 10
8.300000
 20
9.400000
 30
0.0
 40
0.500000
  0
CIRCLE
  8
11
 62
7
  6
CONTINUOUS
 10
8.300000
 20
3.200000
 30
0.0
 40
0.500000
  0
POLYLINE
  8
11
 62
7
  6
L014100020032000000
 70
1
 66
1
  0
VERTEX
 10
9.300000
 20
4.500000
 30
0.000000
  8
11
 62
7
  6
L014100020032000000
  0
VERTEX
 10
9.300000
 20
8.000000
 30
0.000000
  8
11
 62
7
  6
L014100020032000000
  0
VERTEX
 10
7.300000
 20
8.000000
 30
0.000000
  8
11
 62
7
  6
L014100020032000000
  0
VERTEX
 10
7.300000
 20
4.500000
 30
0.000000
  8
11
 62
7
  6
L014100020032000000
  0
SEQEND
  0
POLYLINE
  8
11
 62
7
  6
L014100020032000000
 70
1
 66
1
  0
VERTEX
 10
3.300000
 20
4.500000
 30
0.000000
  8
11
 62
7
  6
L014100020032000000
  0
VERTEX
 10
3.300000
 20
8.000000
 30
0.000000
  8
11
 62
7
  6
L014100020032000000
  0
VERTEX
 10
1.300000
 20
8.000000
 30
0.000000
  8
11
 62
7
  6
L014100020032000000
  0
VERTEX
 10
1.300000
 20
4.500000
 30
0.000000
  8
11
 62
7
  6
L014100020032000000
  0
SEQEND
  0
POLYLINE
  8
11
 62
7
  6
L014100020032000000
 70
1
 66
1
  0
VERTEX
 10
6.300000
 20
4.500000
 30
0.000000
  8
11
 62
7
  6
L014100020032000000
  0
VERTEX
 10
6.300000
 20
8.000000
 30
0.000000
  8
11
 62
7
  6
L014100020032000000
  0
VERTEX
 10
4.300000
 20
8.000000
 30
0.000000
  8
11
 62
7
  6
L014100020032000000
  0
VERTEX
 10
4.300000
 20
4.500000
 30
0.000000
  8
11
 62
7
  6
L014100020032000000
  0
SEQEND
  0
TEXT
  8
11
 62
7
  6
L014100020032000000
 10
8.200000
 20
10.933333
 40
0.800000
  1
XLP00
 50
0.000000
 51
0.000000
 72
1
 73
0
 11
8.200000
 21
10.933333
  0
TEXT
  8
11
 62
7
  6
CONTINUOUS
 10
2.100000
 20
10.933333
 40
0.800000
  1
ABB
 50
0.000000
 51
0.000000
 72
1
 73
0
 11
2.100000
 21
10.933333
  0
LINE
  8
11
 62
7
  6
CONTINUOUS
 10
10.000000
 20
14.300000
 11
0.600000
 21
14.300000
  0
ENDBLK
  0
ENDSEC
  0
SECTION
  2
ENTITIES
  0
INSERT
  8
0
 2
zh411
 10
0.000000
 20
0.000000
 30
0.0
 50
0.0
  0
ENDSEC
  0
EOF
