  0
SECTION
  2
HEADER
  9
$ACADVER
  1
AC1009
  9
$INSBASE
 10
0.0
 20
0.0
 30
0.0
  9
$EXTMIN
 10
0.0
 20
0.0
 30
0.0
  9
$EXTMAX
 10
0.000000
 20
0.000000
 30
0.0
  9
$LIMMIN
 10
0.0
 20
0.0
  9
$LIMMAX
 10
0.000000
 20
0.000000
  0
ENDSEC
  0
SECTION
  2
TABLES
  0
TABLE
  2
LTYPE
 70
2
  0
LTYPE
  2
L00000001000000C400
 70
64
  3
Solid line
 72
65
 73
0
 40
0.000000
  0
LTYPE
  2
CONTINUOUS
 70
64
  3
Solid line
 72
65
 73
0
 40
0.000000
  0
ENDTAB
  0
TABLE
  2
LAYER
 70
8
  0
LAYER
  2
0
 70
64
 62
7
  6
CONTINUOUS
  0
LAYER
  2
1
 70
64
 62
7
  6
CONTINUOUS
  0
LAYER
  2
2
 70
64
 62
7
  6
CONTINUOUS
  0
LAYER
  2
3
 70
64
 62
7
  6
CONTINUOUS
  0
LAYER
  2
4
 70
64
 62
7
  6
CONTINUOUS
  0
LAYER
  2
5
 70
64
 62
7
  6
CONTINUOUS
  0
LAYER
  2
6
 70
64
 62
7
  6
CONTINUOUS
  0
LAYER
  2
7
 70
64
 62
7
  6
CONTINUOUS
  0
LAYER
  2
8
 70
64
 62
7
  6
CONTINUOUS
  0
LAYER
  2
9
 70
64
 62
7
  6
CONTINUOUS
  0
LAYER
  2
10
 70
64
 62
7
  6
CONTINUOUS
  0
LAYER
  2
11
 70
64
 62
7
  6
CONTINUOUS
  0
LAYER
  2
12
 70
64
 62
7
  6
CONTINUOUS
  0
LAYER
  2
13
 70
64
 62
7
  6
CONTINUOUS
  0
LAYER
  2
14
 70
64
 62
7
  6
CONTINUOUS
  0
LAYER
  2
15
 70
64
 62
7
  6
CONTINUOUS
  0
LAYER
  2
16
 70
64
 62
7
  6
CONTINUOUS
  0
LAYER
  2
17
 70
64
 62
7
  6
CONTINUOUS
  0
LAYER
  2
18
 70
64
 62
7
  6
CONTINUOUS
  0
LAYER
  2
19
 70
64
 62
7
  6
CONTINUOUS
  0
ENDTAB
  0
ENDSEC
  0
SECTION
  2
BLOCKS
  0
BLOCK
  8
0
  2
ze60
 70
 0
 10
0.0
 20
0.0
 30
0.0
  0
SOLID
  8
2
 62
255
  6
CONTINUOUS
 10
2.600000
 20
-20.000000
 11
2.600000
 21
0.000000
 12
0.000000
 22
-20.000000
 13
0.000000
 23
0.000000
  0
POLYLINE
  8
2
 62
7
  6
CONTINUOUS
 70
1
 66
1
  0
VERTEX
 10
2.600000
 20
-20.000000
 30
0.000000
  8
2
 62
7
  6
CONTINUOUS
  0
VERTEX
 10
2.600000
 20
0.000000
 30
0.000000
  8
2
 62
7
  6
CONTINUOUS
  0
VERTEX
 10
0.000000
 20
0.000000
 30
0.000000
  8
2
 62
7
  6
CONTINUOUS
  0
VERTEX
 10
0.000000
 20
-20.000000
 30
0.000000
  8
2
 62
7
  6
CONTINUOUS
  0
SEQEND
  0
CIRCLE
  8
2
 62
7
  6
CONTINUOUS
 10
1.300000
 20
-4.100000
 30
0.0
 40
1.200000
  0
CIRCLE
  8
2
 62
7
  6
CONTINUOUS
 10
1.300000
 20
-10.100000
 30
0.0
 40
1.200000
  0
CIRCLE
  8
2
 62
7
  6
CONTINUOUS
 10
1.300000
 20
-16.100000
 30
0.0
 40
1.200000
  0
CIRCLE
  8
2
 62
7
  6
CONTINUOUS
 10
1.300000
 20
-16.100000
 30
0.0
 40
1.000000
  0
CIRCLE
  8
2
 62
7
  6
CONTINUOUS
 10
1.300000
 20
-10.100000
 30
0.0
 40
1.000000
  0
CIRCLE
  8
2
 62
7
  6
CONTINUOUS
 10
1.300000
 20
-4.100000
 30
0.0
 40
1.000000
  0
SOLID
  8
11
 62
255
  6
CONTINUOUS
 10
2.600000
 20
-20.000000
 11
2.600000
 21
0.000000
 12
0.000000
 22
-20.000000
 13
0.000000
 23
0.000000
  0
POLYLINE
  8
11
 62
7
  6
CONTINUOUS
 70
1
 66
1
  0
VERTEX
 10
2.600000
 20
-20.000000
 30
0.000000
  8
11
 62
7
  6
CONTINUOUS
  0
VERTEX
 10
2.600000
 20
0.000000
 30
0.000000
  8
11
 62
7
  6
CONTINUOUS
  0
VERTEX
 10
0.000000
 20
0.000000
 30
0.000000
  8
11
 62
7
  6
CONTINUOUS
  0
VERTEX
 10
0.000000
 20
-20.000000
 30
0.000000
  8
11
 62
7
  6
CONTINUOUS
  0
SEQEND
  0
CIRCLE
  8
11
 62
7
  6
CONTINUOUS
 10
1.300000
 20
-4.100000
 30
0.0
 40
1.200000
  0
CIRCLE
  8
11
 62
7
  6
CONTINUOUS
 10
1.300000
 20
-10.100000
 30
0.0
 40
1.200000
  0
CIRCLE
  8
11
 62
7
  6
CONTINUOUS
 10
1.300000
 20
-16.100000
 30
0.0
 40
1.200000
  0
CIRCLE
  8
11
 62
7
  6
CONTINUOUS
 10
1.300000
 20
-16.100000
 30
0.0
 40
1.000000
  0
CIRCLE
  8
11
 62
7
  6
CONTINUOUS
 10
1.300000
 20
-4.100000
 30
0.0
 40
1.000000
  0
CIRCLE
  8
11
 62
7
  6
CONTINUOUS
 10
1.300000
 20
-10.100000
 30
0.0
 40
1.000000
  0
ENDBLK
  0
ENDSEC
  0
SECTION
  2
ENTITIES
  0
INSERT
  8
0
 2
ze60
 10
0.000000
 20
0.000000
 30
0.0
 50
0.0
  0
ENDSEC
  0
EOF
