  0
SECTION
  2
HEADER
  9
$ACADVER
  1
AC1009
  9
$INSBASE
 10
0.0
 20
0.0
 30
0.0
  9
$EXTMIN
 10
0.0
 20
0.0
 30
0.0
  9
$EXTMAX
 10
0.000000
 20
0.000000
 30
0.0
  9
$LIMMIN
 10
0.0
 20
0.0
  9
$LIMMAX
 10
0.000000
 20
0.000000
  0
ENDSEC
  0
SECTION
  2
TABLES
  0
TABLE
  2
LTYPE
 70
9
  0
LTYPE
  2
L0141000200320000FF
 70
64
  3
- - - - - - - -
 72
65
 73
2
 40
0.500000
 49
0.300000
 49
-0.200000
  0
LTYPE
  2
CONTINUOUS
 70
64
  3
Solid line
 72
65
 73
0
 40
0.000000
  0
LTYPE
  2
L000000000000000000
 70
64
  3
Solid line
 72
65
 73
0
 40
0.000000
  0
LTYPE
  2
L000000020000FFFFFF
 70
64
  3
Solid line
 72
65
 73
0
 40
0.000000
  0
LTYPE
  2
L0141000400320000FF
 70
64
  3
- - - - - - - -
 72
65
 73
2
 40
0.500000
 49
0.300000
 49
-0.200000
  0
LTYPE
  2
L014100000000000000
 70
64
  3
- - - - - - - -
 72
65
 73
2
 40
0.000000
 49
42949672.760000
 49
-0.200000
  0
LTYPE
  2
L014100020032000000
 70
64
  3
- - - - - - - -
 72
65
 73
2
 40
0.500000
 49
0.300000
 49
-0.200000
  0
LTYPE
  2
L000000020000008000
 70
64
  3
Solid line
 72
65
 73
0
 40
0.000000
  0
LTYPE
  2
L000000010000000000
 70
64
  3
Solid line
 72
65
 73
0
 40
0.000000
  0
ENDTAB
  0
TABLE
  2
LAYER
 70
8
  0
LAYER
  2
0
 70
64
 62
7
  6
CONTINUOUS
  0
LAYER
  2
1
 70
64
 62
7
  6
CONTINUOUS
  0
LAYER
  2
2
 70
64
 62
7
  6
CONTINUOUS
  0
LAYER
  2
3
 70
64
 62
-7
  6
CONTINUOUS
  0
LAYER
  2
4
 70
64
 62
7
  6
CONTINUOUS
  0
LAYER
  2
5
 70
64
 62
7
  6
CONTINUOUS
  0
LAYER
  2
6
 70
64
 62
7
  6
CONTINUOUS
  0
LAYER
  2
7
 70
64
 62
7
  6
CONTINUOUS
  0
LAYER
  2
8
 70
64
 62
7
  6
CONTINUOUS
  0
LAYER
  2
9
 70
64
 62
7
  6
CONTINUOUS
  0
LAYER
  2
10
 70
64
 62
7
  6
CONTINUOUS
  0
LAYER
  2
11
 70
64
 62
7
  6
CONTINUOUS
  0
LAYER
  2
12
 70
64
 62
7
  6
CONTINUOUS
  0
LAYER
  2
13
 70
64
 62
7
  6
CONTINUOUS
  0
LAYER
  2
14
 70
64
 62
7
  6
CONTINUOUS
  0
LAYER
  2
15
 70
64
 62
-7
  6
CONTINUOUS
  0
LAYER
  2
16
 70
64
 62
7
  6
CONTINUOUS
  0
LAYER
  2
17
 70
64
 62
7
  6
CONTINUOUS
  0
LAYER
  2
18
 70
64
 62
7
  6
CONTINUOUS
  0
LAYER
  2
19
 70
64
 62
7
  6
CONTINUOUS
  0
LAYER
  2
20
 70
64
 62
7
  6
CONTINUOUS
  0
LAYER
  2
21
 70
64
 62
7
  6
CONTINUOUS
  0
LAYER
  2
22
 70
64
 62
7
  6
CONTINUOUS
  0
LAYER
  2
23
 70
64
 62
7
  6
CONTINUOUS
  0
LAYER
  2
24
 70
64
 62
7
  6
CONTINUOUS
  0
LAYER
  2
25
 70
64
 62
7
  6
CONTINUOUS
  0
LAYER
  2
26
 70
64
 62
7
  6
CONTINUOUS
  0
LAYER
  2
27
 70
64
 62
7
  6
CONTINUOUS
  0
LAYER
  2
28
 70
64
 62
7
  6
CONTINUOUS
  0
LAYER
  2
29
 70
64
 62
-7
  6
CONTINUOUS
  0
LAYER
  2
30
 70
64
 62
-7
  6
CONTINUOUS
  0
LAYER
  2
31
 70
64
 62
7
  6
CONTINUOUS
  0
LAYER
  2
32
 70
64
 62
7
  6
CONTINUOUS
  0
LAYER
  2
33
 70
64
 62
7
  6
CONTINUOUS
  0
LAYER
  2
34
 70
64
 62
7
  6
CONTINUOUS
  0
LAYER
  2
35
 70
64
 62
7
  6
CONTINUOUS
  0
LAYER
  2
36
 70
64
 62
7
  6
CONTINUOUS
  0
LAYER
  2
37
 70
64
 62
7
  6
CONTINUOUS
  0
LAYER
  2
38
 70
64
 62
-7
  6
CONTINUOUS
  0
LAYER
  2
39
 70
64
 62
-7
  6
CONTINUOUS
  0
LAYER
  2
40
 70
64
 62
7
  6
CONTINUOUS
  0
LAYER
  2
41
 70
64
 62
7
  6
CONTINUOUS
  0
LAYER
  2
42
 70
64
 62
7
  6
CONTINUOUS
  0
LAYER
  2
43
 70
64
 62
7
  6
CONTINUOUS
  0
LAYER
  2
44
 70
64
 62
7
  6
CONTINUOUS
  0
LAYER
  2
45
 70
64
 62
7
  6
CONTINUOUS
  0
LAYER
  2
46
 70
64
 62
7
  6
CONTINUOUS
  0
LAYER
  2
47
 70
64
 62
-7
  6
CONTINUOUS
  0
LAYER
  2
48
 70
64
 62
-7
  6
CONTINUOUS
  0
LAYER
  2
49
 70
64
 62
-7
  6
CONTINUOUS
  0
LAYER
  2
50
 70
64
 62
-7
  6
CONTINUOUS
  0
LAYER
  2
51
 70
64
 62
-7
  6
CONTINUOUS
  0
LAYER
  2
52
 70
64
 62
-7
  6
CONTINUOUS
  0
LAYER
  2
53
 70
64
 62
-7
  6
CONTINUOUS
  0
LAYER
  2
54
 70
64
 62
-7
  6
CONTINUOUS
  0
LAYER
  2
55
 70
64
 62
-7
  6
CONTINUOUS
  0
LAYER
  2
56
 70
64
 62
-7
  6
CONTINUOUS
  0
LAYER
  2
57
 70
64
 62
-7
  6
CONTINUOUS
  0
LAYER
  2
58
 70
64
 62
7
  6
CONTINUOUS
  0
LAYER
  2
59
 70
64
 62
-7
  6
CONTINUOUS
  0
LAYER
  2
60
 70
64
 62
-7
  6
CONTINUOUS
  0
LAYER
  2
61
 70
64
 62
7
  6
CONTINUOUS
  0
LAYER
  2
62
 70
64
 62
7
  6
CONTINUOUS
  0
LAYER
  2
63
 70
64
 62
7
  6
CONTINUOUS
  0
LAYER
  2
64
 70
64
 62
7
  6
CONTINUOUS
  0
LAYER
  2
65
 70
64
 62
7
  6
CONTINUOUS
  0
LAYER
  2
66
 70
64
 62
7
  6
CONTINUOUS
  0
LAYER
  2
67
 70
64
 62
7
  6
CONTINUOUS
  0
LAYER
  2
68
 70
64
 62
7
  6
CONTINUOUS
  0
LAYER
  2
69
 70
64
 62
7
  6
CONTINUOUS
  0
LAYER
  2
70
 70
64
 62
7
  6
CONTINUOUS
  0
LAYER
  2
71
 70
64
 62
7
  6
CONTINUOUS
  0
LAYER
  2
72
 70
64
 62
7
  6
CONTINUOUS
  0
LAYER
  2
73
 70
64
 62
7
  6
CONTINUOUS
  0
LAYER
  2
74
 70
64
 62
7
  6
CONTINUOUS
  0
LAYER
  2
75
 70
64
 62
7
  6
CONTINUOUS
  0
LAYER
  2
76
 70
64
 62
7
  6
CONTINUOUS
  0
LAYER
  2
77
 70
64
 62
7
  6
CONTINUOUS
  0
LAYER
  2
78
 70
64
 62
7
  6
CONTINUOUS
  0
LAYER
  2
79
 70
64
 62
7
  6
CONTINUOUS
  0
LAYER
  2
80
 70
64
 62
7
  6
CONTINUOUS
  0
LAYER
  2
81
 70
64
 62
7
  6
CONTINUOUS
  0
LAYER
  2
82
 70
64
 62
7
  6
CONTINUOUS
  0
LAYER
  2
83
 70
64
 62
7
  6
CONTINUOUS
  0
LAYER
  2
84
 70
64
 62
7
  6
CONTINUOUS
  0
LAYER
  2
85
 70
64
 62
7
  6
CONTINUOUS
  0
LAYER
  2
86
 70
64
 62
7
  6
CONTINUOUS
  0
LAYER
  2
87
 70
64
 62
7
  6
CONTINUOUS
  0
LAYER
  2
88
 70
64
 62
7
  6
CONTINUOUS
  0
LAYER
  2
89
 70
64
 62
7
  6
CONTINUOUS
  0
LAYER
  2
90
 70
64
 62
7
  6
CONTINUOUS
  0
LAYER
  2
91
 70
64
 62
7
  6
CONTINUOUS
  0
LAYER
  2
92
 70
64
 62
7
  6
CONTINUOUS
  0
LAYER
  2
93
 70
64
 62
7
  6
CONTINUOUS
  0
LAYER
  2
94
 70
64
 62
7
  6
CONTINUOUS
  0
LAYER
  2
95
 70
64
 62
7
  6
CONTINUOUS
  0
LAYER
  2
96
 70
64
 62
7
  6
CONTINUOUS
  0
LAYER
  2
97
 70
64
 62
7
  6
CONTINUOUS
  0
LAYER
  2
98
 70
64
 62
7
  6
CONTINUOUS
  0
LAYER
  2
99
 70
64
 62
7
  6
CONTINUOUS
  0
LAYER
  2
100
 70
64
 62
7
  6
CONTINUOUS
  0
LAYER
  2
101
 70
64
 62
7
  6
CONTINUOUS
  0
LAYER
  2
102
 70
64
 62
7
  6
CONTINUOUS
  0
LAYER
  2
103
 70
64
 62
7
  6
CONTINUOUS
  0
LAYER
  2
104
 70
64
 62
7
  6
CONTINUOUS
  0
LAYER
  2
105
 70
64
 62
7
  6
CONTINUOUS
  0
LAYER
  2
106
 70
64
 62
7
  6
CONTINUOUS
  0
LAYER
  2
107
 70
64
 62
7
  6
CONTINUOUS
  0
LAYER
  2
108
 70
64
 62
7
  6
CONTINUOUS
  0
LAYER
  2
109
 70
64
 62
7
  6
CONTINUOUS
  0
LAYER
  2
110
 70
64
 62
7
  6
CONTINUOUS
  0
LAYER
  2
111
 70
64
 62
7
  6
CONTINUOUS
  0
LAYER
  2
112
 70
64
 62
7
  6
CONTINUOUS
  0
LAYER
  2
113
 70
64
 62
7
  6
CONTINUOUS
  0
LAYER
  2
114
 70
64
 62
7
  6
CONTINUOUS
  0
LAYER
  2
115
 70
64
 62
7
  6
CONTINUOUS
  0
LAYER
  2
116
 70
64
 62
7
  6
CONTINUOUS
  0
LAYER
  2
117
 70
64
 62
7
  6
CONTINUOUS
  0
LAYER
  2
118
 70
64
 62
7
  6
CONTINUOUS
  0
LAYER
  2
119
 70
64
 62
7
  6
CONTINUOUS
  0
LAYER
  2
120
 70
64
 62
7
  6
CONTINUOUS
  0
LAYER
  2
121
 70
64
 62
7
  6
CONTINUOUS
  0
LAYER
  2
122
 70
64
 62
7
  6
CONTINUOUS
  0
LAYER
  2
123
 70
64
 62
7
  6
CONTINUOUS
  0
LAYER
  2
124
 70
64
 62
7
  6
CONTINUOUS
  0
LAYER
  2
125
 70
64
 62
7
  6
CONTINUOUS
  0
LAYER
  2
126
 70
64
 62
7
  6
CONTINUOUS
  0
LAYER
  2
127
 70
64
 62
7
  6
CONTINUOUS
  0
LAYER
  2
128
 70
64
 62
7
  6
CONTINUOUS
  0
LAYER
  2
129
 70
64
 62
7
  6
CONTINUOUS
  0
LAYER
  2
130
 70
64
 62
7
  6
CONTINUOUS
  0
LAYER
  2
131
 70
64
 62
7
  6
CONTINUOUS
  0
LAYER
  2
132
 70
64
 62
7
  6
CONTINUOUS
  0
LAYER
  2
133
 70
64
 62
7
  6
CONTINUOUS
  0
LAYER
  2
134
 70
64
 62
7
  6
CONTINUOUS
  0
LAYER
  2
135
 70
64
 62
7
  6
CONTINUOUS
  0
LAYER
  2
136
 70
64
 62
7
  6
CONTINUOUS
  0
LAYER
  2
137
 70
64
 62
7
  6
CONTINUOUS
  0
LAYER
  2
138
 70
64
 62
7
  6
CONTINUOUS
  0
LAYER
  2
139
 70
64
 62
7
  6
CONTINUOUS
  0
LAYER
  2
140
 70
64
 62
7
  6
CONTINUOUS
  0
LAYER
  2
141
 70
64
 62
7
  6
CONTINUOUS
  0
LAYER
  2
142
 70
64
 62
7
  6
CONTINUOUS
  0
LAYER
  2
143
 70
64
 62
7
  6
CONTINUOUS
  0
LAYER
  2
144
 70
64
 62
7
  6
CONTINUOUS
  0
LAYER
  2
145
 70
64
 62
7
  6
CONTINUOUS
  0
LAYER
  2
146
 70
64
 62
7
  6
CONTINUOUS
  0
LAYER
  2
147
 70
64
 62
7
  6
CONTINUOUS
  0
LAYER
  2
148
 70
64
 62
7
  6
CONTINUOUS
  0
LAYER
  2
149
 70
64
 62
7
  6
CONTINUOUS
  0
LAYER
  2
150
 70
64
 62
7
  6
CONTINUOUS
  0
LAYER
  2
151
 70
64
 62
7
  6
CONTINUOUS
  0
LAYER
  2
152
 70
64
 62
7
  6
CONTINUOUS
  0
LAYER
  2
153
 70
64
 62
7
  6
CONTINUOUS
  0
LAYER
  2
154
 70
64
 62
7
  6
CONTINUOUS
  0
LAYER
  2
155
 70
64
 62
-7
  6
CONTINUOUS
  0
LAYER
  2
156
 70
64
 62
-7
  6
CONTINUOUS
  0
LAYER
  2
157
 70
64
 62
-7
  6
CONTINUOUS
  0
LAYER
  2
158
 70
64
 62
-7
  6
CONTINUOUS
  0
LAYER
  2
159
 70
64
 62
-7
  6
CONTINUOUS
  0
LAYER
  2
160
 70
64
 62
-7
  6
CONTINUOUS
  0
LAYER
  2
161
 70
64
 62
-7
  6
CONTINUOUS
  0
LAYER
  2
162
 70
64
 62
-7
  6
CONTINUOUS
  0
LAYER
  2
163
 70
64
 62
-7
  6
CONTINUOUS
  0
LAYER
  2
164
 70
64
 62
7
  6
CONTINUOUS
  0
LAYER
  2
165
 70
64
 62
7
  6
CONTINUOUS
  0
LAYER
  2
166
 70
64
 62
7
  6
CONTINUOUS
  0
LAYER
  2
167
 70
64
 62
7
  6
CONTINUOUS
  0
LAYER
  2
168
 70
64
 62
7
  6
CONTINUOUS
  0
LAYER
  2
169
 70
64
 62
7
  6
CONTINUOUS
  0
LAYER
  2
170
 70
64
 62
7
  6
CONTINUOUS
  0
LAYER
  2
171
 70
64
 62
7
  6
CONTINUOUS
  0
LAYER
  2
172
 70
64
 62
7
  6
CONTINUOUS
  0
LAYER
  2
173
 70
64
 62
7
  6
CONTINUOUS
  0
LAYER
  2
174
 70
64
 62
7
  6
CONTINUOUS
  0
LAYER
  2
175
 70
64
 62
7
  6
CONTINUOUS
  0
LAYER
  2
176
 70
64
 62
7
  6
CONTINUOUS
  0
LAYER
  2
177
 70
64
 62
7
  6
CONTINUOUS
  0
LAYER
  2
178
 70
64
 62
7
  6
CONTINUOUS
  0
LAYER
  2
179
 70
64
 62
7
  6
CONTINUOUS
  0
LAYER
  2
180
 70
64
 62
7
  6
CONTINUOUS
  0
LAYER
  2
181
 70
64
 62
7
  6
CONTINUOUS
  0
LAYER
  2
182
 70
64
 62
7
  6
CONTINUOUS
  0
LAYER
  2
183
 70
64
 62
7
  6
CONTINUOUS
  0
LAYER
  2
184
 70
64
 62
7
  6
CONTINUOUS
  0
LAYER
  2
185
 70
64
 62
7
  6
CONTINUOUS
  0
LAYER
  2
186
 70
64
 62
7
  6
CONTINUOUS
  0
LAYER
  2
187
 70
64
 62
7
  6
CONTINUOUS
  0
LAYER
  2
188
 70
64
 62
7
  6
CONTINUOUS
  0
LAYER
  2
189
 70
64
 62
7
  6
CONTINUOUS
  0
LAYER
  2
190
 70
64
 62
7
  6
CONTINUOUS
  0
LAYER
  2
191
 70
64
 62
7
  6
CONTINUOUS
  0
LAYER
  2
192
 70
64
 62
7
  6
CONTINUOUS
  0
LAYER
  2
193
 70
64
 62
7
  6
CONTINUOUS
  0
LAYER
  2
194
 70
64
 62
7
  6
CONTINUOUS
  0
LAYER
  2
195
 70
64
 62
7
  6
CONTINUOUS
  0
LAYER
  2
196
 70
64
 62
7
  6
CONTINUOUS
  0
LAYER
  2
197
 70
64
 62
7
  6
CONTINUOUS
  0
LAYER
  2
198
 70
64
 62
7
  6
CONTINUOUS
  0
LAYER
  2
199
 70
64
 62
7
  6
CONTINUOUS
  0
ENDTAB
  0
ENDSEC
  0
SECTION
  2
BLOCKS
  0
BLOCK
  8
0
  2
wx32kk11s
 70
 0
 10
0.0
 20
0.0
 30
0.0
  0
SOLID
  8
31
 62
255
  6
L000000020000FFFFFF
 10
52.500000
 20
51.600000
 11
52.500000
 21
94.600000
 12
50.500000
 22
51.600000
 13
50.500000
 23
94.600000
  0
POLYLINE
  8
31
 62
255
  6
L000000020000FFFFFF
 70
1
 66
1
  0
VERTEX
 10
52.500000
 20
51.600000
 30
0.000000
  8
31
 62
255
  6
L000000020000FFFFFF
  0
VERTEX
 10
52.500000
 20
94.600000
 30
0.000000
  8
31
 62
255
  6
L000000020000FFFFFF
  0
VERTEX
 10
50.500000
 20
94.600000
 30
0.000000
  8
31
 62
255
  6
L000000020000FFFFFF
  0
VERTEX
 10
50.500000
 20
51.600000
 30
0.000000
  8
31
 62
255
  6
L000000020000FFFFFF
  0
SEQEND
  0
SOLID
  8
31
 62
255
  6
L000000020000FFFFFF
 10
74.500000
 20
51.600000
 11
74.500000
 21
94.600000
 12
72.500000
 22
51.600000
 13
72.500000
 23
94.600000
  0
POLYLINE
  8
31
 62
255
  6
L000000020000FFFFFF
 70
1
 66
1
  0
VERTEX
 10
74.500000
 20
51.600000
 30
0.000000
  8
31
 62
255
  6
L000000020000FFFFFF
  0
VERTEX
 10
74.500000
 20
94.600000
 30
0.000000
  8
31
 62
255
  6
L000000020000FFFFFF
  0
VERTEX
 10
72.500000
 20
94.600000
 30
0.000000
  8
31
 62
255
  6
L000000020000FFFFFF
  0
VERTEX
 10
72.500000
 20
51.600000
 30
0.000000
  8
31
 62
255
  6
L000000020000FFFFFF
  0
SEQEND
  0
LINE
  8
31
 62
7
  6
CONTINUOUS
 10
52.500000
 20
94.600000
 11
50.500000
 21
94.600000
  0
LINE
  8
31
 62
7
  6
L014100020032000000
 10
50.500000
 20
94.600000
 11
50.500000
 21
51.600000
  0
LINE
  8
31
 62
7
  6
L014100020032000000
 10
74.500000
 20
94.600000
 11
74.500000
 21
51.600000
  0
LINE
  8
31
 62
7
  6
L014100020032000000
 10
72.500000
 20
94.600000
 11
72.500000
 21
51.600000
  0
LINE
  8
31
 62
7
  6
CONTINUOUS
 10
74.500000
 20
94.600000
 11
72.500000
 21
94.600000
  0
SOLID
  8
31
 62
255
  6
L000000020000FFFFFF
 10
2.500000
 20
51.600000
 11
2.500000
 21
94.600000
 12
0.500000
 22
51.600000
 13
0.500000
 23
94.600000
  0
POLYLINE
  8
31
 62
255
  6
L000000020000FFFFFF
 70
1
 66
1
  0
VERTEX
 10
2.500000
 20
51.600000
 30
0.000000
  8
31
 62
255
  6
L000000020000FFFFFF
  0
VERTEX
 10
2.500000
 20
94.600000
 30
0.000000
  8
31
 62
255
  6
L000000020000FFFFFF
  0
VERTEX
 10
0.500000
 20
94.600000
 30
0.000000
  8
31
 62
255
  6
L000000020000FFFFFF
  0
VERTEX
 10
0.500000
 20
51.600000
 30
0.000000
  8
31
 62
255
  6
L000000020000FFFFFF
  0
SEQEND
  0
SOLID
  8
31
 62
255
  6
L000000020000FFFFFF
 10
24.500000
 20
51.600000
 11
24.500000
 21
94.600000
 12
22.500000
 22
51.600000
 13
22.500000
 23
94.600000
  0
POLYLINE
  8
31
 62
255
  6
L000000020000FFFFFF
 70
1
 66
1
  0
VERTEX
 10
24.500000
 20
51.600000
 30
0.000000
  8
31
 62
255
  6
L000000020000FFFFFF
  0
VERTEX
 10
24.500000
 20
94.600000
 30
0.000000
  8
31
 62
255
  6
L000000020000FFFFFF
  0
VERTEX
 10
22.500000
 20
94.600000
 30
0.000000
  8
31
 62
255
  6
L000000020000FFFFFF
  0
VERTEX
 10
22.500000
 20
51.600000
 30
0.000000
  8
31
 62
255
  6
L000000020000FFFFFF
  0
SEQEND
  0
LINE
  8
31
 62
7
  6
CONTINUOUS
 10
2.500000
 20
94.600000
 11
0.500000
 21
94.600000
  0
LINE
  8
31
 62
7
  6
L014100020032000000
 10
0.500000
 20
94.600000
 11
0.500000
 21
51.600000
  0
LINE
  8
31
 62
7
  6
L014100020032000000
 10
24.500000
 20
94.600000
 11
24.500000
 21
51.600000
  0
LINE
  8
31
 62
7
  6
CONTINUOUS
 10
24.500000
 20
94.600000
 11
22.500000
 21
94.600000
  0
POLYLINE
  8
31
 62
255
  6
L000000020000FFFFFF
 70
1
 66
1
  0
VERTEX
 10
4.000000
 20
7.300000
 30
0.000000
  8
31
 62
255
  6
L000000020000FFFFFF
  0
VERTEX
 10
4.000000
 20
22.700000
 30
0.000000
  8
31
 62
255
  6
L000000020000FFFFFF
  0
VERTEX
 10
2.000000
 20
22.700000
 30
0.000000
  8
31
 62
255
  6
L000000020000FFFFFF
  0
VERTEX
 10
2.000000
 20
7.300000
 30
0.000000
  8
31
 62
255
  6
L000000020000FFFFFF
  0
SEQEND
  0
LINE
  8
31
 62
7
  6
CONTINUOUS
 10
4.000000
 20
29.000000
 11
2.000000
 21
29.000000
  0
LINE
  8
31
 62
7
  6
L014100020032000000
 10
4.000000
 20
29.000000
 11
4.000000
 21
21.100000
  0
LINE
  8
31
 62
7
  6
CONTINUOUS
 10
2.000000
 20
21.000000
 11
4.000000
 21
21.000000
  0
LINE
  8
31
 62
7
  6
L014100020032000000
 10
2.000000
 20
29.000000
 11
2.000000
 21
21.000000
  0
POLYLINE
  8
31
 62
255
  6
L000000020000FFFFFF
 70
1
 66
1
  0
VERTEX
 10
51.200000
 20
10.500000
 30
0.000000
  8
31
 62
255
  6
L000000020000FFFFFF
  0
VERTEX
 10
51.200000
 20
25.900000
 30
0.000000
  8
31
 62
255
  6
L000000020000FFFFFF
  0
VERTEX
 10
49.200000
 20
25.900000
 30
0.000000
  8
31
 62
255
  6
L000000020000FFFFFF
  0
VERTEX
 10
49.200000
 20
10.500000
 30
0.000000
  8
31
 62
255
  6
L000000020000FFFFFF
  0
SEQEND
  0
LINE
  8
31
 62
7
  6
CONTINUOUS
 10
4.000000
 20
14.000000
 11
2.000000
 21
14.000000
  0
LINE
  8
31
 62
7
  6
L014100020032000000
 10
4.000000
 20
14.000000
 11
4.000000
 21
6.100000
  0
LINE
  8
31
 62
7
  6
CONTINUOUS
 10
2.000000
 20
6.000000
 11
4.000000
 21
6.000000
  0
LINE
  8
31
 62
7
  6
L014100020032000000
 10
2.000000
 20
14.000000
 11
2.000000
 21
6.000000
  0
LINE
  8
31
 62
7
  6
CONTINUOUS
 10
73.000000
 20
29.100000
 11
71.000000
 21
29.100000
  0
LINE
  8
31
 62
7
  6
L014100020032000000
 10
73.000000
 20
29.100000
 11
73.000000
 21
21.100000
  0
LINE
  8
31
 62
7
  6
CONTINUOUS
 10
71.000000
 20
21.100000
 11
73.000000
 21
21.100000
  0
LINE
  8
31
 62
7
  6
CONTINUOUS
 10
73.000000
 20
14.100000
 11
71.000000
 21
14.100000
  0
LINE
  8
31
 62
7
  6
L014100020032000000
 10
73.000000
 20
14.100000
 11
73.000000
 21
6.100000
  0
LINE
  8
31
 62
7
  6
CONTINUOUS
 10
71.000000
 20
6.100000
 11
73.000000
 21
6.100000
  0
SOLID
  8
31
 62
255
  6
L014100020032000000
 10
68.600000
 20
100.000000
 11
68.600000
 21
101.000000
 12
56.400000
 22
100.000000
 13
56.400000
 23
101.000000
  0
POLYLINE
  8
31
 62
7
  6
L014100020032000000
 70
1
 66
1
  0
VERTEX
 10
68.600000
 20
100.000000
 30
0.000000
  8
31
 62
7
  6
L014100020032000000
  0
VERTEX
 10
68.600000
 20
101.000000
 30
0.000000
  8
31
 62
7
  6
L014100020032000000
  0
VERTEX
 10
56.400000
 20
101.000000
 30
0.000000
  8
31
 62
7
  6
L014100020032000000
  0
VERTEX
 10
56.400000
 20
100.000000
 30
0.000000
  8
31
 62
7
  6
L014100020032000000
  0
SEQEND
  0
LINE
  8
31
 62
7
  6
CONTINUOUS
 10
50.500000
 20
51.600000
 11
52.500000
 21
51.600000
  0
LINE
  8
31
 62
7
  6
CONTINUOUS
 10
74.500000
 20
51.600000
 11
72.500000
 21
51.600000
  0
LINE
  8
31
 62
7
  6
CONTINUOUS
 10
0.500000
 20
51.600000
 11
2.500000
 21
51.600000
  0
LINE
  8
31
 62
7
  6
CONTINUOUS
 10
24.500000
 20
51.600000
 11
22.500000
 21
51.600000
  0
POLYLINE
  8
31
 62
255
  6
L000000020000FFFFFF
 70
1
 66
1
  0
VERTEX
 10
48.000000
 20
7.400000
 30
0.000000
  8
31
 62
255
  6
L000000020000FFFFFF
  0
VERTEX
 10
48.000000
 20
22.800000
 30
0.000000
  8
31
 62
255
  6
L000000020000FFFFFF
  0
VERTEX
 10
46.000000
 20
22.800000
 30
0.000000
  8
31
 62
255
  6
L000000020000FFFFFF
  0
VERTEX
 10
46.000000
 20
7.400000
 30
0.000000
  8
31
 62
255
  6
L000000020000FFFFFF
  0
SEQEND
  0
SOLID
  8
1
 62
255
  6
CONTINUOUS
 10
24.800000
 20
105.300000
 11
24.800000
 21
179.800000
 12
0.200000
 22
105.300000
 13
0.200000
 23
179.800000
  0
POLYLINE
  8
1
 62
7
  6
CONTINUOUS
 70
1
 66
1
  0
VERTEX
 10
24.800000
 20
105.300000
 30
0.000000
  8
1
 62
7
  6
CONTINUOUS
  0
VERTEX
 10
24.800000
 20
179.800000
 30
0.000000
  8
1
 62
7
  6
CONTINUOUS
  0
VERTEX
 10
0.200000
 20
179.800000
 30
0.000000
  8
1
 62
7
  6
CONTINUOUS
  0
VERTEX
 10
0.200000
 20
105.300000
 30
0.000000
  8
1
 62
7
  6
CONTINUOUS
  0
SEQEND
  0
POLYLINE
  8
1
 62
7
  6
CONTINUOUS
 70
0
 66
1
  0
VERTEX
 10
0.200000
 20
120.000000
  8
1
 62
7
  6
CONTINUOUS
  0
VERTEX
 10
24.800000
 20
120.000000
  8
1
 62
7
  6
CONTINUOUS
  0
SEQEND
  0
POLYLINE
  8
1
 62
7
  6
CONTINUOUS
 70
0
 66
1
  0
VERTEX
 10
0.200000
 20
165.000000
  8
1
 62
7
  6
CONTINUOUS
  0
VERTEX
 10
24.800000
 20
165.000000
  8
1
 62
7
  6
CONTINUOUS
  0
SEQEND
  0
POLYLINE
  8
1
 62
7
  6
CONTINUOUS
 70
0
 66
1
  0
VERTEX
 10
11.500000
 20
140.000000
  8
1
 62
7
  6
CONTINUOUS
  0
VERTEX
 10
11.500000
 20
163.000000
  8
1
 62
7
  6
CONTINUOUS
  0
VERTEX
 10
13.500000
 20
163.000000
  8
1
 62
7
  6
CONTINUOUS
  0
VERTEX
 10
13.500000
 20
140.000000
  8
1
 62
7
  6
CONTINUOUS
  0
SEQEND
  0
POLYLINE
  8
1
 62
7
  6
CONTINUOUS
 70
0
 66
1
  0
VERTEX
 10
11.500000
 20
136.800000
  8
1
 62
7
  6
CONTINUOUS
  0
VERTEX
 10
11.500000
 20
133.000000
  8
1
 62
7
  6
CONTINUOUS
  0
SEQEND
  0
POLYLINE
  8
1
 62
7
  6
CONTINUOUS
 70
0
 66
1
  0
VERTEX
 10
13.500000
 20
136.800000
  8
1
 62
7
  6
CONTINUOUS
  0
VERTEX
 10
13.500000
 20
133.000000
  8
1
 62
7
  6
CONTINUOUS
  0
SEQEND
  0
POLYLINE
  8
1
 62
7
  6
CONTINUOUS
 70
1
 66
1
  0
VERTEX
 10
23.400000
 20
140.000000
 30
0.000000
  8
1
 62
7
  6
CONTINUOUS
  0
VERTEX
 10
23.400000
 20
136.800000
 30
0.000000
  8
1
 62
7
  6
CONTINUOUS
  0
VERTEX
 10
1.600000
 20
136.800000
 30
0.000000
  8
1
 62
7
  6
CONTINUOUS
  0
VERTEX
 10
1.600000
 20
140.000000
 30
0.000000
  8
1
 62
7
  6
CONTINUOUS
  0
SEQEND
  0
CIRCLE
  8
1
 62
7
  6
CONTINUOUS
 10
12.500000
 20
139.100000
 30
0.0
 40
0.500000
  0
CIRCLE
  8
1
 62
7
  6
CONTINUOUS
 10
10.500000
 20
139.100000
 30
0.0
 40
0.500000
  0
CIRCLE
  8
1
 62
7
  6
CONTINUOUS
 10
2.400000
 20
139.100000
 30
0.0
 40
0.300000
  0
SOLID
  8
1
 62
7
  6
CONTINUOUS
 10
10.500000
 20
138.800000
 11
10.500000
 21
139.400000
 12
2.400000
 22
138.800000
 13
2.400000
 23
139.400000
  0
POLYLINE
  8
1
 62
7
  6
CONTINUOUS
 70
1
 66
1
  0
VERTEX
 10
10.500000
 20
138.800000
 30
0.000000
  8
1
 62
7
  6
CONTINUOUS
  0
VERTEX
 10
10.500000
 20
139.400000
 30
0.000000
  8
1
 62
7
  6
CONTINUOUS
  0
VERTEX
 10
2.400000
 20
139.400000
 30
0.000000
  8
1
 62
7
  6
CONTINUOUS
  0
VERTEX
 10
2.400000
 20
138.800000
 30
0.000000
  8
1
 62
7
  6
CONTINUOUS
  0
SEQEND
  0
CIRCLE
  8
1
 62
7
  6
CONTINUOUS
 10
10.500000
 20
137.600000
 30
0.0
 40
0.500000
  0
CIRCLE
  8
1
 62
7
  6
CONTINUOUS
 10
2.400000
 20
137.600000
 30
0.0
 40
0.300000
  0
SOLID
  8
1
 62
7
  6
CONTINUOUS
 10
10.500000
 20
137.300000
 11
10.500000
 21
137.900000
 12
2.400000
 22
137.300000
 13
2.400000
 23
137.900000
  0
POLYLINE
  8
1
 62
7
  6
CONTINUOUS
 70
1
 66
1
  0
VERTEX
 10
10.500000
 20
137.300000
 30
0.000000
  8
1
 62
7
  6
CONTINUOUS
  0
VERTEX
 10
10.500000
 20
137.900000
 30
0.000000
  8
1
 62
7
  6
CONTINUOUS
  0
VERTEX
 10
2.400000
 20
137.900000
 30
0.000000
  8
1
 62
7
  6
CONTINUOUS
  0
VERTEX
 10
2.400000
 20
137.300000
 30
0.000000
  8
1
 62
7
  6
CONTINUOUS
  0
SEQEND
  0
CIRCLE
  8
1
 62
7
  6
CONTINUOUS
 10
14.500000
 20
139.100000
 30
0.0
 40
0.500000
  0
CIRCLE
  8
1
 62
7
  6
CONTINUOUS
 10
22.600000
 20
139.100000
 30
0.0
 40
0.300000
  0
SOLID
  8
1
 62
7
  6
CONTINUOUS
 10
14.500000
 20
138.800000
 11
14.500000
 21
139.400000
 12
22.600000
 22
138.800000
 13
22.600000
 23
139.400000
  0
POLYLINE
  8
1
 62
7
  6
CONTINUOUS
 70
1
 66
1
  0
VERTEX
 10
14.500000
 20
138.800000
 30
0.000000
  8
1
 62
7
  6
CONTINUOUS
  0
VERTEX
 10
14.500000
 20
139.400000
 30
0.000000
  8
1
 62
7
  6
CONTINUOUS
  0
VERTEX
 10
22.600000
 20
139.400000
 30
0.000000
  8
1
 62
7
  6
CONTINUOUS
  0
VERTEX
 10
22.600000
 20
138.800000
 30
0.000000
  8
1
 62
7
  6
CONTINUOUS
  0
SEQEND
  0
CIRCLE
  8
1
 62
7
  6
CONTINUOUS
 10
14.500000
 20
137.600000
 30
0.0
 40
0.500000
  0
CIRCLE
  8
1
 62
7
  6
CONTINUOUS
 10
22.600000
 20
137.600000
 30
0.0
 40
0.300000
  0
SOLID
  8
1
 62
7
  6
CONTINUOUS
 10
14.500000
 20
137.300000
 11
14.500000
 21
137.900000
 12
22.600000
 22
137.300000
 13
22.600000
 23
137.900000
  0
POLYLINE
  8
1
 62
7
  6
CONTINUOUS
 70
1
 66
1
  0
VERTEX
 10
14.500000
 20
137.300000
 30
0.000000
  8
1
 62
7
  6
CONTINUOUS
  0
VERTEX
 10
14.500000
 20
137.900000
 30
0.000000
  8
1
 62
7
  6
CONTINUOUS
  0
VERTEX
 10
22.600000
 20
137.900000
 30
0.000000
  8
1
 62
7
  6
CONTINUOUS
  0
VERTEX
 10
22.600000
 20
137.300000
 30
0.000000
  8
1
 62
7
  6
CONTINUOUS
  0
SEQEND
  0
CIRCLE
  8
1
 62
7
  6
CONTINUOUS
 10
12.500000
 20
139.100000
 30
0.0
 40
0.500000
  0
CIRCLE
  8
1
 62
7
  6
CONTINUOUS
 10
12.500000
 20
144.600000
 30
0.0
 40
0.400000
  0
SOLID
  8
1
 62
7
  6
CONTINUOUS
 10
12.200000
 20
140.000000
 11
12.200000
 21
143.300000
 12
12.800000
 22
140.000000
 13
12.800000
 23
143.300000
  0
POLYLINE
  8
1
 62
7
  6
CONTINUOUS
 70
1
 66
1
  0
VERTEX
 10
12.200000
 20
140.000000
 30
0.000000
  8
1
 62
7
  6
CONTINUOUS
  0
VERTEX
 10
12.200000
 20
143.300000
 30
0.000000
  8
1
 62
7
  6
CONTINUOUS
  0
VERTEX
 10
12.800000
 20
143.300000
 30
0.000000
  8
1
 62
7
  6
CONTINUOUS
  0
VERTEX
 10
12.800000
 20
140.000000
 30
0.000000
  8
1
 62
7
  6
CONTINUOUS
  0
SEQEND
  0
SOLID
  8
1
 62
7
  6
CONTINUOUS
 10
12.200000
 20
147.200000
 11
12.200000
 21
161.800000
 12
12.800000
 22
147.200000
 13
12.800000
 23
161.800000
  0
POLYLINE
  8
1
 62
7
  6
CONTINUOUS
 70
1
 66
1
  0
VERTEX
 10
12.200000
 20
147.200000
 30
0.000000
  8
1
 62
7
  6
CONTINUOUS
  0
VERTEX
 10
12.200000
 20
161.800000
 30
0.000000
  8
1
 62
7
  6
CONTINUOUS
  0
VERTEX
 10
12.800000
 20
161.800000
 30
0.000000
  8
1
 62
7
  6
CONTINUOUS
  0
VERTEX
 10
12.800000
 20
147.200000
 30
0.000000
  8
1
 62
7
  6
CONTINUOUS
  0
SEQEND
  0
CIRCLE
  8
1
 62
7
  6
CONTINUOUS
 10
12.500000
 20
147.100000
 30
0.0
 40
0.500000
  0
CIRCLE
  8
1
 62
7
  6
CONTINUOUS
 10
12.500000
 20
161.800000
 30
0.0
 40
0.300000
  0
CIRCLE
  8
1
 62
7
  6
CONTINUOUS
 10
12.500000
 20
143.300000
 30
0.0
 40
0.300000
  0
SOLID
  8
1
 62
7
  6
CONTINUOUS
 10
12.200000
 20
134.500000
 11
12.200000
 21
136.800000
 12
12.800000
 22
134.500000
 13
12.800000
 23
136.800000
  0
POLYLINE
  8
1
 62
7
  6
CONTINUOUS
 70
1
 66
1
  0
VERTEX
 10
12.200000
 20
134.500000
 30
0.000000
  8
1
 62
7
  6
CONTINUOUS
  0
VERTEX
 10
12.200000
 20
136.800000
 30
0.000000
  8
1
 62
7
  6
CONTINUOUS
  0
VERTEX
 10
12.800000
 20
136.800000
 30
0.000000
  8
1
 62
7
  6
CONTINUOUS
  0
VERTEX
 10
12.800000
 20
134.500000
 30
0.000000
  8
1
 62
7
  6
CONTINUOUS
  0
SEQEND
  0
LINE
  8
1
 62
7
  6
L014100020032000000
 10
24.800000
 20
110.200000
 11
0.200000
 21
110.200000
  0
LINE
  8
1
 62
7
  6
L014100020032000000
 10
24.800000
 20
114.800000
 11
0.200000
 21
114.800000
  0
LINE
  8
1
 62
7
  6
L014100020032000000
 10
24.800000
 20
170.200000
 11
0.200000
 21
170.200000
  0
LINE
  8
1
 62
7
  6
L014100020032000000
 10
24.800000
 20
174.800000
 11
0.200000
 21
174.800000
  0
SOLID
  8
1
 62
255
  6
CONTINUOUS
 10
49.800000
 20
105.300000
 11
49.800000
 21
179.800000
 12
25.200000
 22
105.300000
 13
25.200000
 23
179.800000
  0
POLYLINE
  8
1
 62
7
  6
CONTINUOUS
 70
1
 66
1
  0
VERTEX
 10
49.800000
 20
105.300000
 30
0.000000
  8
1
 62
7
  6
CONTINUOUS
  0
VERTEX
 10
49.800000
 20
179.800000
 30
0.000000
  8
1
 62
7
  6
CONTINUOUS
  0
VERTEX
 10
25.200000
 20
179.800000
 30
0.000000
  8
1
 62
7
  6
CONTINUOUS
  0
VERTEX
 10
25.200000
 20
105.300000
 30
0.000000
  8
1
 62
7
  6
CONTINUOUS
  0
SEQEND
  0
POLYLINE
  8
1
 62
7
  6
CONTINUOUS
 70
0
 66
1
  0
VERTEX
 10
25.200000
 20
120.000000
  8
1
 62
7
  6
CONTINUOUS
  0
VERTEX
 10
49.800000
 20
120.000000
  8
1
 62
7
  6
CONTINUOUS
  0
SEQEND
  0
POLYLINE
  8
1
 62
7
  6
CONTINUOUS
 70
0
 66
1
  0
VERTEX
 10
25.200000
 20
165.000000
  8
1
 62
7
  6
CONTINUOUS
  0
VERTEX
 10
49.800000
 20
165.000000
  8
1
 62
7
  6
CONTINUOUS
  0
SEQEND
  0
POLYLINE
  8
1
 62
7
  6
CONTINUOUS
 70
0
 66
1
  0
VERTEX
 10
36.500000
 20
140.000000
  8
1
 62
7
  6
CONTINUOUS
  0
VERTEX
 10
36.500000
 20
163.000000
  8
1
 62
7
  6
CONTINUOUS
  0
VERTEX
 10
38.500000
 20
163.000000
  8
1
 62
7
  6
CONTINUOUS
  0
VERTEX
 10
38.500000
 20
140.000000
  8
1
 62
7
  6
CONTINUOUS
  0
SEQEND
  0
POLYLINE
  8
1
 62
7
  6
CONTINUOUS
 70
0
 66
1
  0
VERTEX
 10
36.500000
 20
136.800000
  8
1
 62
7
  6
CONTINUOUS
  0
VERTEX
 10
36.500000
 20
133.000000
  8
1
 62
7
  6
CONTINUOUS
  0
SEQEND
  0
POLYLINE
  8
1
 62
7
  6
CONTINUOUS
 70
0
 66
1
  0
VERTEX
 10
38.500000
 20
136.800000
  8
1
 62
7
  6
CONTINUOUS
  0
VERTEX
 10
38.500000
 20
133.000000
  8
1
 62
7
  6
CONTINUOUS
  0
SEQEND
  0
POLYLINE
  8
1
 62
7
  6
CONTINUOUS
 70
1
 66
1
  0
VERTEX
 10
48.400000
 20
140.000000
 30
0.000000
  8
1
 62
7
  6
CONTINUOUS
  0
VERTEX
 10
48.400000
 20
136.800000
 30
0.000000
  8
1
 62
7
  6
CONTINUOUS
  0
VERTEX
 10
26.600000
 20
136.800000
 30
0.000000
  8
1
 62
7
  6
CONTINUOUS
  0
VERTEX
 10
26.600000
 20
140.000000
 30
0.000000
  8
1
 62
7
  6
CONTINUOUS
  0
SEQEND
  0
CIRCLE
  8
1
 62
7
  6
CONTINUOUS
 10
37.500000
 20
139.100000
 30
0.0
 40
0.500000
  0
CIRCLE
  8
1
 62
7
  6
CONTINUOUS
 10
35.500000
 20
139.100000
 30
0.0
 40
0.500000
  0
CIRCLE
  8
1
 62
7
  6
CONTINUOUS
 10
27.400000
 20
139.100000
 30
0.0
 40
0.300000
  0
SOLID
  8
1
 62
7
  6
CONTINUOUS
 10
35.500000
 20
138.800000
 11
35.500000
 21
139.400000
 12
27.400000
 22
138.800000
 13
27.400000
 23
139.400000
  0
POLYLINE
  8
1
 62
7
  6
CONTINUOUS
 70
1
 66
1
  0
VERTEX
 10
35.500000
 20
138.800000
 30
0.000000
  8
1
 62
7
  6
CONTINUOUS
  0
VERTEX
 10
35.500000
 20
139.400000
 30
0.000000
  8
1
 62
7
  6
CONTINUOUS
  0
VERTEX
 10
27.400000
 20
139.400000
 30
0.000000
  8
1
 62
7
  6
CONTINUOUS
  0
VERTEX
 10
27.400000
 20
138.800000
 30
0.000000
  8
1
 62
7
  6
CONTINUOUS
  0
SEQEND
  0
CIRCLE
  8
1
 62
7
  6
CONTINUOUS
 10
35.500000
 20
137.600000
 30
0.0
 40
0.500000
  0
CIRCLE
  8
1
 62
7
  6
CONTINUOUS
 10
27.400000
 20
137.600000
 30
0.0
 40
0.300000
  0
SOLID
  8
1
 62
7
  6
CONTINUOUS
 10
35.500000
 20
137.300000
 11
35.500000
 21
137.900000
 12
27.400000
 22
137.300000
 13
27.400000
 23
137.900000
  0
POLYLINE
  8
1
 62
7
  6
CONTINUOUS
 70
1
 66
1
  0
VERTEX
 10
35.500000
 20
137.300000
 30
0.000000
  8
1
 62
7
  6
CONTINUOUS
  0
VERTEX
 10
35.500000
 20
137.900000
 30
0.000000
  8
1
 62
7
  6
CONTINUOUS
  0
VERTEX
 10
27.400000
 20
137.900000
 30
0.000000
  8
1
 62
7
  6
CONTINUOUS
  0
VERTEX
 10
27.400000
 20
137.300000
 30
0.000000
  8
1
 62
7
  6
CONTINUOUS
  0
SEQEND
  0
CIRCLE
  8
1
 62
7
  6
CONTINUOUS
 10
39.500000
 20
139.100000
 30
0.0
 40
0.500000
  0
CIRCLE
  8
1
 62
7
  6
CONTINUOUS
 10
47.600000
 20
139.100000
 30
0.0
 40
0.300000
  0
SOLID
  8
1
 62
7
  6
CONTINUOUS
 10
39.500000
 20
138.800000
 11
39.500000
 21
139.400000
 12
47.600000
 22
138.800000
 13
47.600000
 23
139.400000
  0
POLYLINE
  8
1
 62
7
  6
CONTINUOUS
 70
1
 66
1
  0
VERTEX
 10
39.500000
 20
138.800000
 30
0.000000
  8
1
 62
7
  6
CONTINUOUS
  0
VERTEX
 10
39.500000
 20
139.400000
 30
0.000000
  8
1
 62
7
  6
CONTINUOUS
  0
VERTEX
 10
47.600000
 20
139.400000
 30
0.000000
  8
1
 62
7
  6
CONTINUOUS
  0
VERTEX
 10
47.600000
 20
138.800000
 30
0.000000
  8
1
 62
7
  6
CONTINUOUS
  0
SEQEND
  0
CIRCLE
  8
1
 62
7
  6
CONTINUOUS
 10
39.500000
 20
137.600000
 30
0.0
 40
0.500000
  0
CIRCLE
  8
1
 62
7
  6
CONTINUOUS
 10
47.600000
 20
137.600000
 30
0.0
 40
0.300000
  0
SOLID
  8
1
 62
7
  6
CONTINUOUS
 10
39.500000
 20
137.300000
 11
39.500000
 21
137.900000
 12
47.600000
 22
137.300000
 13
47.600000
 23
137.900000
  0
POLYLINE
  8
1
 62
7
  6
CONTINUOUS
 70
1
 66
1
  0
VERTEX
 10
39.500000
 20
137.300000
 30
0.000000
  8
1
 62
7
  6
CONTINUOUS
  0
VERTEX
 10
39.500000
 20
137.900000
 30
0.000000
  8
1
 62
7
  6
CONTINUOUS
  0
VERTEX
 10
47.600000
 20
137.900000
 30
0.000000
  8
1
 62
7
  6
CONTINUOUS
  0
VERTEX
 10
47.600000
 20
137.300000
 30
0.000000
  8
1
 62
7
  6
CONTINUOUS
  0
SEQEND
  0
CIRCLE
  8
1
 62
7
  6
CONTINUOUS
 10
37.500000
 20
139.100000
 30
0.0
 40
0.500000
  0
CIRCLE
  8
1
 62
7
  6
CONTINUOUS
 10
37.500000
 20
144.600000
 30
0.0
 40
0.400000
  0
SOLID
  8
1
 62
7
  6
CONTINUOUS
 10
37.200000
 20
140.000000
 11
37.200000
 21
143.300000
 12
37.800000
 22
140.000000
 13
37.800000
 23
143.300000
  0
POLYLINE
  8
1
 62
7
  6
CONTINUOUS
 70
1
 66
1
  0
VERTEX
 10
37.200000
 20
140.000000
 30
0.000000
  8
1
 62
7
  6
CONTINUOUS
  0
VERTEX
 10
37.200000
 20
143.300000
 30
0.000000
  8
1
 62
7
  6
CONTINUOUS
  0
VERTEX
 10
37.800000
 20
143.300000
 30
0.000000
  8
1
 62
7
  6
CONTINUOUS
  0
VERTEX
 10
37.800000
 20
140.000000
 30
0.000000
  8
1
 62
7
  6
CONTINUOUS
  0
SEQEND
  0
SOLID
  8
1
 62
7
  6
CONTINUOUS
 10
37.200000
 20
147.200000
 11
37.200000
 21
161.800000
 12
37.800000
 22
147.200000
 13
37.800000
 23
161.800000
  0
POLYLINE
  8
1
 62
7
  6
CONTINUOUS
 70
1
 66
1
  0
VERTEX
 10
37.200000
 20
147.200000
 30
0.000000
  8
1
 62
7
  6
CONTINUOUS
  0
VERTEX
 10
37.200000
 20
161.800000
 30
0.000000
  8
1
 62
7
  6
CONTINUOUS
  0
VERTEX
 10
37.800000
 20
161.800000
 30
0.000000
  8
1
 62
7
  6
CONTINUOUS
  0
VERTEX
 10
37.800000
 20
147.200000
 30
0.000000
  8
1
 62
7
  6
CONTINUOUS
  0
SEQEND
  0
CIRCLE
  8
1
 62
7
  6
CONTINUOUS
 10
37.500000
 20
147.100000
 30
0.0
 40
0.500000
  0
CIRCLE
  8
1
 62
7
  6
CONTINUOUS
 10
37.500000
 20
161.800000
 30
0.0
 40
0.300000
  0
CIRCLE
  8
1
 62
7
  6
CONTINUOUS
 10
37.500000
 20
143.300000
 30
0.0
 40
0.300000
  0
SOLID
  8
1
 62
7
  6
CONTINUOUS
 10
37.200000
 20
134.500000
 11
37.200000
 21
136.800000
 12
37.800000
 22
134.500000
 13
37.800000
 23
136.800000
  0
POLYLINE
  8
1
 62
7
  6
CONTINUOUS
 70
1
 66
1
  0
VERTEX
 10
37.200000
 20
134.500000
 30
0.000000
  8
1
 62
7
  6
CONTINUOUS
  0
VERTEX
 10
37.200000
 20
136.800000
 30
0.000000
  8
1
 62
7
  6
CONTINUOUS
  0
VERTEX
 10
37.800000
 20
136.800000
 30
0.000000
  8
1
 62
7
  6
CONTINUOUS
  0
VERTEX
 10
37.800000
 20
134.500000
 30
0.000000
  8
1
 62
7
  6
CONTINUOUS
  0
SEQEND
  0
LINE
  8
1
 62
7
  6
L014100020032000000
 10
49.800000
 20
110.200000
 11
25.200000
 21
110.200000
  0
LINE
  8
1
 62
7
  6
L014100020032000000
 10
49.800000
 20
114.800000
 11
25.200000
 21
114.800000
  0
LINE
  8
1
 62
7
  6
L014100020032000000
 10
49.800000
 20
170.200000
 11
25.200000
 21
170.200000
  0
LINE
  8
1
 62
7
  6
L014100020032000000
 10
49.800000
 20
174.800000
 11
25.200000
 21
174.800000
  0
SOLID
  8
1
 62
255
  6
CONTINUOUS
 10
74.800000
 20
134.800000
 11
74.800000
 21
105.200000
 12
50.200000
 22
134.800000
 13
50.200000
 23
105.200000
  0
POLYLINE
  8
1
 62
7
  6
CONTINUOUS
 70
1
 66
1
  0
VERTEX
 10
74.800000
 20
134.800000
 30
0.000000
  8
1
 62
7
  6
CONTINUOUS
  0
VERTEX
 10
74.800000
 20
105.200000
 30
0.000000
  8
1
 62
7
  6
CONTINUOUS
  0
VERTEX
 10
50.200000
 20
105.200000
 30
0.000000
  8
1
 62
7
  6
CONTINUOUS
  0
VERTEX
 10
50.200000
 20
134.800000
 30
0.000000
  8
1
 62
7
  6
CONTINUOUS
  0
SEQEND
  0
LINE
  8
1
 62
7
  6
CONTINUOUS
 10
74.000000
 20
107.100000
 11
74.000000
 21
107.600000
  0
LINE
  8
1
 62
7
  6
CONTINUOUS
 10
74.000000
 20
110.500000
 11
74.000000
 21
110.000000
  0
LINE
  8
1
 62
7
  6
CONTINUOUS
 10
73.600000
 20
108.800000
 11
74.500000
 21
108.800000
  0
CIRCLE
  8
1
 62
7
  6
CONTINUOUS
 10
74.000000
 20
108.800000
 30
0.0
 40
0.700000
  0
LINE
  8
1
 62
7
  6
CONTINUOUS
 10
51.000000
 20
107.100000
 11
51.000000
 21
107.600000
  0
LINE
  8
1
 62
7
  6
CONTINUOUS
 10
51.000000
 20
110.500000
 11
51.000000
 21
110.000000
  0
LINE
  8
1
 62
7
  6
CONTINUOUS
 10
51.400000
 20
108.800000
 11
50.500000
 21
108.800000
  0
CIRCLE
  8
1
 62
7
  6
CONTINUOUS
 10
51.000000
 20
108.800000
 30
0.0
 40
0.700000
  0
POLYLINE
  8
1
 62
7
  6
CONTINUOUS
 70
1
 66
1
  0
VERTEX
 10
73.300000
 20
117.300000
 30
0.000000
  8
1
 62
7
  6
CONTINUOUS
  0
VERTEX
 10
73.300000
 20
112.700000
 30
0.000000
  8
1
 62
7
  6
CONTINUOUS
  0
VERTEX
 10
51.700000
 20
112.700000
 30
0.000000
  8
1
 62
7
  6
CONTINUOUS
  0
VERTEX
 10
51.700000
 20
117.300000
 30
0.000000
  8
1
 62
7
  6
CONTINUOUS
  0
SEQEND
  0
POLYLINE
  8
1
 62
7
  6
CONTINUOUS
 70
0
 66
1
  0
VERTEX
 10
53.500000
 20
112.700000
  8
1
 62
7
  6
CONTINUOUS
  0
VERTEX
 10
53.500000
 20
113.800000
  8
1
 62
7
  6
CONTINUOUS
  0
SEQEND
  0
POLYLINE
  8
1
 62
7
  6
CONTINUOUS
 70
0
 66
1
  0
VERTEX
 10
55.300000
 20
112.700000
  8
1
 62
7
  6
CONTINUOUS
  0
VERTEX
 10
55.300000
 20
113.800000
  8
1
 62
7
  6
CONTINUOUS
  0
VERTEX
 10
55.300000
 20
113.800000
  8
1
 62
7
  6
CONTINUOUS
  0
SEQEND
  0
POLYLINE
  8
1
 62
7
  6
CONTINUOUS
 70
0
 66
1
  0
VERTEX
 10
57.100000
 20
112.700000
  8
1
 62
7
  6
CONTINUOUS
  0
VERTEX
 10
57.100000
 20
113.800000
  8
1
 62
7
  6
CONTINUOUS
  0
SEQEND
  0
POLYLINE
  8
1
 62
7
  6
CONTINUOUS
 70
0
 66
1
  0
VERTEX
 10
58.900000
 20
112.700000
  8
1
 62
7
  6
CONTINUOUS
  0
VERTEX
 10
58.900000
 20
113.800000
  8
1
 62
7
  6
CONTINUOUS
  0
SEQEND
  0
POLYLINE
  8
1
 62
7
  6
CONTINUOUS
 70
0
 66
1
  0
VERTEX
 10
60.700000
 20
112.700000
  8
1
 62
7
  6
CONTINUOUS
  0
VERTEX
 10
60.700000
 20
113.800000
  8
1
 62
7
  6
CONTINUOUS
  0
SEQEND
  0
POLYLINE
  8
1
 62
7
  6
CONTINUOUS
 70
0
 66
1
  0
VERTEX
 10
62.500000
 20
112.700000
  8
1
 62
7
  6
CONTINUOUS
  0
VERTEX
 10
62.500000
 20
113.800000
  8
1
 62
7
  6
CONTINUOUS
  0
SEQEND
  0
POLYLINE
  8
1
 62
7
  6
CONTINUOUS
 70
0
 66
1
  0
VERTEX
 10
64.300000
 20
112.700000
  8
1
 62
7
  6
CONTINUOUS
  0
VERTEX
 10
64.300000
 20
113.800000
  8
1
 62
7
  6
CONTINUOUS
  0
SEQEND
  0
POLYLINE
  8
1
 62
7
  6
CONTINUOUS
 70
0
 66
1
  0
VERTEX
 10
66.100000
 20
112.700000
  8
1
 62
7
  6
CONTINUOUS
  0
VERTEX
 10
66.100000
 20
113.800000
  8
1
 62
7
  6
CONTINUOUS
  0
SEQEND
  0
POLYLINE
  8
1
 62
7
  6
CONTINUOUS
 70
0
 66
1
  0
VERTEX
 10
67.900000
 20
112.700000
  8
1
 62
7
  6
CONTINUOUS
  0
VERTEX
 10
67.900000
 20
113.800000
  8
1
 62
7
  6
CONTINUOUS
  0
SEQEND
  0
POLYLINE
  8
1
 62
7
  6
CONTINUOUS
 70
0
 66
1
  0
VERTEX
 10
69.700000
 20
112.700000
  8
1
 62
7
  6
CONTINUOUS
  0
VERTEX
 10
69.700000
 20
113.800000
  8
1
 62
7
  6
CONTINUOUS
  0
SEQEND
  0
POLYLINE
  8
1
 62
7
  6
CONTINUOUS
 70
0
 66
1
  0
VERTEX
 10
71.500000
 20
112.700000
  8
1
 62
7
  6
CONTINUOUS
  0
VERTEX
 10
71.500000
 20
113.800000
  8
1
 62
7
  6
CONTINUOUS
  0
SEQEND
  0
POLYLINE
  8
1
 62
7
  6
CONTINUOUS
 70
1
 66
1
  0
VERTEX
 10
73.300000
 20
129.800000
 30
0.000000
  8
1
 62
7
  6
CONTINUOUS
  0
VERTEX
 10
73.300000
 20
125.200000
 30
0.000000
  8
1
 62
7
  6
CONTINUOUS
  0
VERTEX
 10
51.700000
 20
125.200000
 30
0.000000
  8
1
 62
7
  6
CONTINUOUS
  0
VERTEX
 10
51.700000
 20
129.800000
 30
0.000000
  8
1
 62
7
  6
CONTINUOUS
  0
SEQEND
  0
POLYLINE
  8
1
 62
7
  6
CONTINUOUS
 70
0
 66
1
  0
VERTEX
 10
53.500000
 20
125.200000
  8
1
 62
7
  6
CONTINUOUS
  0
VERTEX
 10
53.500000
 20
126.300000
  8
1
 62
7
  6
CONTINUOUS
  0
SEQEND
  0
POLYLINE
  8
1
 62
7
  6
CONTINUOUS
 70
0
 66
1
  0
VERTEX
 10
55.300000
 20
125.200000
  8
1
 62
7
  6
CONTINUOUS
  0
VERTEX
 10
55.300000
 20
126.300000
  8
1
 62
7
  6
CONTINUOUS
  0
VERTEX
 10
55.300000
 20
126.300000
  8
1
 62
7
  6
CONTINUOUS
  0
SEQEND
  0
POLYLINE
  8
1
 62
7
  6
CONTINUOUS
 70
0
 66
1
  0
VERTEX
 10
57.100000
 20
125.200000
  8
1
 62
7
  6
CONTINUOUS
  0
VERTEX
 10
57.100000
 20
126.300000
  8
1
 62
7
  6
CONTINUOUS
  0
SEQEND
  0
POLYLINE
  8
1
 62
7
  6
CONTINUOUS
 70
0
 66
1
  0
VERTEX
 10
58.900000
 20
125.200000
  8
1
 62
7
  6
CONTINUOUS
  0
VERTEX
 10
58.900000
 20
126.300000
  8
1
 62
7
  6
CONTINUOUS
  0
SEQEND
  0
POLYLINE
  8
1
 62
7
  6
CONTINUOUS
 70
0
 66
1
  0
VERTEX
 10
60.700000
 20
125.200000
  8
1
 62
7
  6
CONTINUOUS
  0
VERTEX
 10
60.700000
 20
126.300000
  8
1
 62
7
  6
CONTINUOUS
  0
SEQEND
  0
POLYLINE
  8
1
 62
7
  6
CONTINUOUS
 70
0
 66
1
  0
VERTEX
 10
62.500000
 20
125.200000
  8
1
 62
7
  6
CONTINUOUS
  0
VERTEX
 10
62.500000
 20
126.300000
  8
1
 62
7
  6
CONTINUOUS
  0
SEQEND
  0
POLYLINE
  8
1
 62
7
  6
CONTINUOUS
 70
0
 66
1
  0
VERTEX
 10
64.300000
 20
125.200000
  8
1
 62
7
  6
CONTINUOUS
  0
VERTEX
 10
64.300000
 20
126.300000
  8
1
 62
7
  6
CONTINUOUS
  0
SEQEND
  0
POLYLINE
  8
1
 62
7
  6
CONTINUOUS
 70
0
 66
1
  0
VERTEX
 10
66.100000
 20
125.200000
  8
1
 62
7
  6
CONTINUOUS
  0
VERTEX
 10
66.100000
 20
126.300000
  8
1
 62
7
  6
CONTINUOUS
  0
SEQEND
  0
POLYLINE
  8
1
 62
7
  6
CONTINUOUS
 70
0
 66
1
  0
VERTEX
 10
67.900000
 20
125.200000
  8
1
 62
7
  6
CONTINUOUS
  0
VERTEX
 10
67.900000
 20
126.300000
  8
1
 62
7
  6
CONTINUOUS
  0
SEQEND
  0
POLYLINE
  8
1
 62
7
  6
CONTINUOUS
 70
0
 66
1
  0
VERTEX
 10
69.700000
 20
125.200000
  8
1
 62
7
  6
CONTINUOUS
  0
VERTEX
 10
69.700000
 20
126.300000
  8
1
 62
7
  6
CONTINUOUS
  0
SEQEND
  0
POLYLINE
  8
1
 62
7
  6
CONTINUOUS
 70
0
 66
1
  0
VERTEX
 10
71.500000
 20
125.200000
  8
1
 62
7
  6
CONTINUOUS
  0
VERTEX
 10
71.500000
 20
126.300000
  8
1
 62
7
  6
CONTINUOUS
  0
SEQEND
  0
LINE
  8
1
 62
7
  6
CONTINUOUS
 10
51.000000
 20
132.900000
 11
51.000000
 21
132.400000
  0
LINE
  8
1
 62
7
  6
CONTINUOUS
 10
51.000000
 20
129.500000
 11
51.000000
 21
130.000000
  0
LINE
  8
1
 62
7
  6
CONTINUOUS
 10
51.400000
 20
131.200000
 11
50.500000
 21
131.200000
  0
CIRCLE
  8
1
 62
7
  6
CONTINUOUS
 10
51.000000
 20
131.200000
 30
0.0
 40
0.700000
  0
LINE
  8
1
 62
7
  6
CONTINUOUS
 10
74.000000
 20
132.900000
 11
74.000000
 21
132.400000
  0
LINE
  8
1
 62
7
  6
CONTINUOUS
 10
74.000000
 20
129.500000
 11
74.000000
 21
130.000000
  0
LINE
  8
1
 62
7
  6
CONTINUOUS
 10
73.600000
 20
131.200000
 11
74.500000
 21
131.200000
  0
CIRCLE
  8
1
 62
7
  6
CONTINUOUS
 10
74.000000
 20
131.200000
 30
0.0
 40
0.700000
  0
LINE
  8
1
 62
7
  6
CONTINUOUS
 10
74.000000
 20
132.900000
 11
74.000000
 21
132.400000
  0
LINE
  8
1
 62
7
  6
CONTINUOUS
 10
74.000000
 20
129.500000
 11
74.000000
 21
130.000000
  0
LINE
  8
1
 62
7
  6
CONTINUOUS
 10
73.600000
 20
131.200000
 11
74.500000
 21
131.200000
  0
CIRCLE
  8
1
 62
7
  6
CONTINUOUS
 10
74.000000
 20
131.200000
 30
0.0
 40
0.700000
  0
LINE
  8
1
 62
7
  6
CONTINUOUS
 10
51.000000
 20
132.900000
 11
51.000000
 21
132.400000
  0
LINE
  8
1
 62
7
  6
CONTINUOUS
 10
51.000000
 20
129.500000
 11
51.000000
 21
130.000000
  0
LINE
  8
1
 62
7
  6
CONTINUOUS
 10
51.400000
 20
131.200000
 11
50.500000
 21
131.200000
  0
CIRCLE
  8
1
 62
7
  6
CONTINUOUS
 10
51.000000
 20
131.200000
 30
0.0
 40
0.700000
  0
SOLID
  8
1
 62
255
  6
CONTINUOUS
 10
74.800000
 20
135.200000
 11
74.800000
 21
179.800000
 12
50.200000
 22
135.200000
 13
50.200000
 23
179.800000
  0
POLYLINE
  8
1
 62
7
  6
CONTINUOUS
 70
1
 66
1
  0
VERTEX
 10
74.800000
 20
135.200000
 30
0.000000
  8
1
 62
7
  6
CONTINUOUS
  0
VERTEX
 10
74.800000
 20
179.800000
 30
0.000000
  8
1
 62
7
  6
CONTINUOUS
  0
VERTEX
 10
50.200000
 20
179.800000
 30
0.000000
  8
1
 62
7
  6
CONTINUOUS
  0
VERTEX
 10
50.200000
 20
135.200000
 30
0.000000
  8
1
 62
7
  6
CONTINUOUS
  0
SEQEND
  0
POLYLINE
  8
1
 62
7
  6
CONTINUOUS
 70
1
 66
1
  0
VERTEX
 10
74.800000
 20
161.900000
 30
0.000000
  8
1
 62
7
  6
CONTINUOUS
  0
VERTEX
 10
74.800000
 20
153.300000
 30
0.000000
  8
1
 62
7
  6
CONTINUOUS
  0
VERTEX
 10
50.200000
 20
153.300000
 30
0.000000
  8
1
 62
7
  6
CONTINUOUS
  0
VERTEX
 10
50.200000
 20
161.900000
 30
0.000000
  8
1
 62
7
  6
CONTINUOUS
  0
SEQEND
  0
CIRCLE
  8
1
 62
7
  6
CONTINUOUS
 10
51.000000
 20
159.900000
 30
0.0
 40
0.300000
  0
CIRCLE
  8
1
 62
7
  6
CONTINUOUS
 10
51.000000
 20
161.100000
 30
0.0
 40
0.300000
  0
CIRCLE
  8
1
 62
7
  6
CONTINUOUS
 10
51.000000
 20
160.500000
 30
0.0
 40
0.500000
  0
CIRCLE
  8
1
 62
7
  6
CONTINUOUS
 10
51.000000
 20
157.400000
 30
0.0
 40
0.300000
  0
CIRCLE
  8
1
 62
7
  6
CONTINUOUS
 10
51.000000
 20
158.600000
 30
0.0
 40
0.300000
  0
CIRCLE
  8
1
 62
7
  6
CONTINUOUS
 10
51.000000
 20
158.000000
 30
0.0
 40
0.500000
  0
CIRCLE
  8
1
 62
7
  6
CONTINUOUS
 10
51.000000
 20
154.900000
 30
0.0
 40
0.300000
  0
CIRCLE
  8
1
 62
7
  6
CONTINUOUS
 10
51.000000
 20
156.100000
 30
0.0
 40
0.300000
  0
CIRCLE
  8
1
 62
7
  6
CONTINUOUS
 10
51.000000
 20
155.500000
 30
0.0
 40
0.500000
  0
CIRCLE
  8
1
 62
7
  6
CONTINUOUS
 10
51.000000
 20
153.700000
 30
0.0
 40
0.300000
  0
CIRCLE
  8
1
 62
7
  6
CONTINUOUS
 10
74.000000
 20
159.900000
 30
0.0
 40
0.300000
  0
CIRCLE
  8
1
 62
7
  6
CONTINUOUS
 10
74.000000
 20
161.100000
 30
0.0
 40
0.300000
  0
CIRCLE
  8
1
 62
7
  6
CONTINUOUS
 10
74.000000
 20
160.500000
 30
0.0
 40
0.500000
  0
CIRCLE
  8
1
 62
7
  6
CONTINUOUS
 10
74.000000
 20
157.400000
 30
0.0
 40
0.300000
  0
CIRCLE
  8
1
 62
7
  6
CONTINUOUS
 10
74.000000
 20
158.600000
 30
0.0
 40
0.300000
  0
CIRCLE
  8
1
 62
7
  6
CONTINUOUS
 10
74.000000
 20
158.000000
 30
0.0
 40
0.500000
  0
CIRCLE
  8
1
 62
7
  6
CONTINUOUS
 10
74.000000
 20
154.900000
 30
0.0
 40
0.300000
  0
CIRCLE
  8
1
 62
7
  6
CONTINUOUS
 10
74.000000
 20
156.100000
 30
0.0
 40
0.300000
  0
CIRCLE
  8
1
 62
7
  6
CONTINUOUS
 10
74.000000
 20
155.500000
 30
0.0
 40
0.500000
  0
CIRCLE
  8
1
 62
7
  6
CONTINUOUS
 10
74.000000
 20
153.700000
 30
0.0
 40
0.300000
  0
CIRCLE
  8
1
 62
7
  6
CONTINUOUS
 10
51.000000
 20
159.900000
 30
0.0
 40
0.300000
  0
CIRCLE
  8
1
 62
7
  6
CONTINUOUS
 10
51.000000
 20
161.100000
 30
0.0
 40
0.300000
  0
CIRCLE
  8
1
 62
7
  6
CONTINUOUS
 10
51.000000
 20
160.500000
 30
0.0
 40
0.500000
  0
CIRCLE
  8
1
 62
7
  6
CONTINUOUS
 10
51.000000
 20
157.400000
 30
0.0
 40
0.300000
  0
CIRCLE
  8
1
 62
7
  6
CONTINUOUS
 10
51.000000
 20
158.600000
 30
0.0
 40
0.300000
  0
CIRCLE
  8
1
 62
7
  6
CONTINUOUS
 10
51.000000
 20
158.000000
 30
0.0
 40
0.500000
  0
CIRCLE
  8
1
 62
7
  6
CONTINUOUS
 10
51.000000
 20
154.900000
 30
0.0
 40
0.300000
  0
CIRCLE
  8
1
 62
7
  6
CONTINUOUS
 10
51.000000
 20
156.100000
 30
0.0
 40
0.300000
  0
CIRCLE
  8
1
 62
7
  6
CONTINUOUS
 10
51.000000
 20
155.500000
 30
0.0
 40
0.500000
  0
CIRCLE
  8
1
 62
7
  6
CONTINUOUS
 10
51.000000
 20
153.700000
 30
0.0
 40
0.300000
  0
POLYLINE
  8
1
 62
7
  6
CONTINUOUS
 70
1
 66
1
  0
VERTEX
 10
74.800000
 20
174.500000
 30
0.000000
  8
1
 62
7
  6
CONTINUOUS
  0
VERTEX
 10
74.800000
 20
165.900000
 30
0.000000
  8
1
 62
7
  6
CONTINUOUS
  0
VERTEX
 10
50.200000
 20
165.900000
 30
0.000000
  8
1
 62
7
  6
CONTINUOUS
  0
VERTEX
 10
50.200000
 20
174.500000
 30
0.000000
  8
1
 62
7
  6
CONTINUOUS
  0
SEQEND
  0
CIRCLE
  8
1
 62
7
  6
CONTINUOUS
 10
51.000000
 20
172.500000
 30
0.0
 40
0.300000
  0
CIRCLE
  8
1
 62
7
  6
CONTINUOUS
 10
51.000000
 20
173.700000
 30
0.0
 40
0.300000
  0
CIRCLE
  8
1
 62
7
  6
CONTINUOUS
 10
51.000000
 20
173.100000
 30
0.0
 40
0.500000
  0
CIRCLE
  8
1
 62
7
  6
CONTINUOUS
 10
51.000000
 20
170.000000
 30
0.0
 40
0.300000
  0
CIRCLE
  8
1
 62
7
  6
CONTINUOUS
 10
51.000000
 20
171.200000
 30
0.0
 40
0.300000
  0
CIRCLE
  8
1
 62
7
  6
CONTINUOUS
 10
51.000000
 20
170.600000
 30
0.0
 40
0.500000
  0
CIRCLE
  8
1
 62
7
  6
CONTINUOUS
 10
51.000000
 20
167.500000
 30
0.0
 40
0.300000
  0
CIRCLE
  8
1
 62
7
  6
CONTINUOUS
 10
51.000000
 20
168.700000
 30
0.0
 40
0.300000
  0
CIRCLE
  8
1
 62
7
  6
CONTINUOUS
 10
51.000000
 20
168.100000
 30
0.0
 40
0.500000
  0
CIRCLE
  8
1
 62
7
  6
CONTINUOUS
 10
51.000000
 20
166.300000
 30
0.0
 40
0.300000
  0
CIRCLE
  8
1
 62
7
  6
CONTINUOUS
 10
74.000000
 20
172.500000
 30
0.0
 40
0.300000
  0
CIRCLE
  8
1
 62
7
  6
CONTINUOUS
 10
74.000000
 20
173.700000
 30
0.0
 40
0.300000
  0
CIRCLE
  8
1
 62
7
  6
CONTINUOUS
 10
74.000000
 20
173.100000
 30
0.0
 40
0.500000
  0
CIRCLE
  8
1
 62
7
  6
CONTINUOUS
 10
74.000000
 20
170.000000
 30
0.0
 40
0.300000
  0
CIRCLE
  8
1
 62
7
  6
CONTINUOUS
 10
74.000000
 20
171.200000
 30
0.0
 40
0.300000
  0
CIRCLE
  8
1
 62
7
  6
CONTINUOUS
 10
74.000000
 20
170.600000
 30
0.0
 40
0.500000
  0
CIRCLE
  8
1
 62
7
  6
CONTINUOUS
 10
74.000000
 20
167.500000
 30
0.0
 40
0.300000
  0
CIRCLE
  8
1
 62
7
  6
CONTINUOUS
 10
74.000000
 20
168.700000
 30
0.0
 40
0.300000
  0
CIRCLE
  8
1
 62
7
  6
CONTINUOUS
 10
74.000000
 20
168.100000
 30
0.0
 40
0.500000
  0
CIRCLE
  8
1
 62
7
  6
CONTINUOUS
 10
74.000000
 20
166.300000
 30
0.0
 40
0.300000
  0
CIRCLE
  8
1
 62
7
  6
CONTINUOUS
 10
51.000000
 20
172.500000
 30
0.0
 40
0.300000
  0
CIRCLE
  8
1
 62
7
  6
CONTINUOUS
 10
51.000000
 20
173.700000
 30
0.0
 40
0.300000
  0
CIRCLE
  8
1
 62
7
  6
CONTINUOUS
 10
51.000000
 20
173.100000
 30
0.0
 40
0.500000
  0
CIRCLE
  8
1
 62
7
  6
CONTINUOUS
 10
51.000000
 20
170.000000
 30
0.0
 40
0.300000
  0
CIRCLE
  8
1
 62
7
  6
CONTINUOUS
 10
51.000000
 20
171.200000
 30
0.0
 40
0.300000
  0
CIRCLE
  8
1
 62
7
  6
CONTINUOUS
 10
51.000000
 20
170.600000
 30
0.0
 40
0.500000
  0
CIRCLE
  8
1
 62
7
  6
CONTINUOUS
 10
51.000000
 20
167.500000
 30
0.0
 40
0.300000
  0
CIRCLE
  8
1
 62
7
  6
CONTINUOUS
 10
51.000000
 20
168.700000
 30
0.0
 40
0.300000
  0
CIRCLE
  8
1
 62
7
  6
CONTINUOUS
 10
51.000000
 20
168.100000
 30
0.0
 40
0.500000
  0
CIRCLE
  8
1
 62
7
  6
CONTINUOUS
 10
51.000000
 20
166.300000
 30
0.0
 40
0.300000
  0
POLYLINE
  8
1
 62
7
  6
CONTINUOUS
 70
1
 66
1
  0
VERTEX
 10
74.800000
 20
144.500000
 30
0.000000
  8
1
 62
7
  6
CONTINUOUS
  0
VERTEX
 10
74.800000
 20
153.100000
 30
0.000000
  8
1
 62
7
  6
CONTINUOUS
  0
VERTEX
 10
50.200000
 20
153.100000
 30
0.000000
  8
1
 62
7
  6
CONTINUOUS
  0
VERTEX
 10
50.200000
 20
144.500000
 30
0.000000
  8
1
 62
7
  6
CONTINUOUS
  0
SEQEND
  0
CIRCLE
  8
1
 62
7
  6
CONTINUOUS
 10
51.000000
 20
146.500000
 30
0.0
 40
0.300000
  0
CIRCLE
  8
1
 62
7
  6
CONTINUOUS
 10
51.000000
 20
145.300000
 30
0.0
 40
0.300000
  0
CIRCLE
  8
1
 62
7
  6
CONTINUOUS
 10
51.000000
 20
145.900000
 30
0.0
 40
0.500000
  0
CIRCLE
  8
1
 62
7
  6
CONTINUOUS
 10
51.000000
 20
149.000000
 30
0.0
 40
0.300000
  0
CIRCLE
  8
1
 62
7
  6
CONTINUOUS
 10
51.000000
 20
147.800000
 30
0.0
 40
0.300000
  0
CIRCLE
  8
1
 62
7
  6
CONTINUOUS
 10
51.000000
 20
148.400000
 30
0.0
 40
0.500000
  0
CIRCLE
  8
1
 62
7
  6
CONTINUOUS
 10
51.000000
 20
151.500000
 30
0.0
 40
0.300000
  0
CIRCLE
  8
1
 62
7
  6
CONTINUOUS
 10
51.000000
 20
150.300000
 30
0.0
 40
0.300000
  0
CIRCLE
  8
1
 62
7
  6
CONTINUOUS
 10
51.000000
 20
150.900000
 30
0.0
 40
0.500000
  0
CIRCLE
  8
1
 62
7
  6
CONTINUOUS
 10
51.000000
 20
152.700000
 30
0.0
 40
0.300000
  0
CIRCLE
  8
1
 62
7
  6
CONTINUOUS
 10
74.000000
 20
146.500000
 30
0.0
 40
0.300000
  0
CIRCLE
  8
1
 62
7
  6
CONTINUOUS
 10
74.000000
 20
145.300000
 30
0.0
 40
0.300000
  0
CIRCLE
  8
1
 62
7
  6
CONTINUOUS
 10
74.000000
 20
145.900000
 30
0.0
 40
0.500000
  0
CIRCLE
  8
1
 62
7
  6
CONTINUOUS
 10
74.000000
 20
149.000000
 30
0.0
 40
0.300000
  0
CIRCLE
  8
1
 62
7
  6
CONTINUOUS
 10
74.000000
 20
147.800000
 30
0.0
 40
0.300000
  0
CIRCLE
  8
1
 62
7
  6
CONTINUOUS
 10
74.000000
 20
148.400000
 30
0.0
 40
0.500000
  0
CIRCLE
  8
1
 62
7
  6
CONTINUOUS
 10
74.000000
 20
151.500000
 30
0.0
 40
0.300000
  0
CIRCLE
  8
1
 62
7
  6
CONTINUOUS
 10
74.000000
 20
150.300000
 30
0.0
 40
0.300000
  0
CIRCLE
  8
1
 62
7
  6
CONTINUOUS
 10
74.000000
 20
150.900000
 30
0.0
 40
0.500000
  0
CIRCLE
  8
1
 62
7
  6
CONTINUOUS
 10
74.000000
 20
152.700000
 30
0.0
 40
0.300000
  0
CIRCLE
  8
1
 62
7
  6
CONTINUOUS
 10
51.000000
 20
146.500000
 30
0.0
 40
0.300000
  0
CIRCLE
  8
1
 62
7
  6
CONTINUOUS
 10
51.000000
 20
145.300000
 30
0.0
 40
0.300000
  0
CIRCLE
  8
1
 62
7
  6
CONTINUOUS
 10
51.000000
 20
145.900000
 30
0.0
 40
0.500000
  0
CIRCLE
  8
1
 62
7
  6
CONTINUOUS
 10
51.000000
 20
149.000000
 30
0.0
 40
0.300000
  0
CIRCLE
  8
1
 62
7
  6
CONTINUOUS
 10
51.000000
 20
147.800000
 30
0.0
 40
0.300000
  0
CIRCLE
  8
1
 62
7
  6
CONTINUOUS
 10
51.000000
 20
148.400000
 30
0.0
 40
0.500000
  0
CIRCLE
  8
1
 62
7
  6
CONTINUOUS
 10
51.000000
 20
151.500000
 30
0.0
 40
0.300000
  0
CIRCLE
  8
1
 62
7
  6
CONTINUOUS
 10
51.000000
 20
150.300000
 30
0.0
 40
0.300000
  0
CIRCLE
  8
1
 62
7
  6
CONTINUOUS
 10
51.000000
 20
150.900000
 30
0.0
 40
0.500000
  0
CIRCLE
  8
1
 62
7
  6
CONTINUOUS
 10
51.000000
 20
152.700000
 30
0.0
 40
0.300000
  0
LINE
  8
1
 62
7
  6
CONTINUOUS
 10
51.000000
 20
177.900000
 11
51.000000
 21
177.400000
  0
LINE
  8
1
 62
7
  6
CONTINUOUS
 10
51.000000
 20
174.500000
 11
51.000000
 21
175.000000
  0
LINE
  8
1
 62
7
  6
CONTINUOUS
 10
51.400000
 20
176.200000
 11
50.500000
 21
176.200000
  0
CIRCLE
  8
1
 62
7
  6
CONTINUOUS
 10
51.000000
 20
176.200000
 30
0.0
 40
0.700000
  0
LINE
  8
1
 62
7
  6
CONTINUOUS
 10
74.000000
 20
177.900000
 11
74.000000
 21
177.400000
  0
LINE
  8
1
 62
7
  6
CONTINUOUS
 10
74.000000
 20
174.500000
 11
74.000000
 21
175.000000
  0
LINE
  8
1
 62
7
  6
CONTINUOUS
 10
73.600000
 20
176.200000
 11
74.500000
 21
176.200000
  0
CIRCLE
  8
1
 62
7
  6
CONTINUOUS
 10
74.000000
 20
176.200000
 30
0.0
 40
0.700000
  0
LINE
  8
1
 62
7
  6
CONTINUOUS
 10
74.000000
 20
137.100000
 11
74.000000
 21
137.600000
  0
LINE
  8
1
 62
7
  6
CONTINUOUS
 10
74.000000
 20
140.500000
 11
74.000000
 21
140.000000
  0
LINE
  8
1
 62
7
  6
CONTINUOUS
 10
73.600000
 20
138.800000
 11
74.500000
 21
138.800000
  0
CIRCLE
  8
1
 62
7
  6
CONTINUOUS
 10
74.000000
 20
138.800000
 30
0.0
 40
0.700000
  0
LINE
  8
1
 62
7
  6
CONTINUOUS
 10
51.000000
 20
137.100000
 11
51.000000
 21
137.600000
  0
LINE
  8
1
 62
7
  6
CONTINUOUS
 10
51.000000
 20
140.500000
 11
51.000000
 21
140.000000
  0
LINE
  8
1
 62
7
  6
CONTINUOUS
 10
51.400000
 20
138.800000
 11
50.500000
 21
138.800000
  0
CIRCLE
  8
1
 62
7
  6
CONTINUOUS
 10
51.000000
 20
138.800000
 30
0.0
 40
0.700000
  0
POLYLINE
  8
1
 62
7
  6
L014100020032000000
 70
0
 66
1
  0
VERTEX
 10
50.200000
 20
140.200000
  8
1
 62
7
  6
L014100020032000000
  0
VERTEX
 10
74.800000
 20
140.200000
  8
1
 62
7
  6
L014100020032000000
  0
SEQEND
  0
POLYLINE
  8
1
 62
7
  6
L014100020032000000
 70
0
 66
1
  0
VERTEX
 10
50.200000
 20
144.800000
  8
1
 62
7
  6
L014100020032000000
  0
VERTEX
 10
74.800000
 20
144.800000
  8
1
 62
7
  6
L014100020032000000
  0
SEQEND
  0
POLYLINE
  8
1
 62
7
  6
L014100020032000000
 70
0
 66
1
  0
VERTEX
 10
50.200000
 20
161.500000
  8
1
 62
7
  6
L014100020032000000
  0
VERTEX
 10
74.800000
 20
161.500000
  8
1
 62
7
  6
L014100020032000000
  0
SEQEND
  0
POLYLINE
  8
1
 62
7
  6
L014100020032000000
 70
0
 66
1
  0
VERTEX
 10
50.200000
 20
166.100000
  8
1
 62
7
  6
L014100020032000000
  0
VERTEX
 10
74.800000
 20
166.100000
  8
1
 62
7
  6
L014100020032000000
  0
SEQEND
  0
POLYLINE
  8
1
 62
7
  6
CONTINUOUS
 70
1
 66
1
  0
VERTEX
 10
44.000000
 20
133.000000
 30
0.000000
  8
1
 62
7
  6
CONTINUOUS
  0
VERTEX
 10
44.000000
 20
129.000000
 30
0.000000
  8
1
 62
7
  6
CONTINUOUS
  0
VERTEX
 10
31.000000
 20
129.000000
 30
0.000000
  8
1
 62
7
  6
CONTINUOUS
  0
VERTEX
 10
31.000000
 20
133.000000
 30
0.000000
  8
1
 62
7
  6
CONTINUOUS
  0
SEQEND
  0
CIRCLE
  8
1
 62
7
  6
CONTINUOUS
 10
37.500000
 20
134.500000
 30
0.0
 40
0.300000
  0
POLYLINE
  8
1
 62
7
  6
CONTINUOUS
 70
1
 66
1
  0
VERTEX
 10
41.500000
 20
130.400000
 30
0.000000
  8
1
 62
7
  6
CONTINUOUS
  0
VERTEX
 10
41.500000
 20
133.000000
 30
0.000000
  8
1
 62
7
  6
CONTINUOUS
  0
VERTEX
 10
33.500000
 20
133.000000
 30
0.000000
  8
1
 62
7
  6
CONTINUOUS
  0
VERTEX
 10
33.500000
 20
130.400000
 30
0.000000
  8
1
 62
7
  6
CONTINUOUS
  0
SEQEND
  0
POLYLINE
  8
1
 62
7
  6
CONTINUOUS
 70
1
 66
1
  0
VERTEX
 10
19.000000
 20
133.000000
 30
0.000000
  8
1
 62
7
  6
CONTINUOUS
  0
VERTEX
 10
19.000000
 20
129.000000
 30
0.000000
  8
1
 62
7
  6
CONTINUOUS
  0
VERTEX
 10
6.000000
 20
129.000000
 30
0.000000
  8
1
 62
7
  6
CONTINUOUS
  0
VERTEX
 10
6.000000
 20
133.000000
 30
0.000000
  8
1
 62
7
  6
CONTINUOUS
  0
SEQEND
  0
CIRCLE
  8
1
 62
7
  6
CONTINUOUS
 10
12.500000
 20
134.500000
 30
0.0
 40
0.300000
  0
POLYLINE
  8
1
 62
7
  6
CONTINUOUS
 70
1
 66
1
  0
VERTEX
 10
16.500000
 20
130.400000
 30
0.000000
  8
1
 62
7
  6
CONTINUOUS
  0
VERTEX
 10
16.500000
 20
133.000000
 30
0.000000
  8
1
 62
7
  6
CONTINUOUS
  0
VERTEX
 10
8.500000
 20
133.000000
 30
0.000000
  8
1
 62
7
  6
CONTINUOUS
  0
VERTEX
 10
8.500000
 20
130.400000
 30
0.000000
  8
1
 62
7
  6
CONTINUOUS
  0
SEQEND
  0
TEXT
  8
1
 62
7
  6
L014100020032000000
 10
25.000000
 20
161.166667
 40
4.000000
  1
WZ
 50
0.000000
 51
0.000000
 72
0
 73
0
  0
TEXT
  8
1
 62
7
  6
L014100020032000000
 10
0.000000
 20
161.166667
 40
4.000000
  1
SG
 50
0.000000
 51
0.000000
 72
0
 73
0
  0
LINE
  8
1
 62
7
  6
CONTINUOUS
 10
1.000000
 20
177.900000
 11
1.000000
 21
177.400000
  0
LINE
  8
1
 62
7
  6
CONTINUOUS
 10
1.000000
 20
174.500000
 11
1.000000
 21
175.000000
  0
LINE
  8
1
 62
7
  6
CONTINUOUS
 10
1.400000
 20
176.200000
 11
0.500000
 21
176.200000
  0
CIRCLE
  8
1
 62
7
  6
CONTINUOUS
 10
1.000000
 20
176.200000
 30
0.0
 40
0.700000
  0
LINE
  8
1
 62
7
  6
CONTINUOUS
 10
24.000000
 20
177.900000
 11
24.000000
 21
177.400000
  0
LINE
  8
1
 62
7
  6
CONTINUOUS
 10
24.000000
 20
174.500000
 11
24.000000
 21
175.000000
  0
LINE
  8
1
 62
7
  6
CONTINUOUS
 10
23.600000
 20
176.200000
 11
24.500000
 21
176.200000
  0
CIRCLE
  8
1
 62
7
  6
CONTINUOUS
 10
24.000000
 20
176.200000
 30
0.0
 40
0.700000
  0
LINE
  8
1
 62
7
  6
CONTINUOUS
 10
1.000000
 20
170.500000
 11
1.000000
 21
170.000000
  0
LINE
  8
1
 62
7
  6
CONTINUOUS
 10
24.000000
 20
167.100000
 11
24.000000
 21
167.600000
  0
LINE
  8
1
 62
7
  6
CONTINUOUS
 10
24.000000
 20
170.500000
 11
24.000000
 21
170.000000
  0
LINE
  8
1
 62
7
  6
CONTINUOUS
 10
23.600000
 20
168.800000
 11
24.500000
 21
168.800000
  0
CIRCLE
  8
1
 62
7
  6
CONTINUOUS
 10
24.000000
 20
168.800000
 30
0.0
 40
0.700000
  0
LINE
  8
1
 62
7
  6
CONTINUOUS
 10
1.000000
 20
167.100000
 11
1.000000
 21
167.600000
  0
LINE
  8
1
 62
7
  6
CONTINUOUS
 10
1.000000
 20
170.500000
 11
1.000000
 21
170.000000
  0
LINE
  8
1
 62
7
  6
CONTINUOUS
 10
1.400000
 20
168.800000
 11
0.500000
 21
168.800000
  0
CIRCLE
  8
1
 62
7
  6
CONTINUOUS
 10
1.000000
 20
168.800000
 30
0.0
 40
0.700000
  0
LINE
  8
1
 62
7
  6
CONTINUOUS
 10
26.000000
 20
177.900000
 11
26.000000
 21
177.400000
  0
LINE
  8
1
 62
7
  6
CONTINUOUS
 10
26.000000
 20
174.500000
 11
26.000000
 21
175.000000
  0
LINE
  8
1
 62
7
  6
CONTINUOUS
 10
26.400000
 20
176.200000
 11
25.500000
 21
176.200000
  0
CIRCLE
  8
1
 62
7
  6
CONTINUOUS
 10
26.000000
 20
176.200000
 30
0.0
 40
0.700000
  0
LINE
  8
1
 62
7
  6
CONTINUOUS
 10
49.000000
 20
177.900000
 11
49.000000
 21
177.400000
  0
LINE
  8
1
 62
7
  6
CONTINUOUS
 10
49.000000
 20
174.500000
 11
49.000000
 21
175.000000
  0
LINE
  8
1
 62
7
  6
CONTINUOUS
 10
48.600000
 20
176.200000
 11
49.500000
 21
176.200000
  0
CIRCLE
  8
1
 62
7
  6
CONTINUOUS
 10
49.000000
 20
176.200000
 30
0.0
 40
0.700000
  0
LINE
  8
1
 62
7
  6
CONTINUOUS
 10
26.000000
 20
170.500000
 11
26.000000
 21
170.000000
  0
LINE
  8
1
 62
7
  6
CONTINUOUS
 10
49.000000
 20
167.100000
 11
49.000000
 21
167.600000
  0
LINE
  8
1
 62
7
  6
CONTINUOUS
 10
49.000000
 20
170.500000
 11
49.000000
 21
170.000000
  0
LINE
  8
1
 62
7
  6
CONTINUOUS
 10
48.600000
 20
168.800000
 11
49.500000
 21
168.800000
  0
CIRCLE
  8
1
 62
7
  6
CONTINUOUS
 10
49.000000
 20
168.800000
 30
0.0
 40
0.700000
  0
LINE
  8
1
 62
7
  6
CONTINUOUS
 10
26.000000
 20
167.100000
 11
26.000000
 21
167.600000
  0
LINE
  8
1
 62
7
  6
CONTINUOUS
 10
26.000000
 20
170.500000
 11
26.000000
 21
170.000000
  0
LINE
  8
1
 62
7
  6
CONTINUOUS
 10
26.400000
 20
168.800000
 11
25.500000
 21
168.800000
  0
CIRCLE
  8
1
 62
7
  6
CONTINUOUS
 10
26.000000
 20
168.800000
 30
0.0
 40
0.700000
  0
LINE
  8
1
 62
7
  6
CONTINUOUS
 10
1.000000
 20
117.900000
 11
1.000000
 21
117.400000
  0
LINE
  8
1
 62
7
  6
CONTINUOUS
 10
1.000000
 20
114.500000
 11
1.000000
 21
115.000000
  0
LINE
  8
1
 62
7
  6
CONTINUOUS
 10
1.400000
 20
116.200000
 11
0.500000
 21
116.200000
  0
CIRCLE
  8
1
 62
7
  6
CONTINUOUS
 10
1.000000
 20
116.200000
 30
0.0
 40
0.700000
  0
LINE
  8
1
 62
7
  6
CONTINUOUS
 10
24.000000
 20
117.900000
 11
24.000000
 21
117.400000
  0
LINE
  8
1
 62
7
  6
CONTINUOUS
 10
24.000000
 20
114.500000
 11
24.000000
 21
115.000000
  0
LINE
  8
1
 62
7
  6
CONTINUOUS
 10
23.600000
 20
116.200000
 11
24.500000
 21
116.200000
  0
CIRCLE
  8
1
 62
7
  6
CONTINUOUS
 10
24.000000
 20
116.200000
 30
0.0
 40
0.700000
  0
LINE
  8
1
 62
7
  6
CONTINUOUS
 10
1.000000
 20
110.500000
 11
1.000000
 21
110.000000
  0
LINE
  8
1
 62
7
  6
CONTINUOUS
 10
24.000000
 20
107.100000
 11
24.000000
 21
107.600000
  0
LINE
  8
1
 62
7
  6
CONTINUOUS
 10
24.000000
 20
110.500000
 11
24.000000
 21
110.000000
  0
LINE
  8
1
 62
7
  6
CONTINUOUS
 10
23.600000
 20
108.800000
 11
24.500000
 21
108.800000
  0
CIRCLE
  8
1
 62
7
  6
CONTINUOUS
 10
24.000000
 20
108.800000
 30
0.0
 40
0.700000
  0
LINE
  8
1
 62
7
  6
CONTINUOUS
 10
1.000000
 20
107.100000
 11
1.000000
 21
107.600000
  0
LINE
  8
1
 62
7
  6
CONTINUOUS
 10
1.000000
 20
110.500000
 11
1.000000
 21
110.000000
  0
LINE
  8
1
 62
7
  6
CONTINUOUS
 10
1.400000
 20
108.800000
 11
0.500000
 21
108.800000
  0
CIRCLE
  8
1
 62
7
  6
CONTINUOUS
 10
1.000000
 20
108.800000
 30
0.0
 40
0.700000
  0
LINE
  8
1
 62
7
  6
CONTINUOUS
 10
26.000000
 20
117.900000
 11
26.000000
 21
117.400000
  0
LINE
  8
1
 62
7
  6
CONTINUOUS
 10
26.000000
 20
114.500000
 11
26.000000
 21
115.000000
  0
LINE
  8
1
 62
7
  6
CONTINUOUS
 10
26.400000
 20
116.200000
 11
25.500000
 21
116.200000
  0
CIRCLE
  8
1
 62
7
  6
CONTINUOUS
 10
26.000000
 20
116.200000
 30
0.0
 40
0.700000
  0
LINE
  8
1
 62
7
  6
CONTINUOUS
 10
49.000000
 20
117.900000
 11
49.000000
 21
117.400000
  0
LINE
  8
1
 62
7
  6
CONTINUOUS
 10
49.000000
 20
114.500000
 11
49.000000
 21
115.000000
  0
LINE
  8
1
 62
7
  6
CONTINUOUS
 10
48.600000
 20
116.200000
 11
49.500000
 21
116.200000
  0
CIRCLE
  8
1
 62
7
  6
CONTINUOUS
 10
49.000000
 20
116.200000
 30
0.0
 40
0.700000
  0
LINE
  8
1
 62
7
  6
CONTINUOUS
 10
26.000000
 20
110.500000
 11
26.000000
 21
110.000000
  0
LINE
  8
1
 62
7
  6
CONTINUOUS
 10
49.000000
 20
107.100000
 11
49.000000
 21
107.600000
  0
LINE
  8
1
 62
7
  6
CONTINUOUS
 10
49.000000
 20
110.500000
 11
49.000000
 21
110.000000
  0
LINE
  8
1
 62
7
  6
CONTINUOUS
 10
48.600000
 20
108.800000
 11
49.500000
 21
108.800000
  0
CIRCLE
  8
1
 62
7
  6
CONTINUOUS
 10
49.000000
 20
108.800000
 30
0.0
 40
0.700000
  0
LINE
  8
1
 62
7
  6
CONTINUOUS
 10
26.000000
 20
107.100000
 11
26.000000
 21
107.600000
  0
LINE
  8
1
 62
7
  6
CONTINUOUS
 10
26.000000
 20
110.500000
 11
26.000000
 21
110.000000
  0
LINE
  8
1
 62
7
  6
CONTINUOUS
 10
26.400000
 20
108.800000
 11
25.500000
 21
108.800000
  0
CIRCLE
  8
1
 62
7
  6
CONTINUOUS
 10
26.000000
 20
108.800000
 30
0.0
 40
0.700000
  0
SOLID
  8
1
 62
255
  6
CONTINUOUS
 10
74.800000
 20
104.800000
 11
74.800000
 21
0.200000
 12
0.200000
 22
104.800000
 13
0.200000
 23
0.200000
  0
POLYLINE
  8
1
 62
7
  6
CONTINUOUS
 70
1
 66
1
  0
VERTEX
 10
74.800000
 20
104.800000
 30
0.000000
  8
1
 62
7
  6
CONTINUOUS
  0
VERTEX
 10
74.800000
 20
0.200000
 30
0.000000
  8
1
 62
7
  6
CONTINUOUS
  0
VERTEX
 10
0.200000
 20
0.200000
 30
0.000000
  8
1
 62
7
  6
CONTINUOUS
  0
VERTEX
 10
0.200000
 20
104.800000
 30
0.000000
  8
1
 62
7
  6
CONTINUOUS
  0
SEQEND
  0
LINE
  8
1
 62
7
  6
CONTINUOUS
 10
51.000000
 20
102.900000
 11
51.000000
 21
102.400000
  0
LINE
  8
1
 62
7
  6
CONTINUOUS
 10
51.000000
 20
99.500000
 11
51.000000
 21
100.000000
  0
LINE
  8
1
 62
7
  6
CONTINUOUS
 10
51.400000
 20
101.200000
 11
50.500000
 21
101.200000
  0
CIRCLE
  8
1
 62
7
  6
CONTINUOUS
 10
51.000000
 20
101.200000
 30
0.0
 40
0.700000
  0
LINE
  8
1
 62
7
  6
CONTINUOUS
 10
74.000000
 20
102.900000
 11
74.000000
 21
102.400000
  0
LINE
  8
1
 62
7
  6
CONTINUOUS
 10
74.000000
 20
99.500000
 11
74.000000
 21
100.000000
  0
LINE
  8
1
 62
7
  6
CONTINUOUS
 10
73.600000
 20
101.200000
 11
74.500000
 21
101.200000
  0
CIRCLE
  8
1
 62
7
  6
CONTINUOUS
 10
74.000000
 20
101.200000
 30
0.0
 40
0.700000
  0
LINE
  8
1
 62
7
  6
CONTINUOUS
 10
74.000000
 20
32.100000
 11
74.000000
 21
32.600000
  0
LINE
  8
1
 62
7
  6
CONTINUOUS
 10
74.000000
 20
35.500000
 11
74.000000
 21
35.000000
  0
LINE
  8
1
 62
7
  6
CONTINUOUS
 10
73.600000
 20
33.800000
 11
74.500000
 21
33.800000
  0
CIRCLE
  8
1
 62
7
  6
CONTINUOUS
 10
74.000000
 20
33.800000
 30
0.0
 40
0.700000
  0
LINE
  8
1
 62
7
  6
CONTINUOUS
 10
51.000000
 20
32.100000
 11
51.000000
 21
32.600000
  0
LINE
  8
1
 62
7
  6
CONTINUOUS
 10
51.000000
 20
35.500000
 11
51.000000
 21
35.000000
  0
LINE
  8
1
 62
7
  6
CONTINUOUS
 10
51.400000
 20
33.800000
 11
50.500000
 21
33.800000
  0
CIRCLE
  8
1
 62
7
  6
CONTINUOUS
 10
51.000000
 20
33.800000
 30
0.0
 40
0.700000
  0
LINE
  8
1
 62
7
  6
CONTINUOUS
 10
26.000000
 20
102.900000
 11
26.000000
 21
102.400000
  0
LINE
  8
1
 62
7
  6
CONTINUOUS
 10
26.000000
 20
99.500000
 11
26.000000
 21
100.000000
  0
LINE
  8
1
 62
7
  6
CONTINUOUS
 10
26.400000
 20
101.200000
 11
25.500000
 21
101.200000
  0
CIRCLE
  8
1
 62
7
  6
CONTINUOUS
 10
26.000000
 20
101.200000
 30
0.0
 40
0.700000
  0
LINE
  8
1
 62
7
  6
CONTINUOUS
 10
49.000000
 20
102.900000
 11
49.000000
 21
102.400000
  0
LINE
  8
1
 62
7
  6
CONTINUOUS
 10
49.000000
 20
99.500000
 11
49.000000
 21
100.000000
  0
LINE
  8
1
 62
7
  6
CONTINUOUS
 10
48.600000
 20
101.200000
 11
49.500000
 21
101.200000
  0
CIRCLE
  8
1
 62
7
  6
CONTINUOUS
 10
49.000000
 20
101.200000
 30
0.0
 40
0.700000
  0
LINE
  8
1
 62
7
  6
CONTINUOUS
 10
50.000000
 20
0.200000
 11
50.000000
 21
104.800000
  0
LINE
  8
1
 62
7
  6
CONTINUOUS
 10
25.000000
 20
0.200000
 11
25.000000
 21
104.800000
  0
LINE
  8
1
 62
7
  6
CONTINUOUS
 10
74.800000
 20
30.000000
 11
0.200000
 21
30.000000
  0
LINE
  8
1
 62
7
  6
CONTINUOUS
 10
1.000000
 20
102.900000
 11
1.000000
 21
102.400000
  0
LINE
  8
1
 62
7
  6
CONTINUOUS
 10
1.000000
 20
99.500000
 11
1.000000
 21
100.000000
  0
LINE
  8
1
 62
7
  6
CONTINUOUS
 10
1.400000
 20
101.200000
 11
0.500000
 21
101.200000
  0
CIRCLE
  8
1
 62
7
  6
CONTINUOUS
 10
1.000000
 20
101.200000
 30
0.0
 40
0.700000
  0
LINE
  8
1
 62
7
  6
CONTINUOUS
 10
24.000000
 20
102.900000
 11
24.000000
 21
102.400000
  0
LINE
  8
1
 62
7
  6
CONTINUOUS
 10
24.000000
 20
99.500000
 11
24.000000
 21
100.000000
  0
LINE
  8
1
 62
7
  6
CONTINUOUS
 10
23.600000
 20
101.200000
 11
24.500000
 21
101.200000
  0
CIRCLE
  8
1
 62
7
  6
CONTINUOUS
 10
24.000000
 20
101.200000
 30
0.0
 40
0.700000
  0
LINE
  8
1
 62
7
  6
CONTINUOUS
 10
24.000000
 20
32.100000
 11
24.000000
 21
32.600000
  0
LINE
  8
1
 62
7
  6
CONTINUOUS
 10
24.000000
 20
35.500000
 11
24.000000
 21
35.000000
  0
LINE
  8
1
 62
7
  6
CONTINUOUS
 10
23.600000
 20
33.800000
 11
24.500000
 21
33.800000
  0
CIRCLE
  8
1
 62
7
  6
CONTINUOUS
 10
24.000000
 20
33.800000
 30
0.0
 40
0.700000
  0
LINE
  8
1
 62
7
  6
CONTINUOUS
 10
1.000000
 20
32.100000
 11
1.000000
 21
32.600000
  0
LINE
  8
1
 62
7
  6
CONTINUOUS
 10
1.000000
 20
35.500000
 11
1.000000
 21
35.000000
  0
LINE
  8
1
 62
7
  6
CONTINUOUS
 10
1.400000
 20
33.800000
 11
0.500000
 21
33.800000
  0
CIRCLE
  8
1
 62
7
  6
CONTINUOUS
 10
1.000000
 20
33.800000
 30
0.0
 40
0.700000
  0
LINE
  8
1
 62
7
  6
CONTINUOUS
 10
1.000000
 20
27.900000
 11
1.000000
 21
27.400000
  0
LINE
  8
1
 62
7
  6
CONTINUOUS
 10
1.000000
 20
24.500000
 11
1.000000
 21
25.000000
  0
LINE
  8
1
 62
7
  6
CONTINUOUS
 10
1.400000
 20
26.200000
 11
0.500000
 21
26.200000
  0
CIRCLE
  8
1
 62
7
  6
CONTINUOUS
 10
1.000000
 20
26.200000
 30
0.0
 40
0.700000
  0
LINE
  8
1
 62
7
  6
CONTINUOUS
 10
24.000000
 20
27.900000
 11
24.000000
 21
27.400000
  0
LINE
  8
1
 62
7
  6
CONTINUOUS
 10
24.000000
 20
24.500000
 11
24.000000
 21
25.000000
  0
LINE
  8
1
 62
7
  6
CONTINUOUS
 10
23.600000
 20
26.200000
 11
24.500000
 21
26.200000
  0
CIRCLE
  8
1
 62
7
  6
CONTINUOUS
 10
24.000000
 20
26.200000
 30
0.0
 40
0.700000
  0
LINE
  8
1
 62
7
  6
CONTINUOUS
 10
51.000000
 20
27.900000
 11
51.000000
 21
27.400000
  0
LINE
  8
1
 62
7
  6
CONTINUOUS
 10
51.000000
 20
24.500000
 11
51.000000
 21
25.000000
  0
LINE
  8
1
 62
7
  6
CONTINUOUS
 10
51.400000
 20
26.200000
 11
50.500000
 21
26.200000
  0
CIRCLE
  8
1
 62
7
  6
CONTINUOUS
 10
51.000000
 20
26.200000
 30
0.0
 40
0.700000
  0
LINE
  8
1
 62
7
  6
CONTINUOUS
 10
74.000000
 20
27.900000
 11
74.000000
 21
27.400000
  0
LINE
  8
1
 62
7
  6
CONTINUOUS
 10
74.000000
 20
24.500000
 11
74.000000
 21
25.000000
  0
LINE
  8
1
 62
7
  6
CONTINUOUS
 10
73.600000
 20
26.200000
 11
74.500000
 21
26.200000
  0
CIRCLE
  8
1
 62
7
  6
CONTINUOUS
 10
74.000000
 20
26.200000
 30
0.0
 40
0.700000
  0
LINE
  8
1
 62
7
  6
CONTINUOUS
 10
74.000000
 20
2.100000
 11
74.000000
 21
2.600000
  0
LINE
  8
1
 62
7
  6
CONTINUOUS
 10
74.000000
 20
5.500000
 11
74.000000
 21
5.000000
  0
LINE
  8
1
 62
7
  6
CONTINUOUS
 10
73.600000
 20
3.800000
 11
74.500000
 21
3.800000
  0
CIRCLE
  8
1
 62
7
  6
CONTINUOUS
 10
74.000000
 20
3.800000
 30
0.0
 40
0.700000
  0
LINE
  8
1
 62
7
  6
CONTINUOUS
 10
51.000000
 20
2.100000
 11
51.000000
 21
2.600000
  0
LINE
  8
1
 62
7
  6
CONTINUOUS
 10
51.000000
 20
5.500000
 11
51.000000
 21
5.000000
  0
LINE
  8
1
 62
7
  6
CONTINUOUS
 10
51.400000
 20
3.800000
 11
50.500000
 21
3.800000
  0
CIRCLE
  8
1
 62
7
  6
CONTINUOUS
 10
51.000000
 20
3.800000
 30
0.0
 40
0.700000
  0
LINE
  8
1
 62
7
  6
CONTINUOUS
 10
24.000000
 20
2.100000
 11
24.000000
 21
2.600000
  0
LINE
  8
1
 62
7
  6
CONTINUOUS
 10
24.000000
 20
5.500000
 11
24.000000
 21
5.000000
  0
LINE
  8
1
 62
7
  6
CONTINUOUS
 10
23.600000
 20
3.800000
 11
24.500000
 21
3.800000
  0
CIRCLE
  8
1
 62
7
  6
CONTINUOUS
 10
24.000000
 20
3.800000
 30
0.0
 40
0.700000
  0
LINE
  8
1
 62
7
  6
CONTINUOUS
 10
1.000000
 20
2.100000
 11
1.000000
 21
2.600000
  0
LINE
  8
1
 62
7
  6
CONTINUOUS
 10
1.000000
 20
5.500000
 11
1.000000
 21
5.000000
  0
LINE
  8
1
 62
7
  6
CONTINUOUS
 10
1.400000
 20
3.800000
 11
0.500000
 21
3.800000
  0
CIRCLE
  8
1
 62
7
  6
CONTINUOUS
 10
1.000000
 20
3.800000
 30
0.0
 40
0.700000
  0
POLYLINE
  8
1
 62
7
  6
CONTINUOUS
 70
1
 66
1
  0
VERTEX
 10
22.200000
 20
36.600000
 30
0.000000
  8
1
 62
7
  6
CONTINUOUS
  0
VERTEX
 10
22.200000
 20
101.600000
 30
0.000000
  8
1
 62
7
  6
CONTINUOUS
  0
VERTEX
 10
12.400000
 20
101.600000
 30
0.000000
  8
1
 62
7
  6
CONTINUOUS
  0
VERTEX
 10
12.400000
 20
36.600000
 30
0.000000
  8
1
 62
7
  6
CONTINUOUS
  0
SEQEND
  0
LINE
  8
1
 62
7
  6
CONTINUOUS
 10
49.000000
 20
32.100000
 11
49.000000
 21
32.600000
  0
LINE
  8
1
 62
7
  6
CONTINUOUS
 10
49.000000
 20
35.500000
 11
49.000000
 21
35.000000
  0
LINE
  8
1
 62
7
  6
CONTINUOUS
 10
48.600000
 20
33.800000
 11
49.500000
 21
33.800000
  0
CIRCLE
  8
1
 62
7
  6
CONTINUOUS
 10
49.000000
 20
33.800000
 30
0.0
 40
0.700000
  0
LINE
  8
1
 62
7
  6
CONTINUOUS
 10
26.000000
 20
32.100000
 11
26.000000
 21
32.600000
  0
LINE
  8
1
 62
7
  6
CONTINUOUS
 10
26.000000
 20
35.500000
 11
26.000000
 21
35.000000
  0
LINE
  8
1
 62
7
  6
CONTINUOUS
 10
26.400000
 20
33.800000
 11
25.500000
 21
33.800000
  0
CIRCLE
  8
1
 62
7
  6
CONTINUOUS
 10
26.000000
 20
33.800000
 30
0.0
 40
0.700000
  0
LINE
  8
1
 62
7
  6
CONTINUOUS
 10
26.000000
 20
27.900000
 11
26.000000
 21
27.400000
  0
LINE
  8
1
 62
7
  6
CONTINUOUS
 10
26.000000
 20
24.500000
 11
26.000000
 21
25.000000
  0
LINE
  8
1
 62
7
  6
CONTINUOUS
 10
26.400000
 20
26.200000
 11
25.500000
 21
26.200000
  0
CIRCLE
  8
1
 62
7
  6
CONTINUOUS
 10
26.000000
 20
26.200000
 30
0.0
 40
0.700000
  0
LINE
  8
1
 62
7
  6
CONTINUOUS
 10
49.000000
 20
27.900000
 11
49.000000
 21
27.400000
  0
LINE
  8
1
 62
7
  6
CONTINUOUS
 10
49.000000
 20
24.500000
 11
49.000000
 21
25.000000
  0
LINE
  8
1
 62
7
  6
CONTINUOUS
 10
48.600000
 20
26.200000
 11
49.500000
 21
26.200000
  0
CIRCLE
  8
1
 62
7
  6
CONTINUOUS
 10
49.000000
 20
26.200000
 30
0.0
 40
0.700000
  0
LINE
  8
1
 62
7
  6
CONTINUOUS
 10
26.000000
 20
2.100000
 11
26.000000
 21
2.600000
  0
LINE
  8
1
 62
7
  6
CONTINUOUS
 10
26.000000
 20
5.500000
 11
26.000000
 21
5.000000
  0
LINE
  8
1
 62
7
  6
CONTINUOUS
 10
26.400000
 20
3.800000
 11
25.500000
 21
3.800000
  0
CIRCLE
  8
1
 62
7
  6
CONTINUOUS
 10
26.000000
 20
3.800000
 30
0.0
 40
0.700000
  0
LINE
  8
1
 62
7
  6
CONTINUOUS
 10
49.000000
 20
2.100000
 11
49.000000
 21
2.600000
  0
LINE
  8
1
 62
7
  6
CONTINUOUS
 10
49.000000
 20
5.500000
 11
49.000000
 21
5.000000
  0
LINE
  8
1
 62
7
  6
CONTINUOUS
 10
49.400000
 20
3.800000
 11
48.500000
 21
3.800000
  0
CIRCLE
  8
1
 62
7
  6
CONTINUOUS
 10
49.000000
 20
3.800000
 30
0.0
 40
0.700000
  0
SOLID
  8
57
 62
255
  6
L014100020032000000
 10
74.500000
 20
90.100000
 11
74.500000
 21
93.100000
 12
42.000000
 22
90.100000
 13
42.000000
 23
93.100000
  0
POLYLINE
  8
57
 62
7
  6
L014100020032000000
 70
1
 66
1
  0
VERTEX
 10
74.500000
 20
90.100000
 30
0.000000
  8
57
 62
7
  6
L014100020032000000
  0
VERTEX
 10
74.500000
 20
93.100000
 30
0.000000
  8
57
 62
7
  6
L014100020032000000
  0
VERTEX
 10
42.000000
 20
93.100000
 30
0.000000
  8
57
 62
7
  6
L014100020032000000
  0
VERTEX
 10
42.000000
 20
90.100000
 30
0.000000
  8
57
 62
7
  6
L014100020032000000
  0
SEQEND
  0
SOLID
  8
57
 62
255
  6
L014100020032000000
 10
33.000000
 20
90.100000
 11
33.000000
 21
93.100000
 12
0.500000
 22
90.100000
 13
0.500000
 23
93.100000
  0
POLYLINE
  8
57
 62
7
  6
L014100020032000000
 70
1
 66
1
  0
VERTEX
 10
33.000000
 20
90.100000
 30
0.000000
  8
57
 62
7
  6
L014100020032000000
  0
VERTEX
 10
33.000000
 20
93.100000
 30
0.000000
  8
57
 62
7
  6
L014100020032000000
  0
VERTEX
 10
0.500000
 20
93.100000
 30
0.000000
  8
57
 62
7
  6
L014100020032000000
  0
VERTEX
 10
0.500000
 20
90.100000
 30
0.000000
  8
57
 62
7
  6
L014100020032000000
  0
SEQEND
  0
SOLID
  8
57
 62
255
  6
L014100020032000000
 10
46.000000
 20
89.600000
 11
46.000000
 21
93.600000
 12
29.000000
 22
89.600000
 13
29.000000
 23
93.600000
  0
POLYLINE
  8
57
 62
7
  6
L014100020032000000
 70
1
 66
1
  0
VERTEX
 10
46.000000
 20
89.600000
 30
0.000000
  8
57
 62
7
  6
L014100020032000000
  0
VERTEX
 10
46.000000
 20
93.600000
 30
0.000000
  8
57
 62
7
  6
L014100020032000000
  0
VERTEX
 10
29.000000
 20
93.600000
 30
0.000000
  8
57
 62
7
  6
L014100020032000000
  0
VERTEX
 10
29.000000
 20
89.600000
 30
0.000000
  8
57
 62
7
  6
L014100020032000000
  0
SEQEND
  0
CIRCLE
  8
57
 62
7
  6
L014100020032000000
 10
31.000000
 20
91.600000
 30
0.0
 40
0.700000
  0
CIRCLE
  8
57
 62
7
  6
L014100020032000000
 10
44.000000
 20
91.600000
 30
0.0
 40
0.700000
  0
CIRCLE
  8
57
 62
7
  6
L014100020032000000
 10
47.000000
 20
91.600000
 30
0.0
 40
0.700000
  0
CIRCLE
  8
57
 62
7
  6
L014100020032000000
 10
28.000000
 20
91.600000
 30
0.0
 40
0.700000
  0
CIRCLE
  8
57
 62
7
  6
L014100020032000000
 10
31.000000
 20
91.600000
 30
0.0
 40
0.700000
  0
SOLID
  8
57
 62
255
  6
L014100020032000000
 10
33.000000
 20
71.500000
 11
33.000000
 21
74.500000
 12
0.500000
 22
71.500000
 13
0.500000
 23
74.500000
  0
POLYLINE
  8
57
 62
7
  6
L014100020032000000
 70
1
 66
1
  0
VERTEX
 10
33.000000
 20
71.500000
 30
0.000000
  8
57
 62
7
  6
L014100020032000000
  0
VERTEX
 10
33.000000
 20
74.500000
 30
0.000000
  8
57
 62
7
  6
L014100020032000000
  0
VERTEX
 10
0.500000
 20
74.500000
 30
0.000000
  8
57
 62
7
  6
L014100020032000000
  0
VERTEX
 10
0.500000
 20
71.500000
 30
0.000000
  8
57
 62
7
  6
L014100020032000000
  0
SEQEND
  0
SOLID
  8
57
 62
255
  6
L014100020032000000
 10
74.500000
 20
71.500000
 11
74.500000
 21
74.500000
 12
42.000000
 22
71.500000
 13
42.000000
 23
74.500000
  0
POLYLINE
  8
57
 62
7
  6
L014100020032000000
 70
1
 66
1
  0
VERTEX
 10
74.500000
 20
71.500000
 30
0.000000
  8
57
 62
7
  6
L014100020032000000
  0
VERTEX
 10
74.500000
 20
74.500000
 30
0.000000
  8
57
 62
7
  6
L014100020032000000
  0
VERTEX
 10
42.000000
 20
74.500000
 30
0.000000
  8
57
 62
7
  6
L014100020032000000
  0
VERTEX
 10
42.000000
 20
71.500000
 30
0.000000
  8
57
 62
7
  6
L014100020032000000
  0
SEQEND
  0
SOLID
  8
57
 62
255
  6
L014100020032000000
 10
46.000000
 20
71.000000
 11
46.000000
 21
75.000000
 12
29.000000
 22
71.000000
 13
29.000000
 23
75.000000
  0
POLYLINE
  8
57
 62
7
  6
L014100020032000000
 70
1
 66
1
  0
VERTEX
 10
46.000000
 20
71.000000
 30
0.000000
  8
57
 62
7
  6
L014100020032000000
  0
VERTEX
 10
46.000000
 20
75.000000
 30
0.000000
  8
57
 62
7
  6
L014100020032000000
  0
VERTEX
 10
29.000000
 20
75.000000
 30
0.000000
  8
57
 62
7
  6
L014100020032000000
  0
VERTEX
 10
29.000000
 20
71.000000
 30
0.000000
  8
57
 62
7
  6
L014100020032000000
  0
SEQEND
  0
CIRCLE
  8
57
 62
7
  6
L014100020032000000
 10
31.000000
 20
73.000000
 30
0.0
 40
0.700000
  0
CIRCLE
  8
57
 62
7
  6
L014100020032000000
 10
44.000000
 20
73.000000
 30
0.0
 40
0.700000
  0
CIRCLE
  8
57
 62
7
  6
L014100020032000000
 10
47.000000
 20
73.000000
 30
0.0
 40
0.700000
  0
CIRCLE
  8
57
 62
7
  6
L014100020032000000
 10
28.000000
 20
73.000000
 30
0.0
 40
0.700000
  0
CIRCLE
  8
57
 62
7
  6
L014100020032000000
 10
7.500000
 20
91.600000
 30
0.0
 40
0.700000
  0
CIRCLE
  8
57
 62
7
  6
L014100020032000000
 10
17.500000
 20
91.600000
 30
0.0
 40
0.700000
  0
CIRCLE
  8
57
 62
7
  6
L014100020032000000
 10
7.500000
 20
73.100000
 30
0.0
 40
0.700000
  0
CIRCLE
  8
57
 62
7
  6
L014100020032000000
 10
17.500000
 20
73.100000
 30
0.0
 40
0.700000
  0
SOLID
  8
57
 62
255
  6
L014100020032000000
 10
74.500000
 20
23.500000
 11
74.500000
 21
26.500000
 12
0.500000
 22
23.500000
 13
0.500000
 23
26.500000
  0
POLYLINE
  8
57
 62
7
  6
L014100020032000000
 70
1
 66
1
  0
VERTEX
 10
74.500000
 20
23.500000
 30
0.000000
  8
57
 62
7
  6
L014100020032000000
  0
VERTEX
 10
74.500000
 20
26.500000
 30
0.000000
  8
57
 62
7
  6
L014100020032000000
  0
VERTEX
 10
0.500000
 20
26.500000
 30
0.000000
  8
57
 62
7
  6
L014100020032000000
  0
VERTEX
 10
0.500000
 20
23.500000
 30
0.000000
  8
57
 62
7
  6
L014100020032000000
  0
SEQEND
  0
SOLID
  8
57
 62
255
  6
L014100020032000000
 10
74.500000
 20
8.500000
 11
74.500000
 21
11.500000
 12
0.500000
 22
8.500000
 13
0.500000
 23
11.500000
  0
POLYLINE
  8
57
 62
7
  6
L014100020032000000
 70
1
 66
1
  0
VERTEX
 10
74.500000
 20
8.500000
 30
0.000000
  8
57
 62
7
  6
L014100020032000000
  0
VERTEX
 10
74.500000
 20
11.500000
 30
0.000000
  8
57
 62
7
  6
L014100020032000000
  0
VERTEX
 10
0.500000
 20
11.500000
 30
0.000000
  8
57
 62
7
  6
L014100020032000000
  0
VERTEX
 10
0.500000
 20
8.500000
 30
0.000000
  8
57
 62
7
  6
L014100020032000000
  0
SEQEND
  0
CIRCLE
  8
57
 62
7
  6
L014100020032000000
 10
5.000000
 20
91.600000
 30
0.0
 40
0.500000
  0
CIRCLE
  8
57
 62
7
  6
L014100020032000000
 10
10.000000
 20
91.600000
 30
0.0
 40
0.500000
  0
CIRCLE
  8
57
 62
7
  6
L014100020032000000
 10
15.000000
 20
91.600000
 30
0.0
 40
0.500000
  0
CIRCLE
  8
57
 62
7
  6
L014100020032000000
 10
20.000000
 20
91.600000
 30
0.0
 40
0.500000
  0
CIRCLE
  8
57
 62
7
  6
L014100020032000000
 10
12.500000
 20
91.600000
 30
0.0
 40
0.600000
  0
CIRCLE
  8
57
 62
7
  6
L014100020032000000
 10
12.500000
 20
91.600000
 30
0.0
 40
1.100000
  0
CIRCLE
  8
57
 62
7
  6
L014100020032000000
 10
5.000000
 20
73.100000
 30
0.0
 40
0.500000
  0
CIRCLE
  8
57
 62
7
  6
L014100020032000000
 10
10.000000
 20
73.100000
 30
0.0
 40
0.500000
  0
CIRCLE
  8
57
 62
7
  6
L014100020032000000
 10
15.000000
 20
73.100000
 30
0.0
 40
0.500000
  0
CIRCLE
  8
57
 62
7
  6
L014100020032000000
 10
20.000000
 20
73.100000
 30
0.0
 40
0.500000
  0
CIRCLE
  8
57
 62
7
  6
L014100020032000000
 10
12.500000
 20
73.100000
 30
0.0
 40
0.600000
  0
CIRCLE
  8
57
 62
7
  6
L014100020032000000
 10
12.500000
 20
73.100000
 30
0.0
 40
1.100000
  0
SOLID
  8
57
 62
255
  6
L014100020032000000
 10
68.600000
 20
53.000000
 11
68.600000
 21
62.800000
 12
65.600000
 22
53.000000
 13
65.600000
 23
62.800000
  0
POLYLINE
  8
57
 62
7
  6
L014100020032000000
 70
1
 66
1
  0
VERTEX
 10
68.600000
 20
53.000000
 30
0.000000
  8
57
 62
7
  6
L014100020032000000
  0
VERTEX
 10
68.600000
 20
62.800000
 30
0.000000
  8
57
 62
7
  6
L014100020032000000
  0
VERTEX
 10
65.600000
 20
62.800000
 30
0.000000
  8
57
 62
7
  6
L014100020032000000
  0
VERTEX
 10
65.600000
 20
53.000000
 30
0.000000
  8
57
 62
7
  6
L014100020032000000
  0
SEQEND
  0
SOLID
  8
57
 62
255
  6
L014100020032000000
 10
33.000000
 20
53.000000
 11
33.000000
 21
56.000000
 12
0.500000
 22
53.000000
 13
0.500000
 23
56.000000
  0
POLYLINE
  8
57
 62
7
  6
L014100020032000000
 70
1
 66
1
  0
VERTEX
 10
33.000000
 20
53.000000
 30
0.000000
  8
57
 62
7
  6
L014100020032000000
  0
VERTEX
 10
33.000000
 20
56.000000
 30
0.000000
  8
57
 62
7
  6
L014100020032000000
  0
VERTEX
 10
0.500000
 20
56.000000
 30
0.000000
  8
57
 62
7
  6
L014100020032000000
  0
VERTEX
 10
0.500000
 20
53.000000
 30
0.000000
  8
57
 62
7
  6
L014100020032000000
  0
SEQEND
  0
SOLID
  8
57
 62
255
  6
L014100020032000000
 10
74.500000
 20
53.000000
 11
74.500000
 21
56.000000
 12
42.000000
 22
53.000000
 13
42.000000
 23
56.000000
  0
POLYLINE
  8
57
 62
7
  6
L014100020032000000
 70
1
 66
1
  0
VERTEX
 10
74.500000
 20
53.000000
 30
0.000000
  8
57
 62
7
  6
L014100020032000000
  0
VERTEX
 10
74.500000
 20
56.000000
 30
0.000000
  8
57
 62
7
  6
L014100020032000000
  0
VERTEX
 10
42.000000
 20
56.000000
 30
0.000000
  8
57
 62
7
  6
L014100020032000000
  0
VERTEX
 10
42.000000
 20
53.000000
 30
0.000000
  8
57
 62
7
  6
L014100020032000000
  0
SEQEND
  0
CIRCLE
  8
57
 62
7
  6
L014100020032000000
 10
7.500000
 20
54.600000
 30
0.0
 40
0.700000
  0
CIRCLE
  8
57
 62
7
  6
L014100020032000000
 10
17.500000
 20
54.600000
 30
0.0
 40
0.700000
  0
CIRCLE
  8
57
 62
7
  6
L014100020032000000
 10
5.000000
 20
54.600000
 30
0.0
 40
0.500000
  0
CIRCLE
  8
57
 62
7
  6
L014100020032000000
 10
10.000000
 20
54.600000
 30
0.0
 40
0.500000
  0
CIRCLE
  8
57
 62
7
  6
L014100020032000000
 10
15.000000
 20
54.600000
 30
0.0
 40
0.500000
  0
CIRCLE
  8
57
 62
7
  6
L014100020032000000
 10
20.000000
 20
54.600000
 30
0.0
 40
0.500000
  0
CIRCLE
  8
57
 62
7
  6
L014100020032000000
 10
12.500000
 20
54.600000
 30
0.0
 40
0.600000
  0
CIRCLE
  8
57
 62
7
  6
L014100020032000000
 10
12.500000
 20
54.600000
 30
0.0
 40
1.100000
  0
CIRCLE
  8
57
 62
7
  6
L014100020032000000
 10
55.000000
 20
91.600000
 30
0.0
 40
0.500000
  0
CIRCLE
  8
57
 62
7
  6
L014100020032000000
 10
70.000000
 20
91.600000
 30
0.0
 40
0.500000
  0
CIRCLE
  8
57
 62
7
  6
L014100020032000000
 10
55.000000
 20
73.100000
 30
0.0
 40
0.500000
  0
CIRCLE
  8
57
 62
7
  6
L014100020032000000
 10
70.000000
 20
73.100000
 30
0.0
 40
0.500000
  0
SOLID
  8
57
 62
255
  6
L014100020032000000
 10
59.400000
 20
83.300000
 11
59.400000
 21
100.000000
 12
56.400000
 22
83.300000
 13
56.400000
 23
100.000000
  0
POLYLINE
  8
57
 62
7
  6
L014100020032000000
 70
1
 66
1
  0
VERTEX
 10
59.400000
 20
83.300000
 30
0.000000
  8
57
 62
7
  6
L014100020032000000
  0
VERTEX
 10
59.400000
 20
100.000000
 30
0.000000
  8
57
 62
7
  6
L014100020032000000
  0
VERTEX
 10
56.400000
 20
100.000000
 30
0.000000
  8
57
 62
7
  6
L014100020032000000
  0
VERTEX
 10
56.400000
 20
83.300000
 30
0.000000
  8
57
 62
7
  6
L014100020032000000
  0
SEQEND
  0
SOLID
  8
57
 62
255
  6
L014100020032000000
 10
64.000000
 20
83.300000
 11
64.000000
 21
100.000000
 12
61.000000
 22
83.300000
 13
61.000000
 23
100.000000
  0
POLYLINE
  8
57
 62
7
  6
L014100020032000000
 70
1
 66
1
  0
VERTEX
 10
64.000000
 20
83.300000
 30
0.000000
  8
57
 62
7
  6
L014100020032000000
  0
VERTEX
 10
64.000000
 20
100.000000
 30
0.000000
  8
57
 62
7
  6
L014100020032000000
  0
VERTEX
 10
61.000000
 20
100.000000
 30
0.000000
  8
57
 62
7
  6
L014100020032000000
  0
VERTEX
 10
61.000000
 20
83.300000
 30
0.000000
  8
57
 62
7
  6
L014100020032000000
  0
SEQEND
  0
SOLID
  8
57
 62
255
  6
L014100020032000000
 10
68.600000
 20
83.300000
 11
68.600000
 21
100.000000
 12
65.600000
 22
83.300000
 13
65.600000
 23
100.000000
  0
POLYLINE
  8
57
 62
7
  6
L014100020032000000
 70
1
 66
1
  0
VERTEX
 10
68.600000
 20
83.300000
 30
0.000000
  8
57
 62
7
  6
L014100020032000000
  0
VERTEX
 10
68.600000
 20
100.000000
 30
0.000000
  8
57
 62
7
  6
L014100020032000000
  0
VERTEX
 10
65.600000
 20
100.000000
 30
0.000000
  8
57
 62
7
  6
L014100020032000000
  0
VERTEX
 10
65.600000
 20
83.300000
 30
0.000000
  8
57
 62
7
  6
L014100020032000000
  0
SEQEND
  0
SOLID
  8
57
 62
255
  6
L014100020032000000
 10
45.900000
 20
52.500000
 11
45.900000
 21
56.500000
 12
29.000000
 22
52.500000
 13
29.000000
 23
56.500000
  0
POLYLINE
  8
57
 62
7
  6
L014100020032000000
 70
1
 66
1
  0
VERTEX
 10
45.900000
 20
52.500000
 30
0.000000
  8
57
 62
7
  6
L014100020032000000
  0
VERTEX
 10
45.900000
 20
56.500000
 30
0.000000
  8
57
 62
7
  6
L014100020032000000
  0
VERTEX
 10
29.000000
 20
56.500000
 30
0.000000
  8
57
 62
7
  6
L014100020032000000
  0
VERTEX
 10
29.000000
 20
52.500000
 30
0.000000
  8
57
 62
7
  6
L014100020032000000
  0
SEQEND
  0
CIRCLE
  8
57
 62
7
  6
L014100020032000000
 10
31.000000
 20
54.500000
 30
0.0
 40
0.700000
  0
CIRCLE
  8
57
 62
7
  6
L014100020032000000
 10
44.000000
 20
54.500000
 30
0.0
 40
0.700000
  0
CIRCLE
  8
57
 62
7
  6
L014100020032000000
 10
47.000000
 20
54.500000
 30
0.0
 40
0.700000
  0
CIRCLE
  8
57
 62
7
  6
L014100020032000000
 10
28.000000
 20
54.500000
 30
0.0
 40
0.700000
  0
SOLID
  8
29
 62
255
  6
CONTINUOUS
 10
24.800000
 20
105.200000
 11
24.800000
 21
179.800000
 12
0.200000
 22
105.200000
 13
0.200000
 23
179.800000
  0
POLYLINE
  8
29
 62
7
  6
CONTINUOUS
 70
1
 66
1
  0
VERTEX
 10
24.800000
 20
105.200000
 30
0.000000
  8
29
 62
7
  6
CONTINUOUS
  0
VERTEX
 10
24.800000
 20
179.800000
 30
0.000000
  8
29
 62
7
  6
CONTINUOUS
  0
VERTEX
 10
0.200000
 20
179.800000
 30
0.000000
  8
29
 62
7
  6
CONTINUOUS
  0
VERTEX
 10
0.200000
 20
105.200000
 30
0.000000
  8
29
 62
7
  6
CONTINUOUS
  0
SEQEND
  0
POLYLINE
  8
29
 62
7
  6
CONTINUOUS
 70
0
 66
1
  0
VERTEX
 10
0.200000
 20
120.000000
  8
29
 62
7
  6
CONTINUOUS
  0
VERTEX
 10
24.800000
 20
120.000000
  8
29
 62
7
  6
CONTINUOUS
  0
SEQEND
  0
POLYLINE
  8
29
 62
7
  6
CONTINUOUS
 70
0
 66
1
  0
VERTEX
 10
0.200000
 20
165.000000
  8
29
 62
7
  6
CONTINUOUS
  0
VERTEX
 10
24.800000
 20
165.000000
  8
29
 62
7
  6
CONTINUOUS
  0
SEQEND
  0
POLYLINE
  8
29
 62
7
  6
CONTINUOUS
 70
0
 66
1
  0
VERTEX
 10
11.500000
 20
140.000000
  8
29
 62
7
  6
CONTINUOUS
  0
VERTEX
 10
11.500000
 20
163.000000
  8
29
 62
7
  6
CONTINUOUS
  0
VERTEX
 10
13.500000
 20
163.000000
  8
29
 62
7
  6
CONTINUOUS
  0
VERTEX
 10
13.500000
 20
140.000000
  8
29
 62
7
  6
CONTINUOUS
  0
SEQEND
  0
POLYLINE
  8
29
 62
7
  6
CONTINUOUS
 70
0
 66
1
  0
VERTEX
 10
11.500000
 20
136.800000
  8
29
 62
7
  6
CONTINUOUS
  0
VERTEX
 10
11.500000
 20
133.000000
  8
29
 62
7
  6
CONTINUOUS
  0
SEQEND
  0
POLYLINE
  8
29
 62
7
  6
CONTINUOUS
 70
0
 66
1
  0
VERTEX
 10
13.500000
 20
136.800000
  8
29
 62
7
  6
CONTINUOUS
  0
VERTEX
 10
13.500000
 20
133.000000
  8
29
 62
7
  6
CONTINUOUS
  0
SEQEND
  0
POLYLINE
  8
29
 62
7
  6
CONTINUOUS
 70
1
 66
1
  0
VERTEX
 10
23.400000
 20
140.000000
 30
0.000000
  8
29
 62
7
  6
CONTINUOUS
  0
VERTEX
 10
23.400000
 20
136.800000
 30
0.000000
  8
29
 62
7
  6
CONTINUOUS
  0
VERTEX
 10
1.600000
 20
136.800000
 30
0.000000
  8
29
 62
7
  6
CONTINUOUS
  0
VERTEX
 10
1.600000
 20
140.000000
 30
0.000000
  8
29
 62
7
  6
CONTINUOUS
  0
SEQEND
  0
CIRCLE
  8
29
 62
7
  6
CONTINUOUS
 10
12.500000
 20
139.100000
 30
0.0
 40
0.500000
  0
CIRCLE
  8
29
 62
7
  6
CONTINUOUS
 10
10.500000
 20
139.100000
 30
0.0
 40
0.500000
  0
CIRCLE
  8
29
 62
7
  6
CONTINUOUS
 10
2.400000
 20
139.100000
 30
0.0
 40
0.300000
  0
SOLID
  8
29
 62
7
  6
CONTINUOUS
 10
10.500000
 20
138.800000
 11
10.500000
 21
139.400000
 12
2.400000
 22
138.800000
 13
2.400000
 23
139.400000
  0
POLYLINE
  8
29
 62
7
  6
CONTINUOUS
 70
1
 66
1
  0
VERTEX
 10
10.500000
 20
138.800000
 30
0.000000
  8
29
 62
7
  6
CONTINUOUS
  0
VERTEX
 10
10.500000
 20
139.400000
 30
0.000000
  8
29
 62
7
  6
CONTINUOUS
  0
VERTEX
 10
2.400000
 20
139.400000
 30
0.000000
  8
29
 62
7
  6
CONTINUOUS
  0
VERTEX
 10
2.400000
 20
138.800000
 30
0.000000
  8
29
 62
7
  6
CONTINUOUS
  0
SEQEND
  0
CIRCLE
  8
29
 62
7
  6
CONTINUOUS
 10
10.500000
 20
137.600000
 30
0.0
 40
0.500000
  0
CIRCLE
  8
29
 62
7
  6
CONTINUOUS
 10
2.400000
 20
137.600000
 30
0.0
 40
0.300000
  0
SOLID
  8
29
 62
7
  6
CONTINUOUS
 10
10.500000
 20
137.300000
 11
10.500000
 21
137.900000
 12
2.400000
 22
137.300000
 13
2.400000
 23
137.900000
  0
POLYLINE
  8
29
 62
7
  6
CONTINUOUS
 70
1
 66
1
  0
VERTEX
 10
10.500000
 20
137.300000
 30
0.000000
  8
29
 62
7
  6
CONTINUOUS
  0
VERTEX
 10
10.500000
 20
137.900000
 30
0.000000
  8
29
 62
7
  6
CONTINUOUS
  0
VERTEX
 10
2.400000
 20
137.900000
 30
0.000000
  8
29
 62
7
  6
CONTINUOUS
  0
VERTEX
 10
2.400000
 20
137.300000
 30
0.000000
  8
29
 62
7
  6
CONTINUOUS
  0
SEQEND
  0
CIRCLE
  8
29
 62
7
  6
CONTINUOUS
 10
14.500000
 20
139.100000
 30
0.0
 40
0.500000
  0
CIRCLE
  8
29
 62
7
  6
CONTINUOUS
 10
22.600000
 20
139.100000
 30
0.0
 40
0.300000
  0
SOLID
  8
29
 62
7
  6
CONTINUOUS
 10
14.500000
 20
138.800000
 11
14.500000
 21
139.400000
 12
22.600000
 22
138.800000
 13
22.600000
 23
139.400000
  0
POLYLINE
  8
29
 62
7
  6
CONTINUOUS
 70
1
 66
1
  0
VERTEX
 10
14.500000
 20
138.800000
 30
0.000000
  8
29
 62
7
  6
CONTINUOUS
  0
VERTEX
 10
14.500000
 20
139.400000
 30
0.000000
  8
29
 62
7
  6
CONTINUOUS
  0
VERTEX
 10
22.600000
 20
139.400000
 30
0.000000
  8
29
 62
7
  6
CONTINUOUS
  0
VERTEX
 10
22.600000
 20
138.800000
 30
0.000000
  8
29
 62
7
  6
CONTINUOUS
  0
SEQEND
  0
CIRCLE
  8
29
 62
7
  6
CONTINUOUS
 10
14.500000
 20
137.600000
 30
0.0
 40
0.500000
  0
CIRCLE
  8
29
 62
7
  6
CONTINUOUS
 10
22.600000
 20
137.600000
 30
0.0
 40
0.300000
  0
SOLID
  8
29
 62
7
  6
CONTINUOUS
 10
14.500000
 20
137.300000
 11
14.500000
 21
137.900000
 12
22.600000
 22
137.300000
 13
22.600000
 23
137.900000
  0
POLYLINE
  8
29
 62
7
  6
CONTINUOUS
 70
1
 66
1
  0
VERTEX
 10
14.500000
 20
137.300000
 30
0.000000
  8
29
 62
7
  6
CONTINUOUS
  0
VERTEX
 10
14.500000
 20
137.900000
 30
0.000000
  8
29
 62
7
  6
CONTINUOUS
  0
VERTEX
 10
22.600000
 20
137.900000
 30
0.000000
  8
29
 62
7
  6
CONTINUOUS
  0
VERTEX
 10
22.600000
 20
137.300000
 30
0.000000
  8
29
 62
7
  6
CONTINUOUS
  0
SEQEND
  0
CIRCLE
  8
29
 62
7
  6
CONTINUOUS
 10
12.500000
 20
139.100000
 30
0.0
 40
0.500000
  0
CIRCLE
  8
29
 62
7
  6
CONTINUOUS
 10
12.500000
 20
144.600000
 30
0.0
 40
0.400000
  0
SOLID
  8
29
 62
7
  6
CONTINUOUS
 10
12.200000
 20
140.000000
 11
12.200000
 21
143.300000
 12
12.800000
 22
140.000000
 13
12.800000
 23
143.300000
  0
POLYLINE
  8
29
 62
7
  6
CONTINUOUS
 70
1
 66
1
  0
VERTEX
 10
12.200000
 20
140.000000
 30
0.000000
  8
29
 62
7
  6
CONTINUOUS
  0
VERTEX
 10
12.200000
 20
143.300000
 30
0.000000
  8
29
 62
7
  6
CONTINUOUS
  0
VERTEX
 10
12.800000
 20
143.300000
 30
0.000000
  8
29
 62
7
  6
CONTINUOUS
  0
VERTEX
 10
12.800000
 20
140.000000
 30
0.000000
  8
29
 62
7
  6
CONTINUOUS
  0
SEQEND
  0
SOLID
  8
29
 62
7
  6
CONTINUOUS
 10
12.200000
 20
147.200000
 11
12.200000
 21
161.800000
 12
12.800000
 22
147.200000
 13
12.800000
 23
161.800000
  0
POLYLINE
  8
29
 62
7
  6
CONTINUOUS
 70
1
 66
1
  0
VERTEX
 10
12.200000
 20
147.200000
 30
0.000000
  8
29
 62
7
  6
CONTINUOUS
  0
VERTEX
 10
12.200000
 20
161.800000
 30
0.000000
  8
29
 62
7
  6
CONTINUOUS
  0
VERTEX
 10
12.800000
 20
161.800000
 30
0.000000
  8
29
 62
7
  6
CONTINUOUS
  0
VERTEX
 10
12.800000
 20
147.200000
 30
0.000000
  8
29
 62
7
  6
CONTINUOUS
  0
SEQEND
  0
CIRCLE
  8
29
 62
7
  6
CONTINUOUS
 10
12.500000
 20
147.100000
 30
0.0
 40
0.500000
  0
CIRCLE
  8
29
 62
7
  6
CONTINUOUS
 10
12.500000
 20
161.800000
 30
0.0
 40
0.300000
  0
CIRCLE
  8
29
 62
7
  6
CONTINUOUS
 10
12.500000
 20
143.300000
 30
0.0
 40
0.300000
  0
SOLID
  8
29
 62
7
  6
CONTINUOUS
 10
12.200000
 20
134.500000
 11
12.200000
 21
136.800000
 12
12.800000
 22
134.500000
 13
12.800000
 23
136.800000
  0
POLYLINE
  8
29
 62
7
  6
CONTINUOUS
 70
1
 66
1
  0
VERTEX
 10
12.200000
 20
134.500000
 30
0.000000
  8
29
 62
7
  6
CONTINUOUS
  0
VERTEX
 10
12.200000
 20
136.800000
 30
0.000000
  8
29
 62
7
  6
CONTINUOUS
  0
VERTEX
 10
12.800000
 20
136.800000
 30
0.000000
  8
29
 62
7
  6
CONTINUOUS
  0
VERTEX
 10
12.800000
 20
134.500000
 30
0.000000
  8
29
 62
7
  6
CONTINUOUS
  0
SEQEND
  0
POLYLINE
  8
29
 62
7
  6
CONTINUOUS
 70
0
 66
1
  0
VERTEX
 10
0.400000
 20
111.200000
  8
29
 62
7
  6
CONTINUOUS
  0
VERTEX
 10
24.600000
 20
111.200000
  8
29
 62
7
  6
CONTINUOUS
  0
SEQEND
  0
POLYLINE
  8
29
 62
7
  6
CONTINUOUS
 70
0
 66
1
  0
VERTEX
 10
0.400000
 20
113.700000
  8
29
 62
7
  6
CONTINUOUS
  0
VERTEX
 10
24.600000
 20
113.700000
  8
29
 62
7
  6
CONTINUOUS
  0
SEQEND
  0
POLYLINE
  8
29
 62
7
  6
CONTINUOUS
 70
1
 66
1
  0
VERTEX
 10
24.600000
 20
110.700000
 30
0.000000
  8
29
 62
7
  6
CONTINUOUS
  0
VERTEX
 10
24.600000
 20
114.200000
 30
0.000000
  8
29
 62
7
  6
CONTINUOUS
  0
VERTEX
 10
0.400000
 20
114.200000
 30
0.000000
  8
29
 62
7
  6
CONTINUOUS
  0
VERTEX
 10
0.400000
 20
110.700000
 30
0.000000
  8
29
 62
7
  6
CONTINUOUS
  0
SEQEND
  0
POLYLINE
  8
29
 62
7
  6
CONTINUOUS
 70
0
 66
1
  0
VERTEX
 10
0.400000
 20
171.200000
  8
29
 62
7
  6
CONTINUOUS
  0
VERTEX
 10
24.600000
 20
171.200000
  8
29
 62
7
  6
CONTINUOUS
  0
SEQEND
  0
POLYLINE
  8
29
 62
7
  6
CONTINUOUS
 70
0
 66
1
  0
VERTEX
 10
0.400000
 20
173.700000
  8
29
 62
7
  6
CONTINUOUS
  0
VERTEX
 10
24.600000
 20
173.700000
  8
29
 62
7
  6
CONTINUOUS
  0
SEQEND
  0
POLYLINE
  8
29
 62
7
  6
CONTINUOUS
 70
1
 66
1
  0
VERTEX
 10
24.600000
 20
170.700000
 30
0.000000
  8
29
 62
7
  6
CONTINUOUS
  0
VERTEX
 10
24.600000
 20
174.200000
 30
0.000000
  8
29
 62
7
  6
CONTINUOUS
  0
VERTEX
 10
0.400000
 20
174.200000
 30
0.000000
  8
29
 62
7
  6
CONTINUOUS
  0
VERTEX
 10
0.400000
 20
170.700000
 30
0.000000
  8
29
 62
7
  6
CONTINUOUS
  0
SEQEND
  0
SOLID
  8
29
 62
255
  6
CONTINUOUS
 10
49.800000
 20
105.200000
 11
49.800000
 21
179.800000
 12
25.200000
 22
105.200000
 13
25.200000
 23
179.800000
  0
POLYLINE
  8
29
 62
7
  6
CONTINUOUS
 70
1
 66
1
  0
VERTEX
 10
49.800000
 20
105.200000
 30
0.000000
  8
29
 62
7
  6
CONTINUOUS
  0
VERTEX
 10
49.800000
 20
179.800000
 30
0.000000
  8
29
 62
7
  6
CONTINUOUS
  0
VERTEX
 10
25.200000
 20
179.800000
 30
0.000000
  8
29
 62
7
  6
CONTINUOUS
  0
VERTEX
 10
25.200000
 20
105.200000
 30
0.000000
  8
29
 62
7
  6
CONTINUOUS
  0
SEQEND
  0
POLYLINE
  8
29
 62
7
  6
CONTINUOUS
 70
0
 66
1
  0
VERTEX
 10
25.200000
 20
120.000000
  8
29
 62
7
  6
CONTINUOUS
  0
VERTEX
 10
49.800000
 20
120.000000
  8
29
 62
7
  6
CONTINUOUS
  0
SEQEND
  0
POLYLINE
  8
29
 62
7
  6
CONTINUOUS
 70
0
 66
1
  0
VERTEX
 10
25.200000
 20
165.000000
  8
29
 62
7
  6
CONTINUOUS
  0
VERTEX
 10
49.800000
 20
165.000000
  8
29
 62
7
  6
CONTINUOUS
  0
SEQEND
  0
POLYLINE
  8
29
 62
7
  6
CONTINUOUS
 70
0
 66
1
  0
VERTEX
 10
36.500000
 20
140.000000
  8
29
 62
7
  6
CONTINUOUS
  0
VERTEX
 10
36.500000
 20
163.000000
  8
29
 62
7
  6
CONTINUOUS
  0
VERTEX
 10
38.500000
 20
163.000000
  8
29
 62
7
  6
CONTINUOUS
  0
VERTEX
 10
38.500000
 20
140.000000
  8
29
 62
7
  6
CONTINUOUS
  0
SEQEND
  0
POLYLINE
  8
29
 62
7
  6
CONTINUOUS
 70
0
 66
1
  0
VERTEX
 10
36.500000
 20
136.800000
  8
29
 62
7
  6
CONTINUOUS
  0
VERTEX
 10
36.500000
 20
133.000000
  8
29
 62
7
  6
CONTINUOUS
  0
SEQEND
  0
POLYLINE
  8
29
 62
7
  6
CONTINUOUS
 70
0
 66
1
  0
VERTEX
 10
38.500000
 20
136.800000
  8
29
 62
7
  6
CONTINUOUS
  0
VERTEX
 10
38.500000
 20
133.000000
  8
29
 62
7
  6
CONTINUOUS
  0
SEQEND
  0
POLYLINE
  8
29
 62
7
  6
CONTINUOUS
 70
1
 66
1
  0
VERTEX
 10
48.400000
 20
140.000000
 30
0.000000
  8
29
 62
7
  6
CONTINUOUS
  0
VERTEX
 10
48.400000
 20
136.800000
 30
0.000000
  8
29
 62
7
  6
CONTINUOUS
  0
VERTEX
 10
26.600000
 20
136.800000
 30
0.000000
  8
29
 62
7
  6
CONTINUOUS
  0
VERTEX
 10
26.600000
 20
140.000000
 30
0.000000
  8
29
 62
7
  6
CONTINUOUS
  0
SEQEND
  0
CIRCLE
  8
29
 62
7
  6
CONTINUOUS
 10
37.500000
 20
139.100000
 30
0.0
 40
0.500000
  0
CIRCLE
  8
29
 62
7
  6
CONTINUOUS
 10
35.500000
 20
139.100000
 30
0.0
 40
0.500000
  0
CIRCLE
  8
29
 62
7
  6
CONTINUOUS
 10
27.400000
 20
139.100000
 30
0.0
 40
0.300000
  0
SOLID
  8
29
 62
7
  6
CONTINUOUS
 10
35.500000
 20
138.800000
 11
35.500000
 21
139.400000
 12
27.400000
 22
138.800000
 13
27.400000
 23
139.400000
  0
POLYLINE
  8
29
 62
7
  6
CONTINUOUS
 70
1
 66
1
  0
VERTEX
 10
35.500000
 20
138.800000
 30
0.000000
  8
29
 62
7
  6
CONTINUOUS
  0
VERTEX
 10
35.500000
 20
139.400000
 30
0.000000
  8
29
 62
7
  6
CONTINUOUS
  0
VERTEX
 10
27.400000
 20
139.400000
 30
0.000000
  8
29
 62
7
  6
CONTINUOUS
  0
VERTEX
 10
27.400000
 20
138.800000
 30
0.000000
  8
29
 62
7
  6
CONTINUOUS
  0
SEQEND
  0
CIRCLE
  8
29
 62
7
  6
CONTINUOUS
 10
35.500000
 20
137.600000
 30
0.0
 40
0.500000
  0
CIRCLE
  8
29
 62
7
  6
CONTINUOUS
 10
27.400000
 20
137.600000
 30
0.0
 40
0.300000
  0
SOLID
  8
29
 62
7
  6
CONTINUOUS
 10
35.500000
 20
137.300000
 11
35.500000
 21
137.900000
 12
27.400000
 22
137.300000
 13
27.400000
 23
137.900000
  0
POLYLINE
  8
29
 62
7
  6
CONTINUOUS
 70
1
 66
1
  0
VERTEX
 10
35.500000
 20
137.300000
 30
0.000000
  8
29
 62
7
  6
CONTINUOUS
  0
VERTEX
 10
35.500000
 20
137.900000
 30
0.000000
  8
29
 62
7
  6
CONTINUOUS
  0
VERTEX
 10
27.400000
 20
137.900000
 30
0.000000
  8
29
 62
7
  6
CONTINUOUS
  0
VERTEX
 10
27.400000
 20
137.300000
 30
0.000000
  8
29
 62
7
  6
CONTINUOUS
  0
SEQEND
  0
CIRCLE
  8
29
 62
7
  6
CONTINUOUS
 10
39.500000
 20
139.100000
 30
0.0
 40
0.500000
  0
CIRCLE
  8
29
 62
7
  6
CONTINUOUS
 10
47.600000
 20
139.100000
 30
0.0
 40
0.300000
  0
SOLID
  8
29
 62
7
  6
CONTINUOUS
 10
39.500000
 20
138.800000
 11
39.500000
 21
139.400000
 12
47.600000
 22
138.800000
 13
47.600000
 23
139.400000
  0
POLYLINE
  8
29
 62
7
  6
CONTINUOUS
 70
1
 66
1
  0
VERTEX
 10
39.500000
 20
138.800000
 30
0.000000
  8
29
 62
7
  6
CONTINUOUS
  0
VERTEX
 10
39.500000
 20
139.400000
 30
0.000000
  8
29
 62
7
  6
CONTINUOUS
  0
VERTEX
 10
47.600000
 20
139.400000
 30
0.000000
  8
29
 62
7
  6
CONTINUOUS
  0
VERTEX
 10
47.600000
 20
138.800000
 30
0.000000
  8
29
 62
7
  6
CONTINUOUS
  0
SEQEND
  0
CIRCLE
  8
29
 62
7
  6
CONTINUOUS
 10
39.500000
 20
137.600000
 30
0.0
 40
0.500000
  0
CIRCLE
  8
29
 62
7
  6
CONTINUOUS
 10
47.600000
 20
137.600000
 30
0.0
 40
0.300000
  0
SOLID
  8
29
 62
7
  6
CONTINUOUS
 10
39.500000
 20
137.300000
 11
39.500000
 21
137.900000
 12
47.600000
 22
137.300000
 13
47.600000
 23
137.900000
  0
POLYLINE
  8
29
 62
7
  6
CONTINUOUS
 70
1
 66
1
  0
VERTEX
 10
39.500000
 20
137.300000
 30
0.000000
  8
29
 62
7
  6
CONTINUOUS
  0
VERTEX
 10
39.500000
 20
137.900000
 30
0.000000
  8
29
 62
7
  6
CONTINUOUS
  0
VERTEX
 10
47.600000
 20
137.900000
 30
0.000000
  8
29
 62
7
  6
CONTINUOUS
  0
VERTEX
 10
47.600000
 20
137.300000
 30
0.000000
  8
29
 62
7
  6
CONTINUOUS
  0
SEQEND
  0
CIRCLE
  8
29
 62
7
  6
CONTINUOUS
 10
37.500000
 20
139.100000
 30
0.0
 40
0.500000
  0
CIRCLE
  8
29
 62
7
  6
CONTINUOUS
 10
37.500000
 20
144.600000
 30
0.0
 40
0.400000
  0
SOLID
  8
29
 62
7
  6
CONTINUOUS
 10
37.200000
 20
140.000000
 11
37.200000
 21
143.300000
 12
37.800000
 22
140.000000
 13
37.800000
 23
143.300000
  0
POLYLINE
  8
29
 62
7
  6
CONTINUOUS
 70
1
 66
1
  0
VERTEX
 10
37.200000
 20
140.000000
 30
0.000000
  8
29
 62
7
  6
CONTINUOUS
  0
VERTEX
 10
37.200000
 20
143.300000
 30
0.000000
  8
29
 62
7
  6
CONTINUOUS
  0
VERTEX
 10
37.800000
 20
143.300000
 30
0.000000
  8
29
 62
7
  6
CONTINUOUS
  0
VERTEX
 10
37.800000
 20
140.000000
 30
0.000000
  8
29
 62
7
  6
CONTINUOUS
  0
SEQEND
  0
SOLID
  8
29
 62
7
  6
CONTINUOUS
 10
37.200000
 20
147.200000
 11
37.200000
 21
161.800000
 12
37.800000
 22
147.200000
 13
37.800000
 23
161.800000
  0
POLYLINE
  8
29
 62
7
  6
CONTINUOUS
 70
1
 66
1
  0
VERTEX
 10
37.200000
 20
147.200000
 30
0.000000
  8
29
 62
7
  6
CONTINUOUS
  0
VERTEX
 10
37.200000
 20
161.800000
 30
0.000000
  8
29
 62
7
  6
CONTINUOUS
  0
VERTEX
 10
37.800000
 20
161.800000
 30
0.000000
  8
29
 62
7
  6
CONTINUOUS
  0
VERTEX
 10
37.800000
 20
147.200000
 30
0.000000
  8
29
 62
7
  6
CONTINUOUS
  0
SEQEND
  0
CIRCLE
  8
29
 62
7
  6
CONTINUOUS
 10
37.500000
 20
147.100000
 30
0.0
 40
0.500000
  0
CIRCLE
  8
29
 62
7
  6
CONTINUOUS
 10
37.500000
 20
161.800000
 30
0.0
 40
0.300000
  0
CIRCLE
  8
29
 62
7
  6
CONTINUOUS
 10
37.500000
 20
143.300000
 30
0.0
 40
0.300000
  0
SOLID
  8
29
 62
7
  6
CONTINUOUS
 10
37.200000
 20
134.500000
 11
37.200000
 21
136.800000
 12
37.800000
 22
134.500000
 13
37.800000
 23
136.800000
  0
POLYLINE
  8
29
 62
7
  6
CONTINUOUS
 70
1
 66
1
  0
VERTEX
 10
37.200000
 20
134.500000
 30
0.000000
  8
29
 62
7
  6
CONTINUOUS
  0
VERTEX
 10
37.200000
 20
136.800000
 30
0.000000
  8
29
 62
7
  6
CONTINUOUS
  0
VERTEX
 10
37.800000
 20
136.800000
 30
0.000000
  8
29
 62
7
  6
CONTINUOUS
  0
VERTEX
 10
37.800000
 20
134.500000
 30
0.000000
  8
29
 62
7
  6
CONTINUOUS
  0
SEQEND
  0
POLYLINE
  8
29
 62
7
  6
CONTINUOUS
 70
0
 66
1
  0
VERTEX
 10
25.400000
 20
111.200000
  8
29
 62
7
  6
CONTINUOUS
  0
VERTEX
 10
49.600000
 20
111.200000
  8
29
 62
7
  6
CONTINUOUS
  0
SEQEND
  0
POLYLINE
  8
29
 62
7
  6
CONTINUOUS
 70
0
 66
1
  0
VERTEX
 10
25.400000
 20
113.700000
  8
29
 62
7
  6
CONTINUOUS
  0
VERTEX
 10
49.600000
 20
113.700000
  8
29
 62
7
  6
CONTINUOUS
  0
SEQEND
  0
POLYLINE
  8
29
 62
7
  6
CONTINUOUS
 70
1
 66
1
  0
VERTEX
 10
49.600000
 20
110.700000
 30
0.000000
  8
29
 62
7
  6
CONTINUOUS
  0
VERTEX
 10
49.600000
 20
114.200000
 30
0.000000
  8
29
 62
7
  6
CONTINUOUS
  0
VERTEX
 10
25.400000
 20
114.200000
 30
0.000000
  8
29
 62
7
  6
CONTINUOUS
  0
VERTEX
 10
25.400000
 20
110.700000
 30
0.000000
  8
29
 62
7
  6
CONTINUOUS
  0
SEQEND
  0
POLYLINE
  8
29
 62
7
  6
CONTINUOUS
 70
0
 66
1
  0
VERTEX
 10
25.400000
 20
171.200000
  8
29
 62
7
  6
CONTINUOUS
  0
VERTEX
 10
49.600000
 20
171.200000
  8
29
 62
7
  6
CONTINUOUS
  0
SEQEND
  0
POLYLINE
  8
29
 62
7
  6
CONTINUOUS
 70
0
 66
1
  0
VERTEX
 10
25.400000
 20
173.700000
  8
29
 62
7
  6
CONTINUOUS
  0
VERTEX
 10
49.600000
 20
173.700000
  8
29
 62
7
  6
CONTINUOUS
  0
SEQEND
  0
POLYLINE
  8
29
 62
7
  6
CONTINUOUS
 70
1
 66
1
  0
VERTEX
 10
49.600000
 20
170.700000
 30
0.000000
  8
29
 62
7
  6
CONTINUOUS
  0
VERTEX
 10
49.600000
 20
174.200000
 30
0.000000
  8
29
 62
7
  6
CONTINUOUS
  0
VERTEX
 10
25.400000
 20
174.200000
 30
0.000000
  8
29
 62
7
  6
CONTINUOUS
  0
VERTEX
 10
25.400000
 20
170.700000
 30
0.000000
  8
29
 62
7
  6
CONTINUOUS
  0
SEQEND
  0
SOLID
  8
29
 62
255
  6
CONTINUOUS
 10
74.800000
 20
134.900000
 11
74.800000
 21
105.200000
 12
50.200000
 22
134.900000
 13
50.200000
 23
105.200000
  0
POLYLINE
  8
29
 62
7
  6
CONTINUOUS
 70
1
 66
1
  0
VERTEX
 10
74.800000
 20
134.900000
 30
0.000000
  8
29
 62
7
  6
CONTINUOUS
  0
VERTEX
 10
74.800000
 20
105.200000
 30
0.000000
  8
29
 62
7
  6
CONTINUOUS
  0
VERTEX
 10
50.200000
 20
105.200000
 30
0.000000
  8
29
 62
7
  6
CONTINUOUS
  0
VERTEX
 10
50.200000
 20
134.900000
 30
0.000000
  8
29
 62
7
  6
CONTINUOUS
  0
SEQEND
  0
POLYLINE
  8
29
 62
7
  6
CONTINUOUS
 70
1
 66
1
  0
VERTEX
 10
73.300000
 20
117.300000
 30
0.000000
  8
29
 62
7
  6
CONTINUOUS
  0
VERTEX
 10
73.300000
 20
112.700000
 30
0.000000
  8
29
 62
7
  6
CONTINUOUS
  0
VERTEX
 10
51.700000
 20
112.700000
 30
0.000000
  8
29
 62
7
  6
CONTINUOUS
  0
VERTEX
 10
51.700000
 20
117.300000
 30
0.000000
  8
29
 62
7
  6
CONTINUOUS
  0
SEQEND
  0
POLYLINE
  8
29
 62
7
  6
CONTINUOUS
 70
0
 66
1
  0
VERTEX
 10
53.500000
 20
112.700000
  8
29
 62
7
  6
CONTINUOUS
  0
VERTEX
 10
53.500000
 20
113.800000
  8
29
 62
7
  6
CONTINUOUS
  0
SEQEND
  0
POLYLINE
  8
29
 62
7
  6
CONTINUOUS
 70
0
 66
1
  0
VERTEX
 10
55.300000
 20
112.700000
  8
29
 62
7
  6
CONTINUOUS
  0
VERTEX
 10
55.300000
 20
113.800000
  8
29
 62
7
  6
CONTINUOUS
  0
VERTEX
 10
55.300000
 20
113.800000
  8
29
 62
7
  6
CONTINUOUS
  0
SEQEND
  0
POLYLINE
  8
29
 62
7
  6
CONTINUOUS
 70
0
 66
1
  0
VERTEX
 10
57.100000
 20
112.700000
  8
29
 62
7
  6
CONTINUOUS
  0
VERTEX
 10
57.100000
 20
113.800000
  8
29
 62
7
  6
CONTINUOUS
  0
SEQEND
  0
POLYLINE
  8
29
 62
7
  6
CONTINUOUS
 70
0
 66
1
  0
VERTEX
 10
58.900000
 20
112.700000
  8
29
 62
7
  6
CONTINUOUS
  0
VERTEX
 10
58.900000
 20
113.800000
  8
29
 62
7
  6
CONTINUOUS
  0
SEQEND
  0
POLYLINE
  8
29
 62
7
  6
CONTINUOUS
 70
0
 66
1
  0
VERTEX
 10
60.700000
 20
112.700000
  8
29
 62
7
  6
CONTINUOUS
  0
VERTEX
 10
60.700000
 20
113.800000
  8
29
 62
7
  6
CONTINUOUS
  0
SEQEND
  0
POLYLINE
  8
29
 62
7
  6
CONTINUOUS
 70
0
 66
1
  0
VERTEX
 10
62.500000
 20
112.700000
  8
29
 62
7
  6
CONTINUOUS
  0
VERTEX
 10
62.500000
 20
113.800000
  8
29
 62
7
  6
CONTINUOUS
  0
SEQEND
  0
POLYLINE
  8
29
 62
7
  6
CONTINUOUS
 70
0
 66
1
  0
VERTEX
 10
64.300000
 20
112.700000
  8
29
 62
7
  6
CONTINUOUS
  0
VERTEX
 10
64.300000
 20
113.800000
  8
29
 62
7
  6
CONTINUOUS
  0
SEQEND
  0
POLYLINE
  8
29
 62
7
  6
CONTINUOUS
 70
0
 66
1
  0
VERTEX
 10
66.100000
 20
112.700000
  8
29
 62
7
  6
CONTINUOUS
  0
VERTEX
 10
66.100000
 20
113.800000
  8
29
 62
7
  6
CONTINUOUS
  0
SEQEND
  0
POLYLINE
  8
29
 62
7
  6
CONTINUOUS
 70
0
 66
1
  0
VERTEX
 10
67.900000
 20
112.700000
  8
29
 62
7
  6
CONTINUOUS
  0
VERTEX
 10
67.900000
 20
113.800000
  8
29
 62
7
  6
CONTINUOUS
  0
SEQEND
  0
POLYLINE
  8
29
 62
7
  6
CONTINUOUS
 70
0
 66
1
  0
VERTEX
 10
69.700000
 20
112.700000
  8
29
 62
7
  6
CONTINUOUS
  0
VERTEX
 10
69.700000
 20
113.800000
  8
29
 62
7
  6
CONTINUOUS
  0
SEQEND
  0
POLYLINE
  8
29
 62
7
  6
CONTINUOUS
 70
0
 66
1
  0
VERTEX
 10
71.500000
 20
112.700000
  8
29
 62
7
  6
CONTINUOUS
  0
VERTEX
 10
71.500000
 20
113.800000
  8
29
 62
7
  6
CONTINUOUS
  0
SEQEND
  0
POLYLINE
  8
29
 62
7
  6
CONTINUOUS
 70
1
 66
1
  0
VERTEX
 10
73.300000
 20
129.800000
 30
0.000000
  8
29
 62
7
  6
CONTINUOUS
  0
VERTEX
 10
73.300000
 20
125.200000
 30
0.000000
  8
29
 62
7
  6
CONTINUOUS
  0
VERTEX
 10
51.700000
 20
125.200000
 30
0.000000
  8
29
 62
7
  6
CONTINUOUS
  0
VERTEX
 10
51.700000
 20
129.800000
 30
0.000000
  8
29
 62
7
  6
CONTINUOUS
  0
SEQEND
  0
POLYLINE
  8
29
 62
7
  6
CONTINUOUS
 70
0
 66
1
  0
VERTEX
 10
53.500000
 20
125.200000
  8
29
 62
7
  6
CONTINUOUS
  0
VERTEX
 10
53.500000
 20
126.300000
  8
29
 62
7
  6
CONTINUOUS
  0
SEQEND
  0
POLYLINE
  8
29
 62
7
  6
CONTINUOUS
 70
0
 66
1
  0
VERTEX
 10
55.300000
 20
125.200000
  8
29
 62
7
  6
CONTINUOUS
  0
VERTEX
 10
55.300000
 20
126.300000
  8
29
 62
7
  6
CONTINUOUS
  0
VERTEX
 10
55.300000
 20
126.300000
  8
29
 62
7
  6
CONTINUOUS
  0
SEQEND
  0
POLYLINE
  8
29
 62
7
  6
CONTINUOUS
 70
0
 66
1
  0
VERTEX
 10
57.100000
 20
125.200000
  8
29
 62
7
  6
CONTINUOUS
  0
VERTEX
 10
57.100000
 20
126.300000
  8
29
 62
7
  6
CONTINUOUS
  0
SEQEND
  0
POLYLINE
  8
29
 62
7
  6
CONTINUOUS
 70
0
 66
1
  0
VERTEX
 10
58.900000
 20
125.200000
  8
29
 62
7
  6
CONTINUOUS
  0
VERTEX
 10
58.900000
 20
126.300000
  8
29
 62
7
  6
CONTINUOUS
  0
SEQEND
  0
POLYLINE
  8
29
 62
7
  6
CONTINUOUS
 70
0
 66
1
  0
VERTEX
 10
60.700000
 20
125.200000
  8
29
 62
7
  6
CONTINUOUS
  0
VERTEX
 10
60.700000
 20
126.300000
  8
29
 62
7
  6
CONTINUOUS
  0
SEQEND
  0
POLYLINE
  8
29
 62
7
  6
CONTINUOUS
 70
0
 66
1
  0
VERTEX
 10
62.500000
 20
125.200000
  8
29
 62
7
  6
CONTINUOUS
  0
VERTEX
 10
62.500000
 20
126.300000
  8
29
 62
7
  6
CONTINUOUS
  0
SEQEND
  0
POLYLINE
  8
29
 62
7
  6
CONTINUOUS
 70
0
 66
1
  0
VERTEX
 10
64.300000
 20
125.200000
  8
29
 62
7
  6
CONTINUOUS
  0
VERTEX
 10
64.300000
 20
126.300000
  8
29
 62
7
  6
CONTINUOUS
  0
SEQEND
  0
POLYLINE
  8
29
 62
7
  6
CONTINUOUS
 70
0
 66
1
  0
VERTEX
 10
66.100000
 20
125.200000
  8
29
 62
7
  6
CONTINUOUS
  0
VERTEX
 10
66.100000
 20
126.300000
  8
29
 62
7
  6
CONTINUOUS
  0
SEQEND
  0
POLYLINE
  8
29
 62
7
  6
CONTINUOUS
 70
0
 66
1
  0
VERTEX
 10
67.900000
 20
125.200000
  8
29
 62
7
  6
CONTINUOUS
  0
VERTEX
 10
67.900000
 20
126.300000
  8
29
 62
7
  6
CONTINUOUS
  0
SEQEND
  0
POLYLINE
  8
29
 62
7
  6
CONTINUOUS
 70
0
 66
1
  0
VERTEX
 10
69.700000
 20
125.200000
  8
29
 62
7
  6
CONTINUOUS
  0
VERTEX
 10
69.700000
 20
126.300000
  8
29
 62
7
  6
CONTINUOUS
  0
SEQEND
  0
POLYLINE
  8
29
 62
7
  6
CONTINUOUS
 70
0
 66
1
  0
VERTEX
 10
71.500000
 20
125.200000
  8
29
 62
7
  6
CONTINUOUS
  0
VERTEX
 10
71.500000
 20
126.300000
  8
29
 62
7
  6
CONTINUOUS
  0
SEQEND
  0
TEXT
  8
29
 62
7
  6
CONTINUOUS
 10
62.500000
 20
118.333333
 40
5.000000
  1
zRFZ
 50
0.000000
 51
0.000000
 72
1
 73
0
 11
62.500000
 21
118.333333
  0
SOLID
  8
29
 62
255
  6
CONTINUOUS
 10
74.800000
 20
135.200000
 11
74.800000
 21
179.800000
 12
50.200000
 22
135.200000
 13
50.200000
 23
179.800000
  0
POLYLINE
  8
29
 62
7
  6
CONTINUOUS
 70
1
 66
1
  0
VERTEX
 10
74.800000
 20
135.200000
 30
0.000000
  8
29
 62
7
  6
CONTINUOUS
  0
VERTEX
 10
74.800000
 20
179.800000
 30
0.000000
  8
29
 62
7
  6
CONTINUOUS
  0
VERTEX
 10
50.200000
 20
179.800000
 30
0.000000
  8
29
 62
7
  6
CONTINUOUS
  0
VERTEX
 10
50.200000
 20
135.200000
 30
0.000000
  8
29
 62
7
  6
CONTINUOUS
  0
SEQEND
  0
CIRCLE
  8
29
 62
7
  6
CONTINUOUS
 10
51.000000
 20
159.900000
 30
0.0
 40
0.300000
  0
CIRCLE
  8
29
 62
7
  6
CONTINUOUS
 10
51.000000
 20
161.100000
 30
0.0
 40
0.300000
  0
CIRCLE
  8
29
 62
7
  6
CONTINUOUS
 10
51.000000
 20
160.500000
 30
0.0
 40
0.500000
  0
CIRCLE
  8
29
 62
7
  6
CONTINUOUS
 10
51.000000
 20
157.400000
 30
0.0
 40
0.300000
  0
CIRCLE
  8
29
 62
7
  6
CONTINUOUS
 10
51.000000
 20
158.600000
 30
0.0
 40
0.300000
  0
CIRCLE
  8
29
 62
7
  6
CONTINUOUS
 10
51.000000
 20
158.000000
 30
0.0
 40
0.500000
  0
CIRCLE
  8
29
 62
7
  6
CONTINUOUS
 10
51.000000
 20
154.900000
 30
0.0
 40
0.300000
  0
CIRCLE
  8
29
 62
7
  6
CONTINUOUS
 10
51.000000
 20
156.100000
 30
0.0
 40
0.300000
  0
CIRCLE
  8
29
 62
7
  6
CONTINUOUS
 10
51.000000
 20
155.500000
 30
0.0
 40
0.500000
  0
CIRCLE
  8
29
 62
7
  6
CONTINUOUS
 10
51.000000
 20
153.700000
 30
0.0
 40
0.300000
  0
POLYLINE
  8
29
 62
7
  6
CONTINUOUS
 70
1
 66
1
  0
VERTEX
 10
74.800000
 20
161.900000
 30
0.000000
  8
29
 62
7
  6
CONTINUOUS
  0
VERTEX
 10
74.800000
 20
153.300000
 30
0.000000
  8
29
 62
7
  6
CONTINUOUS
  0
VERTEX
 10
50.200000
 20
153.300000
 30
0.000000
  8
29
 62
7
  6
CONTINUOUS
  0
VERTEX
 10
50.200000
 20
161.900000
 30
0.000000
  8
29
 62
7
  6
CONTINUOUS
  0
SEQEND
  0
CIRCLE
  8
29
 62
7
  6
CONTINUOUS
 10
74.000000
 20
159.900000
 30
0.0
 40
0.300000
  0
CIRCLE
  8
29
 62
7
  6
CONTINUOUS
 10
74.000000
 20
161.100000
 30
0.0
 40
0.300000
  0
CIRCLE
  8
29
 62
7
  6
CONTINUOUS
 10
74.000000
 20
160.500000
 30
0.0
 40
0.500000
  0
CIRCLE
  8
29
 62
7
  6
CONTINUOUS
 10
74.000000
 20
157.400000
 30
0.0
 40
0.300000
  0
CIRCLE
  8
29
 62
7
  6
CONTINUOUS
 10
74.000000
 20
158.600000
 30
0.0
 40
0.300000
  0
CIRCLE
  8
29
 62
7
  6
CONTINUOUS
 10
74.000000
 20
158.000000
 30
0.0
 40
0.500000
  0
CIRCLE
  8
29
 62
7
  6
CONTINUOUS
 10
74.000000
 20
154.900000
 30
0.0
 40
0.300000
  0
CIRCLE
  8
29
 62
7
  6
CONTINUOUS
 10
74.000000
 20
156.100000
 30
0.0
 40
0.300000
  0
CIRCLE
  8
29
 62
7
  6
CONTINUOUS
 10
74.000000
 20
155.500000
 30
0.0
 40
0.500000
  0
CIRCLE
  8
29
 62
7
  6
CONTINUOUS
 10
74.000000
 20
153.700000
 30
0.0
 40
0.300000
  0
CIRCLE
  8
29
 62
7
  6
CONTINUOUS
 10
51.000000
 20
159.900000
 30
0.0
 40
0.300000
  0
CIRCLE
  8
29
 62
7
  6
CONTINUOUS
 10
51.000000
 20
161.100000
 30
0.0
 40
0.300000
  0
CIRCLE
  8
29
 62
7
  6
CONTINUOUS
 10
51.000000
 20
160.500000
 30
0.0
 40
0.500000
  0
CIRCLE
  8
29
 62
7
  6
CONTINUOUS
 10
51.000000
 20
157.400000
 30
0.0
 40
0.300000
  0
CIRCLE
  8
29
 62
7
  6
CONTINUOUS
 10
51.000000
 20
158.600000
 30
0.0
 40
0.300000
  0
CIRCLE
  8
29
 62
7
  6
CONTINUOUS
 10
51.000000
 20
158.000000
 30
0.0
 40
0.500000
  0
CIRCLE
  8
29
 62
7
  6
CONTINUOUS
 10
51.000000
 20
154.900000
 30
0.0
 40
0.300000
  0
CIRCLE
  8
29
 62
7
  6
CONTINUOUS
 10
51.000000
 20
156.100000
 30
0.0
 40
0.300000
  0
CIRCLE
  8
29
 62
7
  6
CONTINUOUS
 10
51.000000
 20
155.500000
 30
0.0
 40
0.500000
  0
CIRCLE
  8
29
 62
7
  6
CONTINUOUS
 10
51.000000
 20
153.700000
 30
0.0
 40
0.300000
  0
CIRCLE
  8
29
 62
7
  6
CONTINUOUS
 10
51.000000
 20
172.500000
 30
0.0
 40
0.300000
  0
CIRCLE
  8
29
 62
7
  6
CONTINUOUS
 10
51.000000
 20
173.700000
 30
0.0
 40
0.300000
  0
CIRCLE
  8
29
 62
7
  6
CONTINUOUS
 10
51.000000
 20
173.100000
 30
0.0
 40
0.500000
  0
CIRCLE
  8
29
 62
7
  6
CONTINUOUS
 10
51.000000
 20
170.000000
 30
0.0
 40
0.300000
  0
CIRCLE
  8
29
 62
7
  6
CONTINUOUS
 10
51.000000
 20
171.200000
 30
0.0
 40
0.300000
  0
CIRCLE
  8
29
 62
7
  6
CONTINUOUS
 10
51.000000
 20
170.600000
 30
0.0
 40
0.500000
  0
CIRCLE
  8
29
 62
7
  6
CONTINUOUS
 10
51.000000
 20
167.500000
 30
0.0
 40
0.300000
  0
CIRCLE
  8
29
 62
7
  6
CONTINUOUS
 10
51.000000
 20
168.700000
 30
0.0
 40
0.300000
  0
CIRCLE
  8
29
 62
7
  6
CONTINUOUS
 10
51.000000
 20
168.100000
 30
0.0
 40
0.500000
  0
CIRCLE
  8
29
 62
7
  6
CONTINUOUS
 10
51.000000
 20
166.300000
 30
0.0
 40
0.300000
  0
POLYLINE
  8
29
 62
7
  6
CONTINUOUS
 70
1
 66
1
  0
VERTEX
 10
74.800000
 20
174.500000
 30
0.000000
  8
29
 62
7
  6
CONTINUOUS
  0
VERTEX
 10
74.800000
 20
165.900000
 30
0.000000
  8
29
 62
7
  6
CONTINUOUS
  0
VERTEX
 10
50.200000
 20
165.900000
 30
0.000000
  8
29
 62
7
  6
CONTINUOUS
  0
VERTEX
 10
50.200000
 20
174.500000
 30
0.000000
  8
29
 62
7
  6
CONTINUOUS
  0
SEQEND
  0
CIRCLE
  8
29
 62
7
  6
CONTINUOUS
 10
74.000000
 20
172.500000
 30
0.0
 40
0.300000
  0
CIRCLE
  8
29
 62
7
  6
CONTINUOUS
 10
74.000000
 20
173.700000
 30
0.0
 40
0.300000
  0
CIRCLE
  8
29
 62
7
  6
CONTINUOUS
 10
74.000000
 20
173.100000
 30
0.0
 40
0.500000
  0
CIRCLE
  8
29
 62
7
  6
CONTINUOUS
 10
74.000000
 20
170.000000
 30
0.0
 40
0.300000
  0
CIRCLE
  8
29
 62
7
  6
CONTINUOUS
 10
74.000000
 20
171.200000
 30
0.0
 40
0.300000
  0
CIRCLE
  8
29
 62
7
  6
CONTINUOUS
 10
74.000000
 20
170.600000
 30
0.0
 40
0.500000
  0
CIRCLE
  8
29
 62
7
  6
CONTINUOUS
 10
74.000000
 20
167.500000
 30
0.0
 40
0.300000
  0
CIRCLE
  8
29
 62
7
  6
CONTINUOUS
 10
74.000000
 20
168.700000
 30
0.0
 40
0.300000
  0
CIRCLE
  8
29
 62
7
  6
CONTINUOUS
 10
74.000000
 20
168.100000
 30
0.0
 40
0.500000
  0
CIRCLE
  8
29
 62
7
  6
CONTINUOUS
 10
74.000000
 20
166.300000
 30
0.0
 40
0.300000
  0
CIRCLE
  8
29
 62
7
  6
CONTINUOUS
 10
51.000000
 20
172.500000
 30
0.0
 40
0.300000
  0
CIRCLE
  8
29
 62
7
  6
CONTINUOUS
 10
51.000000
 20
173.700000
 30
0.0
 40
0.300000
  0
CIRCLE
  8
29
 62
7
  6
CONTINUOUS
 10
51.000000
 20
173.100000
 30
0.0
 40
0.500000
  0
CIRCLE
  8
29
 62
7
  6
CONTINUOUS
 10
51.000000
 20
170.000000
 30
0.0
 40
0.300000
  0
CIRCLE
  8
29
 62
7
  6
CONTINUOUS
 10
51.000000
 20
171.200000
 30
0.0
 40
0.300000
  0
CIRCLE
  8
29
 62
7
  6
CONTINUOUS
 10
51.000000
 20
170.600000
 30
0.0
 40
0.500000
  0
CIRCLE
  8
29
 62
7
  6
CONTINUOUS
 10
51.000000
 20
167.500000
 30
0.0
 40
0.300000
  0
CIRCLE
  8
29
 62
7
  6
CONTINUOUS
 10
51.000000
 20
168.700000
 30
0.0
 40
0.300000
  0
CIRCLE
  8
29
 62
7
  6
CONTINUOUS
 10
51.000000
 20
168.100000
 30
0.0
 40
0.500000
  0
CIRCLE
  8
29
 62
7
  6
CONTINUOUS
 10
51.000000
 20
166.300000
 30
0.0
 40
0.300000
  0
CIRCLE
  8
29
 62
7
  6
CONTINUOUS
 10
51.000000
 20
146.500000
 30
0.0
 40
0.300000
  0
CIRCLE
  8
29
 62
7
  6
CONTINUOUS
 10
51.000000
 20
145.300000
 30
0.0
 40
0.300000
  0
CIRCLE
  8
29
 62
7
  6
CONTINUOUS
 10
51.000000
 20
145.900000
 30
0.0
 40
0.500000
  0
CIRCLE
  8
29
 62
7
  6
CONTINUOUS
 10
51.000000
 20
149.000000
 30
0.0
 40
0.300000
  0
CIRCLE
  8
29
 62
7
  6
CONTINUOUS
 10
51.000000
 20
147.800000
 30
0.0
 40
0.300000
  0
CIRCLE
  8
29
 62
7
  6
CONTINUOUS
 10
51.000000
 20
148.400000
 30
0.0
 40
0.500000
  0
CIRCLE
  8
29
 62
7
  6
CONTINUOUS
 10
51.000000
 20
151.500000
 30
0.0
 40
0.300000
  0
CIRCLE
  8
29
 62
7
  6
CONTINUOUS
 10
51.000000
 20
150.300000
 30
0.0
 40
0.300000
  0
CIRCLE
  8
29
 62
7
  6
CONTINUOUS
 10
51.000000
 20
150.900000
 30
0.0
 40
0.500000
  0
CIRCLE
  8
29
 62
7
  6
CONTINUOUS
 10
51.000000
 20
152.700000
 30
0.0
 40
0.300000
  0
POLYLINE
  8
29
 62
7
  6
CONTINUOUS
 70
1
 66
1
  0
VERTEX
 10
74.800000
 20
144.500000
 30
0.000000
  8
29
 62
7
  6
CONTINUOUS
  0
VERTEX
 10
74.800000
 20
153.100000
 30
0.000000
  8
29
 62
7
  6
CONTINUOUS
  0
VERTEX
 10
50.200000
 20
153.100000
 30
0.000000
  8
29
 62
7
  6
CONTINUOUS
  0
VERTEX
 10
50.200000
 20
144.500000
 30
0.000000
  8
29
 62
7
  6
CONTINUOUS
  0
SEQEND
  0
CIRCLE
  8
29
 62
7
  6
CONTINUOUS
 10
74.000000
 20
146.500000
 30
0.0
 40
0.300000
  0
CIRCLE
  8
29
 62
7
  6
CONTINUOUS
 10
74.000000
 20
145.300000
 30
0.0
 40
0.300000
  0
CIRCLE
  8
29
 62
7
  6
CONTINUOUS
 10
74.000000
 20
145.900000
 30
0.0
 40
0.500000
  0
CIRCLE
  8
29
 62
7
  6
CONTINUOUS
 10
74.000000
 20
149.000000
 30
0.0
 40
0.300000
  0
CIRCLE
  8
29
 62
7
  6
CONTINUOUS
 10
74.000000
 20
147.800000
 30
0.0
 40
0.300000
  0
CIRCLE
  8
29
 62
7
  6
CONTINUOUS
 10
74.000000
 20
148.400000
 30
0.0
 40
0.500000
  0
CIRCLE
  8
29
 62
7
  6
CONTINUOUS
 10
74.000000
 20
151.500000
 30
0.0
 40
0.300000
  0
CIRCLE
  8
29
 62
7
  6
CONTINUOUS
 10
74.000000
 20
150.300000
 30
0.0
 40
0.300000
  0
CIRCLE
  8
29
 62
7
  6
CONTINUOUS
 10
74.000000
 20
150.900000
 30
0.0
 40
0.500000
  0
CIRCLE
  8
29
 62
7
  6
CONTINUOUS
 10
74.000000
 20
152.700000
 30
0.0
 40
0.300000
  0
CIRCLE
  8
29
 62
7
  6
CONTINUOUS
 10
51.000000
 20
146.500000
 30
0.0
 40
0.300000
  0
CIRCLE
  8
29
 62
7
  6
CONTINUOUS
 10
51.000000
 20
145.300000
 30
0.0
 40
0.300000
  0
CIRCLE
  8
29
 62
7
  6
CONTINUOUS
 10
51.000000
 20
145.900000
 30
0.0
 40
0.500000
  0
CIRCLE
  8
29
 62
7
  6
CONTINUOUS
 10
51.000000
 20
149.000000
 30
0.0
 40
0.300000
  0
CIRCLE
  8
29
 62
7
  6
CONTINUOUS
 10
51.000000
 20
147.800000
 30
0.0
 40
0.300000
  0
CIRCLE
  8
29
 62
7
  6
CONTINUOUS
 10
51.000000
 20
148.400000
 30
0.0
 40
0.500000
  0
CIRCLE
  8
29
 62
7
  6
CONTINUOUS
 10
51.000000
 20
151.500000
 30
0.0
 40
0.300000
  0
CIRCLE
  8
29
 62
7
  6
CONTINUOUS
 10
51.000000
 20
150.300000
 30
0.0
 40
0.300000
  0
CIRCLE
  8
29
 62
7
  6
CONTINUOUS
 10
51.000000
 20
150.900000
 30
0.0
 40
0.500000
  0
CIRCLE
  8
29
 62
7
  6
CONTINUOUS
 10
51.000000
 20
152.700000
 30
0.0
 40
0.300000
  0
POLYLINE
  8
29
 62
7
  6
CONTINUOUS
 70
0
 66
1
  0
VERTEX
 10
50.400000
 20
141.300000
  8
29
 62
7
  6
CONTINUOUS
  0
VERTEX
 10
74.600000
 20
141.300000
  8
29
 62
7
  6
CONTINUOUS
  0
SEQEND
  0
POLYLINE
  8
29
 62
7
  6
CONTINUOUS
 70
0
 66
1
  0
VERTEX
 10
50.400000
 20
143.800000
  8
29
 62
7
  6
CONTINUOUS
  0
VERTEX
 10
74.600000
 20
143.800000
  8
29
 62
7
  6
CONTINUOUS
  0
SEQEND
  0
POLYLINE
  8
29
 62
7
  6
CONTINUOUS
 70
1
 66
1
  0
VERTEX
 10
74.600000
 20
140.800000
 30
0.000000
  8
29
 62
7
  6
CONTINUOUS
  0
VERTEX
 10
74.600000
 20
144.300000
 30
0.000000
  8
29
 62
7
  6
CONTINUOUS
  0
VERTEX
 10
50.400000
 20
144.300000
 30
0.000000
  8
29
 62
7
  6
CONTINUOUS
  0
VERTEX
 10
50.400000
 20
140.800000
 30
0.000000
  8
29
 62
7
  6
CONTINUOUS
  0
SEQEND
  0
POLYLINE
  8
29
 62
7
  6
CONTINUOUS
 70
0
 66
1
  0
VERTEX
 10
50.400000
 20
162.600000
  8
29
 62
7
  6
CONTINUOUS
  0
VERTEX
 10
74.600000
 20
162.600000
  8
29
 62
7
  6
CONTINUOUS
  0
SEQEND
  0
POLYLINE
  8
29
 62
7
  6
CONTINUOUS
 70
0
 66
1
  0
VERTEX
 10
50.400000
 20
165.100000
  8
29
 62
7
  6
CONTINUOUS
  0
VERTEX
 10
74.600000
 20
165.100000
  8
29
 62
7
  6
CONTINUOUS
  0
SEQEND
  0
POLYLINE
  8
29
 62
7
  6
CONTINUOUS
 70
1
 66
1
  0
VERTEX
 10
74.600000
 20
162.100000
 30
0.000000
  8
29
 62
7
  6
CONTINUOUS
  0
VERTEX
 10
74.600000
 20
165.600000
 30
0.000000
  8
29
 62
7
  6
CONTINUOUS
  0
VERTEX
 10
50.400000
 20
165.600000
 30
0.000000
  8
29
 62
7
  6
CONTINUOUS
  0
VERTEX
 10
50.400000
 20
162.100000
 30
0.000000
  8
29
 62
7
  6
CONTINUOUS
  0
SEQEND
  0
TEXT
  8
29
 62
7
  6
CONTINUOUS
 10
62.500000
 20
154.333333
 40
5.000000
  1
APZ
 50
0.000000
 51
0.000000
 72
1
 73
0
 11
62.500000
 21
154.333333
  0
CIRCLE
  8
29
 62
7
  6
CONTINUOUS
 10
37.500000
 20
134.500000
 30
0.0
 40
0.300000
  0
POLYLINE
  8
29
 62
7
  6
CONTINUOUS
 70
1
 66
1
  0
VERTEX
 10
44.000000
 20
133.000000
 30
0.000000
  8
29
 62
7
  6
CONTINUOUS
  0
VERTEX
 10
44.000000
 20
129.000000
 30
0.000000
  8
29
 62
7
  6
CONTINUOUS
  0
VERTEX
 10
31.000000
 20
129.000000
 30
0.000000
  8
29
 62
7
  6
CONTINUOUS
  0
VERTEX
 10
31.000000
 20
133.000000
 30
0.000000
  8
29
 62
7
  6
CONTINUOUS
  0
SEQEND
  0
POLYLINE
  8
29
 62
7
  6
CONTINUOUS
 70
1
 66
1
  0
VERTEX
 10
41.500000
 20
130.400000
 30
0.000000
  8
29
 62
7
  6
CONTINUOUS
  0
VERTEX
 10
41.500000
 20
133.000000
 30
0.000000
  8
29
 62
7
  6
CONTINUOUS
  0
VERTEX
 10
33.500000
 20
133.000000
 30
0.000000
  8
29
 62
7
  6
CONTINUOUS
  0
VERTEX
 10
33.500000
 20
130.400000
 30
0.000000
  8
29
 62
7
  6
CONTINUOUS
  0
SEQEND
  0
CIRCLE
  8
29
 62
7
  6
CONTINUOUS
 10
12.500000
 20
134.500000
 30
0.0
 40
0.300000
  0
POLYLINE
  8
29
 62
7
  6
CONTINUOUS
 70
1
 66
1
  0
VERTEX
 10
19.000000
 20
133.000000
 30
0.000000
  8
29
 62
7
  6
CONTINUOUS
  0
VERTEX
 10
19.000000
 20
129.000000
 30
0.000000
  8
29
 62
7
  6
CONTINUOUS
  0
VERTEX
 10
6.000000
 20
129.000000
 30
0.000000
  8
29
 62
7
  6
CONTINUOUS
  0
VERTEX
 10
6.000000
 20
133.000000
 30
0.000000
  8
29
 62
7
  6
CONTINUOUS
  0
SEQEND
  0
POLYLINE
  8
29
 62
7
  6
CONTINUOUS
 70
1
 66
1
  0
VERTEX
 10
16.500000
 20
130.400000
 30
0.000000
  8
29
 62
7
  6
CONTINUOUS
  0
VERTEX
 10
16.500000
 20
133.000000
 30
0.000000
  8
29
 62
7
  6
CONTINUOUS
  0
VERTEX
 10
8.500000
 20
133.000000
 30
0.000000
  8
29
 62
7
  6
CONTINUOUS
  0
VERTEX
 10
8.500000
 20
130.400000
 30
0.000000
  8
29
 62
7
  6
CONTINUOUS
  0
SEQEND
  0
TEXT
  8
29
 62
7
  6
L014100020032000000
 10
25.000000
 20
161.166667
 40
4.000000
  1
WZ
 50
0.000000
 51
0.000000
 72
0
 73
0
  0
TEXT
  8
29
 62
7
  6
L014100020032000000
 10
0.000000
 20
161.166667
 40
4.000000
  1
SG
 50
0.000000
 51
0.000000
 72
0
 73
0
  0
SOLID
  8
29
 62
255
  6
CONTINUOUS
 10
74.800000
 20
104.800000
 11
74.800000
 21
0.200000
 12
0.200000
 22
104.800000
 13
0.200000
 23
0.200000
  0
POLYLINE
  8
29
 62
7
  6
CONTINUOUS
 70
1
 66
1
  0
VERTEX
 10
74.800000
 20
104.800000
 30
0.000000
  8
29
 62
7
  6
CONTINUOUS
  0
VERTEX
 10
74.800000
 20
0.200000
 30
0.000000
  8
29
 62
7
  6
CONTINUOUS
  0
VERTEX
 10
0.200000
 20
0.200000
 30
0.000000
  8
29
 62
7
  6
CONTINUOUS
  0
VERTEX
 10
0.200000
 20
104.800000
 30
0.000000
  8
29
 62
7
  6
CONTINUOUS
  0
SEQEND
  0
LINE
  8
29
 62
7
  6
CONTINUOUS
 10
50.000000
 20
0.200000
 11
50.000000
 21
104.800000
  0
LINE
  8
29
 62
7
  6
CONTINUOUS
 10
25.000000
 20
0.200000
 11
25.000000
 21
104.800000
  0
LINE
  8
29
 62
7
  6
CONTINUOUS
 10
74.800000
 20
30.000000
 11
0.200000
 21
30.000000
  0
SOLID
  8
56
 62
255
  6
CONTINUOUS
 10
74.500000
 20
90.100000
 11
74.500000
 21
93.100000
 12
42.000000
 22
90.100000
 13
42.000000
 23
93.100000
  0
POLYLINE
  8
56
 62
7
  6
CONTINUOUS
 70
1
 66
1
  0
VERTEX
 10
74.500000
 20
90.100000
 30
0.000000
  8
56
 62
7
  6
CONTINUOUS
  0
VERTEX
 10
74.500000
 20
93.100000
 30
0.000000
  8
56
 62
7
  6
CONTINUOUS
  0
VERTEX
 10
42.000000
 20
93.100000
 30
0.000000
  8
56
 62
7
  6
CONTINUOUS
  0
VERTEX
 10
42.000000
 20
90.100000
 30
0.000000
  8
56
 62
7
  6
CONTINUOUS
  0
SEQEND
  0
SOLID
  8
56
 62
255
  6
CONTINUOUS
 10
33.000000
 20
90.100000
 11
33.000000
 21
93.100000
 12
0.500000
 22
90.100000
 13
0.500000
 23
93.100000
  0
POLYLINE
  8
56
 62
7
  6
CONTINUOUS
 70
1
 66
1
  0
VERTEX
 10
33.000000
 20
90.100000
 30
0.000000
  8
56
 62
7
  6
CONTINUOUS
  0
VERTEX
 10
33.000000
 20
93.100000
 30
0.000000
  8
56
 62
7
  6
CONTINUOUS
  0
VERTEX
 10
0.500000
 20
93.100000
 30
0.000000
  8
56
 62
7
  6
CONTINUOUS
  0
VERTEX
 10
0.500000
 20
90.100000
 30
0.000000
  8
56
 62
7
  6
CONTINUOUS
  0
SEQEND
  0
SOLID
  8
56
 62
255
  6
CONTINUOUS
 10
46.000000
 20
89.600000
 11
46.000000
 21
93.600000
 12
29.100000
 22
89.600000
 13
29.100000
 23
93.600000
  0
POLYLINE
  8
56
 62
7
  6
CONTINUOUS
 70
1
 66
1
  0
VERTEX
 10
46.000000
 20
89.600000
 30
0.000000
  8
56
 62
7
  6
CONTINUOUS
  0
VERTEX
 10
46.000000
 20
93.600000
 30
0.000000
  8
56
 62
7
  6
CONTINUOUS
  0
VERTEX
 10
29.100000
 20
93.600000
 30
0.000000
  8
56
 62
7
  6
CONTINUOUS
  0
VERTEX
 10
29.100000
 20
89.600000
 30
0.000000
  8
56
 62
7
  6
CONTINUOUS
  0
SEQEND
  0
CIRCLE
  8
56
 62
7
  6
CONTINUOUS
 10
31.000000
 20
91.600000
 30
0.0
 40
0.700000
  0
CIRCLE
  8
56
 62
7
  6
CONTINUOUS
 10
44.000000
 20
91.600000
 30
0.0
 40
0.700000
  0
CIRCLE
  8
56
 62
7
  6
CONTINUOUS
 10
47.000000
 20
91.600000
 30
0.0
 40
0.700000
  0
CIRCLE
  8
56
 62
7
  6
CONTINUOUS
 10
28.000000
 20
91.600000
 30
0.0
 40
0.700000
  0
CIRCLE
  8
56
 62
7
  6
CONTINUOUS
 10
31.000000
 20
91.600000
 30
0.0
 40
0.700000
  0
SOLID
  8
56
 62
255
  6
CONTINUOUS
 10
33.000000
 20
71.500000
 11
33.000000
 21
74.500000
 12
0.500000
 22
71.500000
 13
0.500000
 23
74.500000
  0
POLYLINE
  8
56
 62
7
  6
CONTINUOUS
 70
1
 66
1
  0
VERTEX
 10
33.000000
 20
71.500000
 30
0.000000
  8
56
 62
7
  6
CONTINUOUS
  0
VERTEX
 10
33.000000
 20
74.500000
 30
0.000000
  8
56
 62
7
  6
CONTINUOUS
  0
VERTEX
 10
0.500000
 20
74.500000
 30
0.000000
  8
56
 62
7
  6
CONTINUOUS
  0
VERTEX
 10
0.500000
 20
71.500000
 30
0.000000
  8
56
 62
7
  6
CONTINUOUS
  0
SEQEND
  0
SOLID
  8
56
 62
255
  6
CONTINUOUS
 10
74.500000
 20
71.500000
 11
74.500000
 21
74.500000
 12
42.000000
 22
71.500000
 13
42.000000
 23
74.500000
  0
POLYLINE
  8
56
 62
7
  6
CONTINUOUS
 70
1
 66
1
  0
VERTEX
 10
74.500000
 20
71.500000
 30
0.000000
  8
56
 62
7
  6
CONTINUOUS
  0
VERTEX
 10
74.500000
 20
74.500000
 30
0.000000
  8
56
 62
7
  6
CONTINUOUS
  0
VERTEX
 10
42.000000
 20
74.500000
 30
0.000000
  8
56
 62
7
  6
CONTINUOUS
  0
VERTEX
 10
42.000000
 20
71.500000
 30
0.000000
  8
56
 62
7
  6
CONTINUOUS
  0
SEQEND
  0
SOLID
  8
56
 62
255
  6
CONTINUOUS
 10
46.000000
 20
71.000000
 11
46.000000
 21
74.900000
 12
29.000000
 22
71.000000
 13
29.000000
 23
74.900000
  0
POLYLINE
  8
56
 62
7
  6
CONTINUOUS
 70
1
 66
1
  0
VERTEX
 10
46.000000
 20
71.000000
 30
0.000000
  8
56
 62
7
  6
CONTINUOUS
  0
VERTEX
 10
46.000000
 20
74.900000
 30
0.000000
  8
56
 62
7
  6
CONTINUOUS
  0
VERTEX
 10
29.000000
 20
74.900000
 30
0.000000
  8
56
 62
7
  6
CONTINUOUS
  0
VERTEX
 10
29.000000
 20
71.000000
 30
0.000000
  8
56
 62
7
  6
CONTINUOUS
  0
SEQEND
  0
CIRCLE
  8
56
 62
7
  6
CONTINUOUS
 10
31.000000
 20
73.000000
 30
0.0
 40
0.700000
  0
CIRCLE
  8
56
 62
7
  6
CONTINUOUS
 10
44.000000
 20
73.000000
 30
0.0
 40
0.700000
  0
CIRCLE
  8
56
 62
7
  6
CONTINUOUS
 10
47.000000
 20
73.000000
 30
0.0
 40
0.700000
  0
CIRCLE
  8
56
 62
7
  6
CONTINUOUS
 10
28.000000
 20
73.000000
 30
0.0
 40
0.700000
  0
CIRCLE
  8
56
 62
7
  6
CONTINUOUS
 10
7.500000
 20
91.600000
 30
0.0
 40
0.700000
  0
CIRCLE
  8
56
 62
7
  6
CONTINUOUS
 10
17.500000
 20
91.600000
 30
0.0
 40
0.700000
  0
CIRCLE
  8
56
 62
7
  6
CONTINUOUS
 10
7.500000
 20
73.100000
 30
0.0
 40
0.700000
  0
CIRCLE
  8
56
 62
7
  6
CONTINUOUS
 10
17.500000
 20
73.100000
 30
0.0
 40
0.700000
  0
SOLID
  8
56
 62
255
  6
CONTINUOUS
 10
74.500000
 20
23.500000
 11
74.500000
 21
26.500000
 12
0.500000
 22
23.500000
 13
0.500000
 23
26.500000
  0
POLYLINE
  8
56
 62
7
  6
CONTINUOUS
 70
1
 66
1
  0
VERTEX
 10
74.500000
 20
23.500000
 30
0.000000
  8
56
 62
7
  6
CONTINUOUS
  0
VERTEX
 10
74.500000
 20
26.500000
 30
0.000000
  8
56
 62
7
  6
CONTINUOUS
  0
VERTEX
 10
0.500000
 20
26.500000
 30
0.000000
  8
56
 62
7
  6
CONTINUOUS
  0
VERTEX
 10
0.500000
 20
23.500000
 30
0.000000
  8
56
 62
7
  6
CONTINUOUS
  0
SEQEND
  0
SOLID
  8
56
 62
255
  6
CONTINUOUS
 10
74.500000
 20
8.500000
 11
74.500000
 21
11.500000
 12
0.500000
 22
8.500000
 13
0.500000
 23
11.500000
  0
POLYLINE
  8
56
 62
7
  6
CONTINUOUS
 70
1
 66
1
  0
VERTEX
 10
74.500000
 20
8.500000
 30
0.000000
  8
56
 62
7
  6
CONTINUOUS
  0
VERTEX
 10
74.500000
 20
11.500000
 30
0.000000
  8
56
 62
7
  6
CONTINUOUS
  0
VERTEX
 10
0.500000
 20
11.500000
 30
0.000000
  8
56
 62
7
  6
CONTINUOUS
  0
VERTEX
 10
0.500000
 20
8.500000
 30
0.000000
  8
56
 62
7
  6
CONTINUOUS
  0
SEQEND
  0
CIRCLE
  8
56
 62
7
  6
CONTINUOUS
 10
5.000000
 20
91.600000
 30
0.0
 40
0.500000
  0
CIRCLE
  8
56
 62
7
  6
CONTINUOUS
 10
10.000000
 20
91.600000
 30
0.0
 40
0.500000
  0
CIRCLE
  8
56
 62
7
  6
CONTINUOUS
 10
15.000000
 20
91.600000
 30
0.0
 40
0.500000
  0
CIRCLE
  8
56
 62
7
  6
CONTINUOUS
 10
20.000000
 20
91.600000
 30
0.0
 40
0.500000
  0
CIRCLE
  8
56
 62
7
  6
CONTINUOUS
 10
12.500000
 20
91.600000
 30
0.0
 40
0.600000
  0
CIRCLE
  8
56
 62
7
  6
CONTINUOUS
 10
12.500000
 20
91.600000
 30
0.0
 40
1.100000
  0
CIRCLE
  8
56
 62
7
  6
CONTINUOUS
 10
5.000000
 20
73.100000
 30
0.0
 40
0.500000
  0
CIRCLE
  8
56
 62
7
  6
CONTINUOUS
 10
10.000000
 20
73.100000
 30
0.0
 40
0.500000
  0
CIRCLE
  8
56
 62
7
  6
CONTINUOUS
 10
15.000000
 20
73.100000
 30
0.0
 40
0.500000
  0
CIRCLE
  8
56
 62
7
  6
CONTINUOUS
 10
20.000000
 20
73.100000
 30
0.0
 40
0.500000
  0
CIRCLE
  8
56
 62
7
  6
CONTINUOUS
 10
12.500000
 20
73.100000
 30
0.0
 40
0.600000
  0
CIRCLE
  8
56
 62
7
  6
CONTINUOUS
 10
12.500000
 20
73.100000
 30
0.0
 40
1.100000
  0
SOLID
  8
56
 62
255
  6
CONTINUOUS
 10
68.600000
 20
53.000000
 11
68.600000
 21
62.800000
 12
65.600000
 22
53.000000
 13
65.600000
 23
62.800000
  0
POLYLINE
  8
56
 62
7
  6
CONTINUOUS
 70
1
 66
1
  0
VERTEX
 10
68.600000
 20
53.000000
 30
0.000000
  8
56
 62
7
  6
CONTINUOUS
  0
VERTEX
 10
68.600000
 20
62.800000
 30
0.000000
  8
56
 62
7
  6
CONTINUOUS
  0
VERTEX
 10
65.600000
 20
62.800000
 30
0.000000
  8
56
 62
7
  6
CONTINUOUS
  0
VERTEX
 10
65.600000
 20
53.000000
 30
0.000000
  8
56
 62
7
  6
CONTINUOUS
  0
SEQEND
  0
SOLID
  8
56
 62
255
  6
CONTINUOUS
 10
33.000000
 20
53.000000
 11
33.000000
 21
56.000000
 12
0.500000
 22
53.000000
 13
0.500000
 23
56.000000
  0
POLYLINE
  8
56
 62
7
  6
CONTINUOUS
 70
1
 66
1
  0
VERTEX
 10
33.000000
 20
53.000000
 30
0.000000
  8
56
 62
7
  6
CONTINUOUS
  0
VERTEX
 10
33.000000
 20
56.000000
 30
0.000000
  8
56
 62
7
  6
CONTINUOUS
  0
VERTEX
 10
0.500000
 20
56.000000
 30
0.000000
  8
56
 62
7
  6
CONTINUOUS
  0
VERTEX
 10
0.500000
 20
53.000000
 30
0.000000
  8
56
 62
7
  6
CONTINUOUS
  0
SEQEND
  0
SOLID
  8
56
 62
255
  6
CONTINUOUS
 10
74.500000
 20
53.000000
 11
74.500000
 21
56.000000
 12
42.000000
 22
53.000000
 13
42.000000
 23
56.000000
  0
POLYLINE
  8
56
 62
7
  6
CONTINUOUS
 70
1
 66
1
  0
VERTEX
 10
74.500000
 20
53.000000
 30
0.000000
  8
56
 62
7
  6
CONTINUOUS
  0
VERTEX
 10
74.500000
 20
56.000000
 30
0.000000
  8
56
 62
7
  6
CONTINUOUS
  0
VERTEX
 10
42.000000
 20
56.000000
 30
0.000000
  8
56
 62
7
  6
CONTINUOUS
  0
VERTEX
 10
42.000000
 20
53.000000
 30
0.000000
  8
56
 62
7
  6
CONTINUOUS
  0
SEQEND
  0
CIRCLE
  8
56
 62
7
  6
CONTINUOUS
 10
7.500000
 20
54.600000
 30
0.0
 40
0.700000
  0
CIRCLE
  8
56
 62
7
  6
CONTINUOUS
 10
17.500000
 20
54.600000
 30
0.0
 40
0.700000
  0
CIRCLE
  8
56
 62
7
  6
CONTINUOUS
 10
5.000000
 20
54.600000
 30
0.0
 40
0.500000
  0
CIRCLE
  8
56
 62
7
  6
CONTINUOUS
 10
10.000000
 20
54.600000
 30
0.0
 40
0.500000
  0
CIRCLE
  8
56
 62
7
  6
CONTINUOUS
 10
15.000000
 20
54.600000
 30
0.0
 40
0.500000
  0
CIRCLE
  8
56
 62
7
  6
CONTINUOUS
 10
20.000000
 20
54.600000
 30
0.0
 40
0.500000
  0
CIRCLE
  8
56
 62
7
  6
CONTINUOUS
 10
12.500000
 20
54.600000
 30
0.0
 40
0.600000
  0
CIRCLE
  8
56
 62
7
  6
CONTINUOUS
 10
12.500000
 20
54.600000
 30
0.0
 40
1.100000
  0
CIRCLE
  8
56
 62
7
  6
CONTINUOUS
 10
55.000000
 20
91.600000
 30
0.0
 40
0.500000
  0
CIRCLE
  8
56
 62
7
  6
CONTINUOUS
 10
70.000000
 20
91.600000
 30
0.0
 40
0.500000
  0
CIRCLE
  8
56
 62
7
  6
CONTINUOUS
 10
55.000000
 20
73.100000
 30
0.0
 40
0.500000
  0
CIRCLE
  8
56
 62
7
  6
CONTINUOUS
 10
70.000000
 20
73.100000
 30
0.0
 40
0.500000
  0
SOLID
  8
56
 62
255
  6
CONTINUOUS
 10
59.400000
 20
83.300000
 11
59.400000
 21
100.000000
 12
56.400000
 22
83.300000
 13
56.400000
 23
100.000000
  0
POLYLINE
  8
56
 62
7
  6
CONTINUOUS
 70
1
 66
1
  0
VERTEX
 10
59.400000
 20
83.300000
 30
0.000000
  8
56
 62
7
  6
CONTINUOUS
  0
VERTEX
 10
59.400000
 20
100.000000
 30
0.000000
  8
56
 62
7
  6
CONTINUOUS
  0
VERTEX
 10
56.400000
 20
100.000000
 30
0.000000
  8
56
 62
7
  6
CONTINUOUS
  0
VERTEX
 10
56.400000
 20
83.300000
 30
0.000000
  8
56
 62
7
  6
CONTINUOUS
  0
SEQEND
  0
SOLID
  8
56
 62
255
  6
CONTINUOUS
 10
64.000000
 20
83.300000
 11
64.000000
 21
100.000000
 12
61.000000
 22
83.300000
 13
61.000000
 23
100.000000
  0
POLYLINE
  8
56
 62
7
  6
CONTINUOUS
 70
1
 66
1
  0
VERTEX
 10
64.000000
 20
83.300000
 30
0.000000
  8
56
 62
7
  6
CONTINUOUS
  0
VERTEX
 10
64.000000
 20
100.000000
 30
0.000000
  8
56
 62
7
  6
CONTINUOUS
  0
VERTEX
 10
61.000000
 20
100.000000
 30
0.000000
  8
56
 62
7
  6
CONTINUOUS
  0
VERTEX
 10
61.000000
 20
83.300000
 30
0.000000
  8
56
 62
7
  6
CONTINUOUS
  0
SEQEND
  0
SOLID
  8
56
 62
255
  6
CONTINUOUS
 10
68.600000
 20
83.300000
 11
68.600000
 21
100.000000
 12
65.600000
 22
83.300000
 13
65.600000
 23
100.000000
  0
POLYLINE
  8
56
 62
7
  6
CONTINUOUS
 70
1
 66
1
  0
VERTEX
 10
68.600000
 20
83.300000
 30
0.000000
  8
56
 62
7
  6
CONTINUOUS
  0
VERTEX
 10
68.600000
 20
100.000000
 30
0.000000
  8
56
 62
7
  6
CONTINUOUS
  0
VERTEX
 10
65.600000
 20
100.000000
 30
0.000000
  8
56
 62
7
  6
CONTINUOUS
  0
VERTEX
 10
65.600000
 20
83.300000
 30
0.000000
  8
56
 62
7
  6
CONTINUOUS
  0
SEQEND
  0
SOLID
  8
56
 62
255
  6
CONTINUOUS
 10
45.900000
 20
52.500000
 11
45.900000
 21
56.500000
 12
29.000000
 22
52.500000
 13
29.000000
 23
56.500000
  0
POLYLINE
  8
56
 62
7
  6
CONTINUOUS
 70
1
 66
1
  0
VERTEX
 10
45.900000
 20
52.500000
 30
0.000000
  8
56
 62
7
  6
CONTINUOUS
  0
VERTEX
 10
45.900000
 20
56.500000
 30
0.000000
  8
56
 62
7
  6
CONTINUOUS
  0
VERTEX
 10
29.000000
 20
56.500000
 30
0.000000
  8
56
 62
7
  6
CONTINUOUS
  0
VERTEX
 10
29.000000
 20
52.500000
 30
0.000000
  8
56
 62
7
  6
CONTINUOUS
  0
SEQEND
  0
CIRCLE
  8
56
 62
7
  6
CONTINUOUS
 10
31.000000
 20
54.500000
 30
0.0
 40
0.700000
  0
CIRCLE
  8
56
 62
7
  6
CONTINUOUS
 10
44.000000
 20
54.500000
 30
0.0
 40
0.700000
  0
CIRCLE
  8
56
 62
7
  6
CONTINUOUS
 10
47.000000
 20
54.500000
 30
0.0
 40
0.700000
  0
CIRCLE
  8
56
 62
7
  6
CONTINUOUS
 10
28.000000
 20
54.500000
 30
0.0
 40
0.700000
  0
SOLID
  8
58
 62
30
  6
L000000020000FFFFFF
 10
74.500000
 20
90.100000
 11
74.500000
 21
93.100000
 12
42.000000
 22
90.100000
 13
42.000000
 23
93.100000
  0
POLYLINE
  8
58
 62
255
  6
L000000020000FFFFFF
 70
1
 66
1
  0
VERTEX
 10
74.500000
 20
90.100000
 30
0.000000
  8
58
 62
255
  6
L000000020000FFFFFF
  0
VERTEX
 10
74.500000
 20
93.100000
 30
0.000000
  8
58
 62
255
  6
L000000020000FFFFFF
  0
VERTEX
 10
42.000000
 20
93.100000
 30
0.000000
  8
58
 62
255
  6
L000000020000FFFFFF
  0
VERTEX
 10
42.000000
 20
90.100000
 30
0.000000
  8
58
 62
255
  6
L000000020000FFFFFF
  0
SEQEND
  0
SOLID
  8
58
 62
30
  6
L000000020000FFFFFF
 10
33.000000
 20
90.100000
 11
33.000000
 21
93.100000
 12
0.500000
 22
90.100000
 13
0.500000
 23
93.100000
  0
POLYLINE
  8
58
 62
255
  6
L000000020000FFFFFF
 70
1
 66
1
  0
VERTEX
 10
33.000000
 20
90.100000
 30
0.000000
  8
58
 62
255
  6
L000000020000FFFFFF
  0
VERTEX
 10
33.000000
 20
93.100000
 30
0.000000
  8
58
 62
255
  6
L000000020000FFFFFF
  0
VERTEX
 10
0.500000
 20
93.100000
 30
0.000000
  8
58
 62
255
  6
L000000020000FFFFFF
  0
VERTEX
 10
0.500000
 20
90.100000
 30
0.000000
  8
58
 62
255
  6
L000000020000FFFFFF
  0
SEQEND
  0
SOLID
  8
58
 62
30
  6
L000000020000FFFFFF
 10
46.000000
 20
89.600000
 11
46.000000
 21
93.600000
 12
29.100000
 22
89.600000
 13
29.100000
 23
93.600000
  0
POLYLINE
  8
58
 62
255
  6
L000000020000FFFFFF
 70
1
 66
1
  0
VERTEX
 10
46.000000
 20
89.600000
 30
0.000000
  8
58
 62
255
  6
L000000020000FFFFFF
  0
VERTEX
 10
46.000000
 20
93.600000
 30
0.000000
  8
58
 62
255
  6
L000000020000FFFFFF
  0
VERTEX
 10
29.100000
 20
93.600000
 30
0.000000
  8
58
 62
255
  6
L000000020000FFFFFF
  0
VERTEX
 10
29.100000
 20
89.600000
 30
0.000000
  8
58
 62
255
  6
L000000020000FFFFFF
  0
SEQEND
  0
CIRCLE
  8
58
 62
255
  6
L000000020000FFFFFF
 10
31.000000
 20
91.600000
 30
0.0
 40
0.700000
  0
CIRCLE
  8
58
 62
255
  6
L000000020000FFFFFF
 10
44.000000
 20
91.600000
 30
0.0
 40
0.700000
  0
CIRCLE
  8
58
 62
255
  6
L000000020000FFFFFF
 10
47.000000
 20
91.600000
 30
0.0
 40
0.700000
  0
CIRCLE
  8
58
 62
255
  6
L000000020000FFFFFF
 10
28.000000
 20
91.600000
 30
0.0
 40
0.700000
  0
CIRCLE
  8
58
 62
255
  6
L000000020000FFFFFF
 10
31.000000
 20
91.600000
 30
0.0
 40
0.700000
  0
SOLID
  8
58
 62
30
  6
L000000020000FFFFFF
 10
33.000000
 20
71.500000
 11
33.000000
 21
74.500000
 12
0.500000
 22
71.500000
 13
0.500000
 23
74.500000
  0
POLYLINE
  8
58
 62
255
  6
L000000020000FFFFFF
 70
1
 66
1
  0
VERTEX
 10
33.000000
 20
71.500000
 30
0.000000
  8
58
 62
255
  6
L000000020000FFFFFF
  0
VERTEX
 10
33.000000
 20
74.500000
 30
0.000000
  8
58
 62
255
  6
L000000020000FFFFFF
  0
VERTEX
 10
0.500000
 20
74.500000
 30
0.000000
  8
58
 62
255
  6
L000000020000FFFFFF
  0
VERTEX
 10
0.500000
 20
71.500000
 30
0.000000
  8
58
 62
255
  6
L000000020000FFFFFF
  0
SEQEND
  0
SOLID
  8
58
 62
30
  6
L000000020000FFFFFF
 10
74.500000
 20
71.500000
 11
74.500000
 21
74.500000
 12
42.000000
 22
71.500000
 13
42.000000
 23
74.500000
  0
POLYLINE
  8
58
 62
255
  6
L000000020000FFFFFF
 70
1
 66
1
  0
VERTEX
 10
74.500000
 20
71.500000
 30
0.000000
  8
58
 62
255
  6
L000000020000FFFFFF
  0
VERTEX
 10
74.500000
 20
74.500000
 30
0.000000
  8
58
 62
255
  6
L000000020000FFFFFF
  0
VERTEX
 10
42.000000
 20
74.500000
 30
0.000000
  8
58
 62
255
  6
L000000020000FFFFFF
  0
VERTEX
 10
42.000000
 20
71.500000
 30
0.000000
  8
58
 62
255
  6
L000000020000FFFFFF
  0
SEQEND
  0
SOLID
  8
58
 62
30
  6
L000000020000FFFFFF
 10
45.900000
 20
71.000000
 11
45.900000
 21
75.100000
 12
29.000000
 22
71.000000
 13
29.000000
 23
75.100000
  0
POLYLINE
  8
58
 62
255
  6
L000000020000FFFFFF
 70
1
 66
1
  0
VERTEX
 10
45.900000
 20
71.000000
 30
0.000000
  8
58
 62
255
  6
L000000020000FFFFFF
  0
VERTEX
 10
45.900000
 20
75.100000
 30
0.000000
  8
58
 62
255
  6
L000000020000FFFFFF
  0
VERTEX
 10
29.000000
 20
75.100000
 30
0.000000
  8
58
 62
255
  6
L000000020000FFFFFF
  0
VERTEX
 10
29.000000
 20
71.000000
 30
0.000000
  8
58
 62
255
  6
L000000020000FFFFFF
  0
SEQEND
  0
CIRCLE
  8
58
 62
255
  6
L000000020000FFFFFF
 10
31.000000
 20
73.000000
 30
0.0
 40
0.700000
  0
CIRCLE
  8
58
 62
255
  6
L000000020000FFFFFF
 10
44.000000
 20
73.000000
 30
0.0
 40
0.700000
  0
CIRCLE
  8
58
 62
255
  6
L000000020000FFFFFF
 10
47.000000
 20
73.000000
 30
0.0
 40
0.700000
  0
CIRCLE
  8
58
 62
255
  6
L000000020000FFFFFF
 10
28.000000
 20
73.000000
 30
0.0
 40
0.700000
  0
CIRCLE
  8
58
 62
255
  6
L000000020000FFFFFF
 10
7.500000
 20
91.600000
 30
0.0
 40
0.700000
  0
CIRCLE
  8
58
 62
255
  6
L000000020000FFFFFF
 10
17.500000
 20
91.600000
 30
0.0
 40
0.700000
  0
CIRCLE
  8
58
 62
255
  6
L000000020000FFFFFF
 10
7.500000
 20
73.100000
 30
0.0
 40
0.700000
  0
CIRCLE
  8
58
 62
255
  6
L000000020000FFFFFF
 10
17.500000
 20
73.100000
 30
0.0
 40
0.700000
  0
SOLID
  8
58
 62
30
  6
L000000020000FFFFFF
 10
74.500000
 20
23.500000
 11
74.500000
 21
26.500000
 12
0.500000
 22
23.500000
 13
0.500000
 23
26.500000
  0
POLYLINE
  8
58
 62
255
  6
L000000020000FFFFFF
 70
1
 66
1
  0
VERTEX
 10
74.500000
 20
23.500000
 30
0.000000
  8
58
 62
255
  6
L000000020000FFFFFF
  0
VERTEX
 10
74.500000
 20
26.500000
 30
0.000000
  8
58
 62
255
  6
L000000020000FFFFFF
  0
VERTEX
 10
0.500000
 20
26.500000
 30
0.000000
  8
58
 62
255
  6
L000000020000FFFFFF
  0
VERTEX
 10
0.500000
 20
23.500000
 30
0.000000
  8
58
 62
255
  6
L000000020000FFFFFF
  0
SEQEND
  0
SOLID
  8
58
 62
30
  6
L000000020000FFFFFF
 10
74.500000
 20
8.500000
 11
74.500000
 21
11.500000
 12
0.500000
 22
8.500000
 13
0.500000
 23
11.500000
  0
POLYLINE
  8
58
 62
255
  6
L000000020000FFFFFF
 70
1
 66
1
  0
VERTEX
 10
74.500000
 20
8.500000
 30
0.000000
  8
58
 62
255
  6
L000000020000FFFFFF
  0
VERTEX
 10
74.500000
 20
11.500000
 30
0.000000
  8
58
 62
255
  6
L000000020000FFFFFF
  0
VERTEX
 10
0.500000
 20
11.500000
 30
0.000000
  8
58
 62
255
  6
L000000020000FFFFFF
  0
VERTEX
 10
0.500000
 20
8.500000
 30
0.000000
  8
58
 62
255
  6
L000000020000FFFFFF
  0
SEQEND
  0
CIRCLE
  8
58
 62
255
  6
L000000020000FFFFFF
 10
5.000000
 20
91.600000
 30
0.0
 40
0.500000
  0
CIRCLE
  8
58
 62
255
  6
L000000020000FFFFFF
 10
10.000000
 20
91.600000
 30
0.0
 40
0.500000
  0
CIRCLE
  8
58
 62
255
  6
L000000020000FFFFFF
 10
15.000000
 20
91.600000
 30
0.0
 40
0.500000
  0
CIRCLE
  8
58
 62
255
  6
L000000020000FFFFFF
 10
20.000000
 20
91.600000
 30
0.0
 40
0.500000
  0
CIRCLE
  8
58
 62
255
  6
L000000020000FFFFFF
 10
12.500000
 20
91.600000
 30
0.0
 40
0.600000
  0
CIRCLE
  8
58
 62
255
  6
L000000020000FFFFFF
 10
12.500000
 20
91.600000
 30
0.0
 40
1.100000
  0
CIRCLE
  8
58
 62
255
  6
L000000020000FFFFFF
 10
5.000000
 20
73.100000
 30
0.0
 40
0.500000
  0
CIRCLE
  8
58
 62
255
  6
L000000020000FFFFFF
 10
10.000000
 20
73.100000
 30
0.0
 40
0.500000
  0
CIRCLE
  8
58
 62
255
  6
L000000020000FFFFFF
 10
15.000000
 20
73.100000
 30
0.0
 40
0.500000
  0
CIRCLE
  8
58
 62
255
  6
L000000020000FFFFFF
 10
20.000000
 20
73.100000
 30
0.0
 40
0.500000
  0
CIRCLE
  8
58
 62
255
  6
L000000020000FFFFFF
 10
12.500000
 20
73.100000
 30
0.0
 40
0.600000
  0
CIRCLE
  8
58
 62
255
  6
L000000020000FFFFFF
 10
12.500000
 20
73.100000
 30
0.0
 40
1.100000
  0
SOLID
  8
58
 62
30
  6
L000000020000FFFFFF
 10
68.600000
 20
53.000000
 11
68.600000
 21
62.800000
 12
65.600000
 22
53.000000
 13
65.600000
 23
62.800000
  0
POLYLINE
  8
58
 62
255
  6
L000000020000FFFFFF
 70
1
 66
1
  0
VERTEX
 10
68.600000
 20
53.000000
 30
0.000000
  8
58
 62
255
  6
L000000020000FFFFFF
  0
VERTEX
 10
68.600000
 20
62.800000
 30
0.000000
  8
58
 62
255
  6
L000000020000FFFFFF
  0
VERTEX
 10
65.600000
 20
62.800000
 30
0.000000
  8
58
 62
255
  6
L000000020000FFFFFF
  0
VERTEX
 10
65.600000
 20
53.000000
 30
0.000000
  8
58
 62
255
  6
L000000020000FFFFFF
  0
SEQEND
  0
SOLID
  8
58
 62
30
  6
L000000020000FFFFFF
 10
33.000000
 20
53.000000
 11
33.000000
 21
56.000000
 12
0.500000
 22
53.000000
 13
0.500000
 23
56.000000
  0
POLYLINE
  8
58
 62
255
  6
L000000020000FFFFFF
 70
1
 66
1
  0
VERTEX
 10
33.000000
 20
53.000000
 30
0.000000
  8
58
 62
255
  6
L000000020000FFFFFF
  0
VERTEX
 10
33.000000
 20
56.000000
 30
0.000000
  8
58
 62
255
  6
L000000020000FFFFFF
  0
VERTEX
 10
0.500000
 20
56.000000
 30
0.000000
  8
58
 62
255
  6
L000000020000FFFFFF
  0
VERTEX
 10
0.500000
 20
53.000000
 30
0.000000
  8
58
 62
255
  6
L000000020000FFFFFF
  0
SEQEND
  0
SOLID
  8
58
 62
30
  6
L000000020000FFFFFF
 10
74.500000
 20
53.000000
 11
74.500000
 21
56.000000
 12
42.000000
 22
53.000000
 13
42.000000
 23
56.000000
  0
POLYLINE
  8
58
 62
255
  6
L000000020000FFFFFF
 70
1
 66
1
  0
VERTEX
 10
74.500000
 20
53.000000
 30
0.000000
  8
58
 62
255
  6
L000000020000FFFFFF
  0
VERTEX
 10
74.500000
 20
56.000000
 30
0.000000
  8
58
 62
255
  6
L000000020000FFFFFF
  0
VERTEX
 10
42.000000
 20
56.000000
 30
0.000000
  8
58
 62
255
  6
L000000020000FFFFFF
  0
VERTEX
 10
42.000000
 20
53.000000
 30
0.000000
  8
58
 62
255
  6
L000000020000FFFFFF
  0
SEQEND
  0
CIRCLE
  8
58
 62
255
  6
L000000020000FFFFFF
 10
7.500000
 20
54.600000
 30
0.0
 40
0.700000
  0
CIRCLE
  8
58
 62
255
  6
L000000020000FFFFFF
 10
17.500000
 20
54.600000
 30
0.0
 40
0.700000
  0
CIRCLE
  8
58
 62
255
  6
L000000020000FFFFFF
 10
5.000000
 20
54.600000
 30
0.0
 40
0.500000
  0
CIRCLE
  8
58
 62
255
  6
L000000020000FFFFFF
 10
10.000000
 20
54.600000
 30
0.0
 40
0.500000
  0
CIRCLE
  8
58
 62
255
  6
L000000020000FFFFFF
 10
15.000000
 20
54.600000
 30
0.0
 40
0.500000
  0
CIRCLE
  8
58
 62
255
  6
L000000020000FFFFFF
 10
20.000000
 20
54.600000
 30
0.0
 40
0.500000
  0
CIRCLE
  8
58
 62
255
  6
L000000020000FFFFFF
 10
12.500000
 20
54.600000
 30
0.0
 40
0.600000
  0
CIRCLE
  8
58
 62
255
  6
L000000020000FFFFFF
 10
12.500000
 20
54.600000
 30
0.0
 40
1.100000
  0
CIRCLE
  8
58
 62
255
  6
L000000020000FFFFFF
 10
55.000000
 20
91.600000
 30
0.0
 40
0.500000
  0
CIRCLE
  8
58
 62
255
  6
L000000020000FFFFFF
 10
70.000000
 20
91.600000
 30
0.0
 40
0.500000
  0
CIRCLE
  8
58
 62
255
  6
L000000020000FFFFFF
 10
55.000000
 20
73.100000
 30
0.0
 40
0.500000
  0
CIRCLE
  8
58
 62
255
  6
L000000020000FFFFFF
 10
70.000000
 20
73.100000
 30
0.0
 40
0.500000
  0
SOLID
  8
58
 62
30
  6
L000000020000FFFFFF
 10
59.400000
 20
83.300000
 11
59.400000
 21
100.000000
 12
56.400000
 22
83.300000
 13
56.400000
 23
100.000000
  0
POLYLINE
  8
58
 62
255
  6
L000000020000FFFFFF
 70
1
 66
1
  0
VERTEX
 10
59.400000
 20
83.300000
 30
0.000000
  8
58
 62
255
  6
L000000020000FFFFFF
  0
VERTEX
 10
59.400000
 20
100.000000
 30
0.000000
  8
58
 62
255
  6
L000000020000FFFFFF
  0
VERTEX
 10
56.400000
 20
100.000000
 30
0.000000
  8
58
 62
255
  6
L000000020000FFFFFF
  0
VERTEX
 10
56.400000
 20
83.300000
 30
0.000000
  8
58
 62
255
  6
L000000020000FFFFFF
  0
SEQEND
  0
SOLID
  8
58
 62
30
  6
L000000020000FFFFFF
 10
64.000000
 20
83.300000
 11
64.000000
 21
100.000000
 12
61.000000
 22
83.300000
 13
61.000000
 23
100.000000
  0
POLYLINE
  8
58
 62
255
  6
L000000020000FFFFFF
 70
1
 66
1
  0
VERTEX
 10
64.000000
 20
83.300000
 30
0.000000
  8
58
 62
255
  6
L000000020000FFFFFF
  0
VERTEX
 10
64.000000
 20
100.000000
 30
0.000000
  8
58
 62
255
  6
L000000020000FFFFFF
  0
VERTEX
 10
61.000000
 20
100.000000
 30
0.000000
  8
58
 62
255
  6
L000000020000FFFFFF
  0
VERTEX
 10
61.000000
 20
83.300000
 30
0.000000
  8
58
 62
255
  6
L000000020000FFFFFF
  0
SEQEND
  0
SOLID
  8
58
 62
30
  6
L000000020000FFFFFF
 10
68.600000
 20
83.300000
 11
68.600000
 21
100.000000
 12
65.600000
 22
83.300000
 13
65.600000
 23
100.000000
  0
POLYLINE
  8
58
 62
255
  6
L000000020000FFFFFF
 70
1
 66
1
  0
VERTEX
 10
68.600000
 20
83.300000
 30
0.000000
  8
58
 62
255
  6
L000000020000FFFFFF
  0
VERTEX
 10
68.600000
 20
100.000000
 30
0.000000
  8
58
 62
255
  6
L000000020000FFFFFF
  0
VERTEX
 10
65.600000
 20
100.000000
 30
0.000000
  8
58
 62
255
  6
L000000020000FFFFFF
  0
VERTEX
 10
65.600000
 20
83.300000
 30
0.000000
  8
58
 62
255
  6
L000000020000FFFFFF
  0
SEQEND
  0
SOLID
  8
58
 62
30
  6
L000000020000FFFFFF
 10
46.000000
 20
52.500000
 11
46.000000
 21
56.500000
 12
29.000000
 22
52.500000
 13
29.000000
 23
56.500000
  0
POLYLINE
  8
58
 62
255
  6
L000000020000FFFFFF
 70
1
 66
1
  0
VERTEX
 10
46.000000
 20
52.500000
 30
0.000000
  8
58
 62
255
  6
L000000020000FFFFFF
  0
VERTEX
 10
46.000000
 20
56.500000
 30
0.000000
  8
58
 62
255
  6
L000000020000FFFFFF
  0
VERTEX
 10
29.000000
 20
56.500000
 30
0.000000
  8
58
 62
255
  6
L000000020000FFFFFF
  0
VERTEX
 10
29.000000
 20
52.500000
 30
0.000000
  8
58
 62
255
  6
L000000020000FFFFFF
  0
SEQEND
  0
CIRCLE
  8
58
 62
255
  6
L000000020000FFFFFF
 10
31.000000
 20
54.500000
 30
0.0
 40
0.700000
  0
CIRCLE
  8
58
 62
255
  6
L000000020000FFFFFF
 10
44.000000
 20
54.500000
 30
0.0
 40
0.700000
  0
CIRCLE
  8
58
 62
255
  6
L000000020000FFFFFF
 10
47.000000
 20
54.500000
 30
0.0
 40
0.700000
  0
CIRCLE
  8
58
 62
255
  6
L000000020000FFFFFF
 10
28.000000
 20
54.500000
 30
0.0
 40
0.700000
  0
SOLID
  8
60
 62
7
  6
L000000020000FFFFFF
 10
74.500000
 20
90.100000
 11
74.500000
 21
93.100000
 12
42.000000
 22
90.100000
 13
42.000000
 23
93.100000
  0
POLYLINE
  8
60
 62
255
  6
L000000020000FFFFFF
 70
1
 66
1
  0
VERTEX
 10
74.500000
 20
90.100000
 30
0.000000
  8
60
 62
255
  6
L000000020000FFFFFF
  0
VERTEX
 10
74.500000
 20
93.100000
 30
0.000000
  8
60
 62
255
  6
L000000020000FFFFFF
  0
VERTEX
 10
42.000000
 20
93.100000
 30
0.000000
  8
60
 62
255
  6
L000000020000FFFFFF
  0
VERTEX
 10
42.000000
 20
90.100000
 30
0.000000
  8
60
 62
255
  6
L000000020000FFFFFF
  0
SEQEND
  0
SOLID
  8
60
 62
7
  6
L000000020000FFFFFF
 10
33.000000
 20
90.100000
 11
33.000000
 21
93.100000
 12
0.500000
 22
90.100000
 13
0.500000
 23
93.100000
  0
POLYLINE
  8
60
 62
255
  6
L000000020000FFFFFF
 70
1
 66
1
  0
VERTEX
 10
33.000000
 20
90.100000
 30
0.000000
  8
60
 62
255
  6
L000000020000FFFFFF
  0
VERTEX
 10
33.000000
 20
93.100000
 30
0.000000
  8
60
 62
255
  6
L000000020000FFFFFF
  0
VERTEX
 10
0.500000
 20
93.100000
 30
0.000000
  8
60
 62
255
  6
L000000020000FFFFFF
  0
VERTEX
 10
0.500000
 20
90.100000
 30
0.000000
  8
60
 62
255
  6
L000000020000FFFFFF
  0
SEQEND
  0
SOLID
  8
60
 62
7
  6
L000000020000FFFFFF
 10
46.000000
 20
89.600000
 11
46.000000
 21
93.600000
 12
29.000000
 22
89.600000
 13
29.000000
 23
93.600000
  0
POLYLINE
  8
60
 62
255
  6
L000000020000FFFFFF
 70
1
 66
1
  0
VERTEX
 10
46.000000
 20
89.600000
 30
0.000000
  8
60
 62
255
  6
L000000020000FFFFFF
  0
VERTEX
 10
46.000000
 20
93.600000
 30
0.000000
  8
60
 62
255
  6
L000000020000FFFFFF
  0
VERTEX
 10
29.000000
 20
93.600000
 30
0.000000
  8
60
 62
255
  6
L000000020000FFFFFF
  0
VERTEX
 10
29.000000
 20
89.600000
 30
0.000000
  8
60
 62
255
  6
L000000020000FFFFFF
  0
SEQEND
  0
CIRCLE
  8
60
 62
255
  6
L000000020000FFFFFF
 10
31.000000
 20
91.600000
 30
0.0
 40
0.700000
  0
CIRCLE
  8
60
 62
255
  6
L000000020000FFFFFF
 10
44.000000
 20
91.600000
 30
0.0
 40
0.700000
  0
CIRCLE
  8
60
 62
255
  6
L000000020000FFFFFF
 10
47.000000
 20
91.600000
 30
0.0
 40
0.700000
  0
CIRCLE
  8
60
 62
255
  6
L000000020000FFFFFF
 10
28.000000
 20
91.600000
 30
0.0
 40
0.700000
  0
CIRCLE
  8
60
 62
255
  6
L000000020000FFFFFF
 10
31.000000
 20
91.600000
 30
0.0
 40
0.700000
  0
SOLID
  8
60
 62
7
  6
L000000020000FFFFFF
 10
33.000000
 20
71.500000
 11
33.000000
 21
74.500000
 12
0.500000
 22
71.500000
 13
0.500000
 23
74.500000
  0
POLYLINE
  8
60
 62
255
  6
L000000020000FFFFFF
 70
1
 66
1
  0
VERTEX
 10
33.000000
 20
71.500000
 30
0.000000
  8
60
 62
255
  6
L000000020000FFFFFF
  0
VERTEX
 10
33.000000
 20
74.500000
 30
0.000000
  8
60
 62
255
  6
L000000020000FFFFFF
  0
VERTEX
 10
0.500000
 20
74.500000
 30
0.000000
  8
60
 62
255
  6
L000000020000FFFFFF
  0
VERTEX
 10
0.500000
 20
71.500000
 30
0.000000
  8
60
 62
255
  6
L000000020000FFFFFF
  0
SEQEND
  0
SOLID
  8
60
 62
7
  6
L000000020000FFFFFF
 10
74.500000
 20
71.500000
 11
74.500000
 21
74.500000
 12
42.000000
 22
71.500000
 13
42.000000
 23
74.500000
  0
POLYLINE
  8
60
 62
255
  6
L000000020000FFFFFF
 70
1
 66
1
  0
VERTEX
 10
74.500000
 20
71.500000
 30
0.000000
  8
60
 62
255
  6
L000000020000FFFFFF
  0
VERTEX
 10
74.500000
 20
74.500000
 30
0.000000
  8
60
 62
255
  6
L000000020000FFFFFF
  0
VERTEX
 10
42.000000
 20
74.500000
 30
0.000000
  8
60
 62
255
  6
L000000020000FFFFFF
  0
VERTEX
 10
42.000000
 20
71.500000
 30
0.000000
  8
60
 62
255
  6
L000000020000FFFFFF
  0
SEQEND
  0
SOLID
  8
60
 62
7
  6
L000000020000FFFFFF
 10
46.000000
 20
71.000000
 11
46.000000
 21
75.000000
 12
29.000000
 22
71.000000
 13
29.000000
 23
75.000000
  0
POLYLINE
  8
60
 62
255
  6
L000000020000FFFFFF
 70
1
 66
1
  0
VERTEX
 10
46.000000
 20
71.000000
 30
0.000000
  8
60
 62
255
  6
L000000020000FFFFFF
  0
VERTEX
 10
46.000000
 20
75.000000
 30
0.000000
  8
60
 62
255
  6
L000000020000FFFFFF
  0
VERTEX
 10
29.000000
 20
75.000000
 30
0.000000
  8
60
 62
255
  6
L000000020000FFFFFF
  0
VERTEX
 10
29.000000
 20
71.000000
 30
0.000000
  8
60
 62
255
  6
L000000020000FFFFFF
  0
SEQEND
  0
CIRCLE
  8
60
 62
255
  6
L000000020000FFFFFF
 10
31.000000
 20
73.000000
 30
0.0
 40
0.700000
  0
CIRCLE
  8
60
 62
255
  6
L000000020000FFFFFF
 10
44.000000
 20
73.000000
 30
0.0
 40
0.700000
  0
CIRCLE
  8
60
 62
255
  6
L000000020000FFFFFF
 10
47.000000
 20
73.000000
 30
0.0
 40
0.700000
  0
CIRCLE
  8
60
 62
255
  6
L000000020000FFFFFF
 10
28.000000
 20
73.000000
 30
0.0
 40
0.700000
  0
CIRCLE
  8
60
 62
255
  6
L000000020000FFFFFF
 10
7.500000
 20
91.600000
 30
0.0
 40
0.700000
  0
CIRCLE
  8
60
 62
255
  6
L000000020000FFFFFF
 10
17.500000
 20
91.600000
 30
0.0
 40
0.700000
  0
CIRCLE
  8
60
 62
255
  6
L000000020000FFFFFF
 10
7.500000
 20
73.100000
 30
0.0
 40
0.700000
  0
CIRCLE
  8
60
 62
255
  6
L000000020000FFFFFF
 10
17.500000
 20
73.100000
 30
0.0
 40
0.700000
  0
SOLID
  8
60
 62
7
  6
L000000020000FFFFFF
 10
74.500000
 20
23.500000
 11
74.500000
 21
26.500000
 12
0.500000
 22
23.500000
 13
0.500000
 23
26.500000
  0
POLYLINE
  8
60
 62
255
  6
L000000020000FFFFFF
 70
1
 66
1
  0
VERTEX
 10
74.500000
 20
23.500000
 30
0.000000
  8
60
 62
255
  6
L000000020000FFFFFF
  0
VERTEX
 10
74.500000
 20
26.500000
 30
0.000000
  8
60
 62
255
  6
L000000020000FFFFFF
  0
VERTEX
 10
0.500000
 20
26.500000
 30
0.000000
  8
60
 62
255
  6
L000000020000FFFFFF
  0
VERTEX
 10
0.500000
 20
23.500000
 30
0.000000
  8
60
 62
255
  6
L000000020000FFFFFF
  0
SEQEND
  0
SOLID
  8
60
 62
7
  6
L000000020000FFFFFF
 10
74.500000
 20
8.500000
 11
74.500000
 21
11.500000
 12
0.500000
 22
8.500000
 13
0.500000
 23
11.500000
  0
POLYLINE
  8
60
 62
255
  6
L000000020000FFFFFF
 70
1
 66
1
  0
VERTEX
 10
74.500000
 20
8.500000
 30
0.000000
  8
60
 62
255
  6
L000000020000FFFFFF
  0
VERTEX
 10
74.500000
 20
11.500000
 30
0.000000
  8
60
 62
255
  6
L000000020000FFFFFF
  0
VERTEX
 10
0.500000
 20
11.500000
 30
0.000000
  8
60
 62
255
  6
L000000020000FFFFFF
  0
VERTEX
 10
0.500000
 20
8.500000
 30
0.000000
  8
60
 62
255
  6
L000000020000FFFFFF
  0
SEQEND
  0
CIRCLE
  8
60
 62
255
  6
L000000020000FFFFFF
 10
5.000000
 20
91.600000
 30
0.0
 40
0.500000
  0
CIRCLE
  8
60
 62
255
  6
L000000020000FFFFFF
 10
10.000000
 20
91.600000
 30
0.0
 40
0.500000
  0
CIRCLE
  8
60
 62
255
  6
L000000020000FFFFFF
 10
15.000000
 20
91.600000
 30
0.0
 40
0.500000
  0
CIRCLE
  8
60
 62
255
  6
L000000020000FFFFFF
 10
20.000000
 20
91.600000
 30
0.0
 40
0.500000
  0
CIRCLE
  8
60
 62
255
  6
L000000020000FFFFFF
 10
12.500000
 20
91.600000
 30
0.0
 40
0.600000
  0
CIRCLE
  8
60
 62
255
  6
L000000020000FFFFFF
 10
12.500000
 20
91.600000
 30
0.0
 40
1.100000
  0
CIRCLE
  8
60
 62
255
  6
L000000020000FFFFFF
 10
5.000000
 20
73.100000
 30
0.0
 40
0.500000
  0
CIRCLE
  8
60
 62
255
  6
L000000020000FFFFFF
 10
10.000000
 20
73.100000
 30
0.0
 40
0.500000
  0
CIRCLE
  8
60
 62
255
  6
L000000020000FFFFFF
 10
15.000000
 20
73.100000
 30
0.0
 40
0.500000
  0
CIRCLE
  8
60
 62
255
  6
L000000020000FFFFFF
 10
20.000000
 20
73.100000
 30
0.0
 40
0.500000
  0
CIRCLE
  8
60
 62
255
  6
L000000020000FFFFFF
 10
12.500000
 20
73.100000
 30
0.0
 40
0.600000
  0
CIRCLE
  8
60
 62
255
  6
L000000020000FFFFFF
 10
12.500000
 20
73.100000
 30
0.0
 40
1.100000
  0
SOLID
  8
60
 62
7
  6
L000000020000FFFFFF
 10
68.600000
 20
53.000000
 11
68.600000
 21
62.800000
 12
65.600000
 22
53.000000
 13
65.600000
 23
62.800000
  0
POLYLINE
  8
60
 62
255
  6
L000000020000FFFFFF
 70
1
 66
1
  0
VERTEX
 10
68.600000
 20
53.000000
 30
0.000000
  8
60
 62
255
  6
L000000020000FFFFFF
  0
VERTEX
 10
68.600000
 20
62.800000
 30
0.000000
  8
60
 62
255
  6
L000000020000FFFFFF
  0
VERTEX
 10
65.600000
 20
62.800000
 30
0.000000
  8
60
 62
255
  6
L000000020000FFFFFF
  0
VERTEX
 10
65.600000
 20
53.000000
 30
0.000000
  8
60
 62
255
  6
L000000020000FFFFFF
  0
SEQEND
  0
SOLID
  8
60
 62
7
  6
L000000020000FFFFFF
 10
33.000000
 20
53.000000
 11
33.000000
 21
56.000000
 12
0.500000
 22
53.000000
 13
0.500000
 23
56.000000
  0
POLYLINE
  8
60
 62
255
  6
L000000020000FFFFFF
 70
1
 66
1
  0
VERTEX
 10
33.000000
 20
53.000000
 30
0.000000
  8
60
 62
255
  6
L000000020000FFFFFF
  0
VERTEX
 10
33.000000
 20
56.000000
 30
0.000000
  8
60
 62
255
  6
L000000020000FFFFFF
  0
VERTEX
 10
0.500000
 20
56.000000
 30
0.000000
  8
60
 62
255
  6
L000000020000FFFFFF
  0
VERTEX
 10
0.500000
 20
53.000000
 30
0.000000
  8
60
 62
255
  6
L000000020000FFFFFF
  0
SEQEND
  0
SOLID
  8
60
 62
7
  6
L000000020000FFFFFF
 10
74.500000
 20
53.000000
 11
74.500000
 21
56.000000
 12
42.000000
 22
53.000000
 13
42.000000
 23
56.000000
  0
POLYLINE
  8
60
 62
255
  6
L000000020000FFFFFF
 70
1
 66
1
  0
VERTEX
 10
74.500000
 20
53.000000
 30
0.000000
  8
60
 62
255
  6
L000000020000FFFFFF
  0
VERTEX
 10
74.500000
 20
56.000000
 30
0.000000
  8
60
 62
255
  6
L000000020000FFFFFF
  0
VERTEX
 10
42.000000
 20
56.000000
 30
0.000000
  8
60
 62
255
  6
L000000020000FFFFFF
  0
VERTEX
 10
42.000000
 20
53.000000
 30
0.000000
  8
60
 62
255
  6
L000000020000FFFFFF
  0
SEQEND
  0
CIRCLE
  8
60
 62
255
  6
L000000020000FFFFFF
 10
7.500000
 20
54.600000
 30
0.0
 40
0.700000
  0
CIRCLE
  8
60
 62
255
  6
L000000020000FFFFFF
 10
17.500000
 20
54.600000
 30
0.0
 40
0.700000
  0
CIRCLE
  8
60
 62
255
  6
L000000020000FFFFFF
 10
5.000000
 20
54.600000
 30
0.0
 40
0.500000
  0
CIRCLE
  8
60
 62
255
  6
L000000020000FFFFFF
 10
10.000000
 20
54.600000
 30
0.0
 40
0.500000
  0
CIRCLE
  8
60
 62
255
  6
L000000020000FFFFFF
 10
15.000000
 20
54.600000
 30
0.0
 40
0.500000
  0
CIRCLE
  8
60
 62
255
  6
L000000020000FFFFFF
 10
20.000000
 20
54.600000
 30
0.0
 40
0.500000
  0
CIRCLE
  8
60
 62
255
  6
L000000020000FFFFFF
 10
12.500000
 20
54.600000
 30
0.0
 40
0.600000
  0
CIRCLE
  8
60
 62
255
  6
L000000020000FFFFFF
 10
12.500000
 20
54.600000
 30
0.0
 40
1.100000
  0
SOLID
  8
60
 62
7
  6
L000000020000FFFFFF
 10
59.400000
 20
83.300000
 11
59.400000
 21
100.000000
 12
56.400000
 22
83.300000
 13
56.400000
 23
100.000000
  0
POLYLINE
  8
60
 62
255
  6
L000000020000FFFFFF
 70
1
 66
1
  0
VERTEX
 10
59.400000
 20
83.300000
 30
0.000000
  8
60
 62
255
  6
L000000020000FFFFFF
  0
VERTEX
 10
59.400000
 20
100.000000
 30
0.000000
  8
60
 62
255
  6
L000000020000FFFFFF
  0
VERTEX
 10
56.400000
 20
100.000000
 30
0.000000
  8
60
 62
255
  6
L000000020000FFFFFF
  0
VERTEX
 10
56.400000
 20
83.300000
 30
0.000000
  8
60
 62
255
  6
L000000020000FFFFFF
  0
SEQEND
  0
SOLID
  8
60
 62
7
  6
L000000020000FFFFFF
 10
68.600000
 20
83.300000
 11
68.600000
 21
100.000000
 12
65.600000
 22
83.300000
 13
65.600000
 23
100.000000
  0
POLYLINE
  8
60
 62
255
  6
L000000020000FFFFFF
 70
1
 66
1
  0
VERTEX
 10
68.600000
 20
83.300000
 30
0.000000
  8
60
 62
255
  6
L000000020000FFFFFF
  0
VERTEX
 10
68.600000
 20
100.000000
 30
0.000000
  8
60
 62
255
  6
L000000020000FFFFFF
  0
VERTEX
 10
65.600000
 20
100.000000
 30
0.000000
  8
60
 62
255
  6
L000000020000FFFFFF
  0
VERTEX
 10
65.600000
 20
83.300000
 30
0.000000
  8
60
 62
255
  6
L000000020000FFFFFF
  0
SEQEND
  0
SOLID
  8
60
 62
7
  6
L000000020000FFFFFF
 10
64.000000
 20
83.300000
 11
64.000000
 21
100.000000
 12
61.000000
 22
83.300000
 13
61.000000
 23
100.000000
  0
POLYLINE
  8
60
 62
255
  6
L000000020000FFFFFF
 70
1
 66
1
  0
VERTEX
 10
64.000000
 20
83.300000
 30
0.000000
  8
60
 62
255
  6
L000000020000FFFFFF
  0
VERTEX
 10
64.000000
 20
100.000000
 30
0.000000
  8
60
 62
255
  6
L000000020000FFFFFF
  0
VERTEX
 10
61.000000
 20
100.000000
 30
0.000000
  8
60
 62
255
  6
L000000020000FFFFFF
  0
VERTEX
 10
61.000000
 20
83.300000
 30
0.000000
  8
60
 62
255
  6
L000000020000FFFFFF
  0
SEQEND
  0
SOLID
  8
60
 62
7
  6
L000000020000FFFFFF
 10
46.000000
 20
52.500000
 11
46.000000
 21
56.500000
 12
29.000000
 22
52.500000
 13
29.000000
 23
56.500000
  0
POLYLINE
  8
60
 62
255
  6
L000000020000FFFFFF
 70
1
 66
1
  0
VERTEX
 10
46.000000
 20
52.500000
 30
0.000000
  8
60
 62
255
  6
L000000020000FFFFFF
  0
VERTEX
 10
46.000000
 20
56.500000
 30
0.000000
  8
60
 62
255
  6
L000000020000FFFFFF
  0
VERTEX
 10
29.000000
 20
56.500000
 30
0.000000
  8
60
 62
255
  6
L000000020000FFFFFF
  0
VERTEX
 10
29.000000
 20
52.500000
 30
0.000000
  8
60
 62
255
  6
L000000020000FFFFFF
  0
SEQEND
  0
CIRCLE
  8
60
 62
255
  6
L000000020000FFFFFF
 10
31.000000
 20
54.500000
 30
0.0
 40
0.700000
  0
CIRCLE
  8
60
 62
255
  6
L000000020000FFFFFF
 10
44.000000
 20
54.500000
 30
0.0
 40
0.700000
  0
CIRCLE
  8
60
 62
255
  6
L000000020000FFFFFF
 10
47.000000
 20
54.500000
 30
0.0
 40
0.700000
  0
CIRCLE
  8
60
 62
255
  6
L000000020000FFFFFF
 10
28.000000
 20
54.500000
 30
0.0
 40
0.700000
  0
POLYLINE
  8
38
 62
7
  6
L014100020032000000
 70
1
 66
1
  0
VERTEX
 10
28.000000
 20
107.500000
 30
0.000000
  8
38
 62
7
  6
L014100020032000000
  0
VERTEX
 10
28.000000
 20
117.500000
 30
0.000000
  8
38
 62
7
  6
L014100020032000000
  0
VERTEX
 10
27.300000
 20
117.500000
 30
0.000000
  8
38
 62
7
  6
L014100020032000000
  0
VERTEX
 10
27.300000
 20
107.500000
 30
0.000000
  8
38
 62
7
  6
L014100020032000000
  0
SEQEND
  0
POLYLINE
  8
38
 62
7
  6
L014100020032000000
 70
1
 66
1
  0
VERTEX
 10
27.300000
 20
109.500000
 30
0.000000
  8
38
 62
7
  6
L014100020032000000
  0
VERTEX
 10
27.300000
 20
115.500000
 30
0.000000
  8
38
 62
7
  6
L014100020032000000
  0
VERTEX
 10
26.600000
 20
115.500000
 30
0.000000
  8
38
 62
7
  6
L014100020032000000
  0
VERTEX
 10
26.600000
 20
109.500000
 30
0.000000
  8
38
 62
7
  6
L014100020032000000
  0
SEQEND
  0
POLYLINE
  8
38
 62
7
  6
L014100020032000000
 70
1
 66
1
  0
VERTEX
 10
28.700000
 20
107.500000
 30
0.000000
  8
38
 62
7
  6
L014100020032000000
  0
VERTEX
 10
28.700000
 20
117.500000
 30
0.000000
  8
38
 62
7
  6
L014100020032000000
  0
VERTEX
 10
28.000000
 20
117.500000
 30
0.000000
  8
38
 62
7
  6
L014100020032000000
  0
VERTEX
 10
28.000000
 20
107.500000
 30
0.000000
  8
38
 62
7
  6
L014100020032000000
  0
SEQEND
  0
POLYLINE
  8
38
 62
7
  6
L014100020032000000
 70
1
 66
1
  0
VERTEX
 10
29.400000
 20
107.500000
 30
0.000000
  8
38
 62
7
  6
L014100020032000000
  0
VERTEX
 10
29.400000
 20
117.500000
 30
0.000000
  8
38
 62
7
  6
L014100020032000000
  0
VERTEX
 10
28.700000
 20
117.500000
 30
0.000000
  8
38
 62
7
  6
L014100020032000000
  0
VERTEX
 10
28.700000
 20
107.500000
 30
0.000000
  8
38
 62
7
  6
L014100020032000000
  0
SEQEND
  0
POLYLINE
  8
38
 62
7
  6
L014100020032000000
 70
1
 66
1
  0
VERTEX
 10
30.100000
 20
107.500000
 30
0.000000
  8
38
 62
7
  6
L014100020032000000
  0
VERTEX
 10
30.100000
 20
117.500000
 30
0.000000
  8
38
 62
7
  6
L014100020032000000
  0
VERTEX
 10
29.400000
 20
117.500000
 30
0.000000
  8
38
 62
7
  6
L014100020032000000
  0
VERTEX
 10
29.400000
 20
107.500000
 30
0.000000
  8
38
 62
7
  6
L014100020032000000
  0
SEQEND
  0
POLYLINE
  8
38
 62
7
  6
L014100020032000000
 70
1
 66
1
  0
VERTEX
 10
30.800000
 20
107.500000
 30
0.000000
  8
38
 62
7
  6
L014100020032000000
  0
VERTEX
 10
30.800000
 20
117.500000
 30
0.000000
  8
38
 62
7
  6
L014100020032000000
  0
VERTEX
 10
30.100000
 20
117.500000
 30
0.000000
  8
38
 62
7
  6
L014100020032000000
  0
VERTEX
 10
30.100000
 20
107.500000
 30
0.000000
  8
38
 62
7
  6
L014100020032000000
  0
SEQEND
  0
POLYLINE
  8
38
 62
7
  6
L014100020032000000
 70
1
 66
1
  0
VERTEX
 10
31.500000
 20
107.500000
 30
0.000000
  8
38
 62
7
  6
L014100020032000000
  0
VERTEX
 10
31.500000
 20
117.500000
 30
0.000000
  8
38
 62
7
  6
L014100020032000000
  0
VERTEX
 10
30.800000
 20
117.500000
 30
0.000000
  8
38
 62
7
  6
L014100020032000000
  0
VERTEX
 10
30.800000
 20
107.500000
 30
0.000000
  8
38
 62
7
  6
L014100020032000000
  0
SEQEND
  0
POLYLINE
  8
38
 62
7
  6
L014100020032000000
 70
1
 66
1
  0
VERTEX
 10
32.200000
 20
107.500000
 30
0.000000
  8
38
 62
7
  6
L014100020032000000
  0
VERTEX
 10
32.200000
 20
117.500000
 30
0.000000
  8
38
 62
7
  6
L014100020032000000
  0
VERTEX
 10
31.500000
 20
117.500000
 30
0.000000
  8
38
 62
7
  6
L014100020032000000
  0
VERTEX
 10
31.500000
 20
107.500000
 30
0.000000
  8
38
 62
7
  6
L014100020032000000
  0
SEQEND
  0
POLYLINE
  8
38
 62
7
  6
L014100020032000000
 70
1
 66
1
  0
VERTEX
 10
32.900000
 20
107.500000
 30
0.000000
  8
38
 62
7
  6
L014100020032000000
  0
VERTEX
 10
32.900000
 20
117.500000
 30
0.000000
  8
38
 62
7
  6
L014100020032000000
  0
VERTEX
 10
32.200000
 20
117.500000
 30
0.000000
  8
38
 62
7
  6
L014100020032000000
  0
VERTEX
 10
32.200000
 20
107.500000
 30
0.000000
  8
38
 62
7
  6
L014100020032000000
  0
SEQEND
  0
POLYLINE
  8
38
 62
7
  6
L014100020032000000
 70
1
 66
1
  0
VERTEX
 10
33.600000
 20
107.500000
 30
0.000000
  8
38
 62
7
  6
L014100020032000000
  0
VERTEX
 10
33.600000
 20
117.500000
 30
0.000000
  8
38
 62
7
  6
L014100020032000000
  0
VERTEX
 10
32.900000
 20
117.500000
 30
0.000000
  8
38
 62
7
  6
L014100020032000000
  0
VERTEX
 10
32.900000
 20
107.500000
 30
0.000000
  8
38
 62
7
  6
L014100020032000000
  0
SEQEND
  0
POLYLINE
  8
38
 62
7
  6
L014100020032000000
 70
1
 66
1
  0
VERTEX
 10
34.300000
 20
107.500000
 30
0.000000
  8
38
 62
7
  6
L014100020032000000
  0
VERTEX
 10
34.300000
 20
117.500000
 30
0.000000
  8
38
 62
7
  6
L014100020032000000
  0
VERTEX
 10
33.600000
 20
117.500000
 30
0.000000
  8
38
 62
7
  6
L014100020032000000
  0
VERTEX
 10
33.600000
 20
107.500000
 30
0.000000
  8
38
 62
7
  6
L014100020032000000
  0
SEQEND
  0
POLYLINE
  8
38
 62
7
  6
L014100020032000000
 70
1
 66
1
  0
VERTEX
 10
35.000000
 20
107.500000
 30
0.000000
  8
38
 62
7
  6
L014100020032000000
  0
VERTEX
 10
35.000000
 20
117.500000
 30
0.000000
  8
38
 62
7
  6
L014100020032000000
  0
VERTEX
 10
34.300000
 20
117.500000
 30
0.000000
  8
38
 62
7
  6
L014100020032000000
  0
VERTEX
 10
34.300000
 20
107.500000
 30
0.000000
  8
38
 62
7
  6
L014100020032000000
  0
SEQEND
  0
POLYLINE
  8
38
 62
7
  6
L014100020032000000
 70
1
 66
1
  0
VERTEX
 10
35.700000
 20
107.500000
 30
0.000000
  8
38
 62
7
  6
L014100020032000000
  0
VERTEX
 10
35.700000
 20
117.500000
 30
0.000000
  8
38
 62
7
  6
L014100020032000000
  0
VERTEX
 10
35.000000
 20
117.500000
 30
0.000000
  8
38
 62
7
  6
L014100020032000000
  0
VERTEX
 10
35.000000
 20
107.500000
 30
0.000000
  8
38
 62
7
  6
L014100020032000000
  0
SEQEND
  0
POLYLINE
  8
38
 62
7
  6
L014100020032000000
 70
1
 66
1
  0
VERTEX
 10
36.400000
 20
107.500000
 30
0.000000
  8
38
 62
7
  6
L014100020032000000
  0
VERTEX
 10
36.400000
 20
117.500000
 30
0.000000
  8
38
 62
7
  6
L014100020032000000
  0
VERTEX
 10
35.700000
 20
117.500000
 30
0.000000
  8
38
 62
7
  6
L014100020032000000
  0
VERTEX
 10
35.700000
 20
107.500000
 30
0.000000
  8
38
 62
7
  6
L014100020032000000
  0
SEQEND
  0
POLYLINE
  8
38
 62
7
  6
L014100020032000000
 70
1
 66
1
  0
VERTEX
 10
37.100000
 20
107.500000
 30
0.000000
  8
38
 62
7
  6
L014100020032000000
  0
VERTEX
 10
37.100000
 20
117.500000
 30
0.000000
  8
38
 62
7
  6
L014100020032000000
  0
VERTEX
 10
36.400000
 20
117.500000
 30
0.000000
  8
38
 62
7
  6
L014100020032000000
  0
VERTEX
 10
36.400000
 20
107.500000
 30
0.000000
  8
38
 62
7
  6
L014100020032000000
  0
SEQEND
  0
POLYLINE
  8
38
 62
7
  6
L014100020032000000
 70
1
 66
1
  0
VERTEX
 10
37.800000
 20
107.500000
 30
0.000000
  8
38
 62
7
  6
L014100020032000000
  0
VERTEX
 10
37.800000
 20
117.500000
 30
0.000000
  8
38
 62
7
  6
L014100020032000000
  0
VERTEX
 10
37.100000
 20
117.500000
 30
0.000000
  8
38
 62
7
  6
L014100020032000000
  0
VERTEX
 10
37.100000
 20
107.500000
 30
0.000000
  8
38
 62
7
  6
L014100020032000000
  0
SEQEND
  0
POLYLINE
  8
38
 62
7
  6
L014100020032000000
 70
1
 66
1
  0
VERTEX
 10
38.500000
 20
107.500000
 30
0.000000
  8
38
 62
7
  6
L014100020032000000
  0
VERTEX
 10
38.500000
 20
117.500000
 30
0.000000
  8
38
 62
7
  6
L014100020032000000
  0
VERTEX
 10
37.800000
 20
117.500000
 30
0.000000
  8
38
 62
7
  6
L014100020032000000
  0
VERTEX
 10
37.800000
 20
107.500000
 30
0.000000
  8
38
 62
7
  6
L014100020032000000
  0
SEQEND
  0
POLYLINE
  8
38
 62
7
  6
L014100020032000000
 70
1
 66
1
  0
VERTEX
 10
39.200000
 20
109.500000
 30
0.000000
  8
38
 62
7
  6
L014100020032000000
  0
VERTEX
 10
39.200000
 20
115.500000
 30
0.000000
  8
38
 62
7
  6
L014100020032000000
  0
VERTEX
 10
38.500000
 20
115.500000
 30
0.000000
  8
38
 62
7
  6
L014100020032000000
  0
VERTEX
 10
38.500000
 20
109.500000
 30
0.000000
  8
38
 62
7
  6
L014100020032000000
  0
SEQEND
  0
SOLID
  8
38
 62
255
  6
CONTINUOUS
 10
11.700000
 20
107.700000
 11
11.700000
 21
117.200000
 12
14.400000
 22
107.700000
 13
14.400000
 23
117.200000
  0
POLYLINE
  8
38
 62
7
  6
CONTINUOUS
 70
1
 66
1
  0
VERTEX
 10
11.700000
 20
107.700000
 30
0.000000
  8
38
 62
7
  6
CONTINUOUS
  0
VERTEX
 10
11.700000
 20
117.200000
 30
0.000000
  8
38
 62
7
  6
CONTINUOUS
  0
VERTEX
 10
14.400000
 20
117.200000
 30
0.000000
  8
38
 62
7
  6
CONTINUOUS
  0
VERTEX
 10
14.400000
 20
107.700000
 30
0.000000
  8
38
 62
7
  6
CONTINUOUS
  0
SEQEND
  0
CIRCLE
  8
38
 62
7
  6
CONTINUOUS
 10
13.000000
 20
116.300000
 30
0.0
 40
0.400000
  0
CIRCLE
  8
38
 62
7
  6
CONTINUOUS
 10
13.000000
 20
108.600000
 30
0.0
 40
0.400000
  0
CIRCLE
  8
38
 62
7
  6
CONTINUOUS
 10
13.000000
 20
116.300000
 30
0.0
 40
0.500000
  0
CIRCLE
  8
38
 62
7
  6
CONTINUOUS
 10
13.000000
 20
108.600000
 30
0.0
 40
0.500000
  0
POLYLINE
  8
38
 62
7
  6
L000000000000000000
 70
0
 66
1
  0
VERTEX
 10
13.000000
 20
115.500000
  8
38
 62
7
  6
L000000000000000000
  0
VERTEX
 10
13.000000
 20
114.800000
  8
38
 62
7
  6
L000000000000000000
  0
SEQEND
  0
POLYLINE
  8
38
 62
7
  6
L000000000000000000
 70
0
 66
1
  0
VERTEX
 10
13.000000
 20
110.200000
  8
38
 62
7
  6
L000000000000000000
  0
VERTEX
 10
13.000000
 20
109.400000
  8
38
 62
7
  6
L000000000000000000
  0
SEQEND
  0
POLYLINE
  8
38
 62
7
  6
CONTINUOUS
 70
0
 66
1
  0
VERTEX
 10
11.700000
 20
108.500000
  8
38
 62
7
  6
CONTINUOUS
  0
VERTEX
 10
11.900000
 20
108.500000
  8
38
 62
7
  6
CONTINUOUS
  0
VERTEX
 10
11.900000
 20
109.100000
  8
38
 62
7
  6
CONTINUOUS
  0
VERTEX
 10
13.000000
 20
109.400000
  8
38
 62
7
  6
CONTINUOUS
  0
VERTEX
 10
14.200000
 20
109.100000
  8
38
 62
7
  6
CONTINUOUS
  0
VERTEX
 10
14.200000
 20
108.500000
  8
38
 62
7
  6
CONTINUOUS
  0
VERTEX
 10
14.400000
 20
108.500000
  8
38
 62
7
  6
CONTINUOUS
  0
SEQEND
  0
POLYLINE
  8
38
 62
7
  6
CONTINUOUS
 70
0
 66
1
  0
VERTEX
 10
11.700000
 20
116.400000
  8
38
 62
7
  6
CONTINUOUS
  0
VERTEX
 10
11.900000
 20
116.400000
  8
38
 62
7
  6
CONTINUOUS
  0
VERTEX
 10
11.900000
 20
115.800000
  8
38
 62
7
  6
CONTINUOUS
  0
VERTEX
 10
13.000000
 20
115.500000
  8
38
 62
7
  6
CONTINUOUS
  0
VERTEX
 10
14.200000
 20
115.800000
  8
38
 62
7
  6
CONTINUOUS
  0
VERTEX
 10
14.200000
 20
116.400000
  8
38
 62
7
  6
CONTINUOUS
  0
VERTEX
 10
14.400000
 20
116.400000
  8
38
 62
7
  6
CONTINUOUS
  0
SEQEND
  0
POLYLINE
  8
38
 62
7
  6
CONTINUOUS
 70
1
 66
1
  0
VERTEX
 10
14.400000
 20
109.700000
 30
0.000000
  8
38
 62
7
  6
CONTINUOUS
  0
VERTEX
 10
14.400000
 20
110.000000
 30
0.000000
  8
38
 62
7
  6
CONTINUOUS
  0
VERTEX
 10
13.500000
 20
110.000000
 30
0.000000
  8
38
 62
7
  6
CONTINUOUS
  0
VERTEX
 10
13.500000
 20
109.700000
 30
0.000000
  8
38
 62
7
  6
CONTINUOUS
  0
SEQEND
  0
POLYLINE
  8
38
 62
7
  6
CONTINUOUS
 70
1
 66
1
  0
VERTEX
 10
14.400000
 20
115.000000
 30
0.000000
  8
38
 62
7
  6
CONTINUOUS
  0
VERTEX
 10
14.400000
 20
115.300000
 30
0.000000
  8
38
 62
7
  6
CONTINUOUS
  0
VERTEX
 10
13.500000
 20
115.300000
 30
0.000000
  8
38
 62
7
  6
CONTINUOUS
  0
VERTEX
 10
13.500000
 20
115.000000
 30
0.000000
  8
38
 62
7
  6
CONTINUOUS
  0
SEQEND
  0
POLYLINE
  8
38
 62
7
  6
CONTINUOUS
 70
0
 66
1
  0
VERTEX
 10
13.600000
 20
115.300000
  8
38
 62
7
  6
CONTINUOUS
  0
VERTEX
 10
13.600000
 20
115.000000
  8
38
 62
7
  6
CONTINUOUS
  0
SEQEND
  0
POLYLINE
  8
38
 62
7
  6
CONTINUOUS
 70
0
 66
1
  0
VERTEX
 10
13.800000
 20
115.000000
  8
38
 62
7
  6
CONTINUOUS
  0
VERTEX
 10
13.800000
 20
115.300000
  8
38
 62
7
  6
CONTINUOUS
  0
SEQEND
  0
POLYLINE
  8
38
 62
7
  6
CONTINUOUS
 70
0
 66
1
  0
VERTEX
 10
13.800000
 20
110.000000
  8
38
 62
7
  6
CONTINUOUS
  0
VERTEX
 10
13.800000
 20
109.700000
  8
38
 62
7
  6
CONTINUOUS
  0
SEQEND
  0
POLYLINE
  8
38
 62
7
  6
CONTINUOUS
 70
0
 66
1
  0
VERTEX
 10
13.600000
 20
109.700000
  8
38
 62
7
  6
CONTINUOUS
  0
VERTEX
 10
13.600000
 20
110.000000
  8
38
 62
7
  6
CONTINUOUS
  0
SEQEND
  0
POLYLINE
  8
38
 62
7
  6
CONTINUOUS
 70
1
 66
1
  0
VERTEX
 10
13.900000
 20
107.700000
 30
0.000000
  8
38
 62
7
  6
CONTINUOUS
  0
VERTEX
 10
13.900000
 20
107.500000
 30
0.000000
  8
38
 62
7
  6
CONTINUOUS
  0
VERTEX
 10
12.200000
 20
107.500000
 30
0.000000
  8
38
 62
7
  6
CONTINUOUS
  0
VERTEX
 10
12.200000
 20
107.700000
 30
0.000000
  8
38
 62
7
  6
CONTINUOUS
  0
SEQEND
  0
POLYLINE
  8
38
 62
7
  6
CONTINUOUS
 70
1
 66
1
  0
VERTEX
 10
13.900000
 20
117.400000
 30
0.000000
  8
38
 62
7
  6
CONTINUOUS
  0
VERTEX
 10
13.900000
 20
117.200000
 30
0.000000
  8
38
 62
7
  6
CONTINUOUS
  0
VERTEX
 10
12.200000
 20
117.200000
 30
0.000000
  8
38
 62
7
  6
CONTINUOUS
  0
VERTEX
 10
12.200000
 20
117.400000
 30
0.000000
  8
38
 62
7
  6
CONTINUOUS
  0
SEQEND
  0
SOLID
  8
38
 62
255
  6
CONTINUOUS
 10
14.400000
 20
107.700000
 11
14.400000
 21
117.200000
 12
17.100000
 22
107.700000
 13
17.100000
 23
117.200000
  0
POLYLINE
  8
38
 62
7
  6
CONTINUOUS
 70
1
 66
1
  0
VERTEX
 10
14.400000
 20
107.700000
 30
0.000000
  8
38
 62
7
  6
CONTINUOUS
  0
VERTEX
 10
14.400000
 20
117.200000
 30
0.000000
  8
38
 62
7
  6
CONTINUOUS
  0
VERTEX
 10
17.100000
 20
117.200000
 30
0.000000
  8
38
 62
7
  6
CONTINUOUS
  0
VERTEX
 10
17.100000
 20
107.700000
 30
0.000000
  8
38
 62
7
  6
CONTINUOUS
  0
SEQEND
  0
CIRCLE
  8
38
 62
7
  6
CONTINUOUS
 10
15.700000
 20
116.300000
 30
0.0
 40
0.400000
  0
CIRCLE
  8
38
 62
7
  6
CONTINUOUS
 10
15.700000
 20
108.600000
 30
0.0
 40
0.400000
  0
CIRCLE
  8
38
 62
7
  6
CONTINUOUS
 10
15.700000
 20
116.300000
 30
0.0
 40
0.500000
  0
CIRCLE
  8
38
 62
7
  6
CONTINUOUS
 10
15.700000
 20
108.600000
 30
0.0
 40
0.500000
  0
POLYLINE
  8
38
 62
7
  6
L000000000000000000
 70
0
 66
1
  0
VERTEX
 10
15.700000
 20
115.500000
  8
38
 62
7
  6
L000000000000000000
  0
VERTEX
 10
15.700000
 20
114.800000
  8
38
 62
7
  6
L000000000000000000
  0
SEQEND
  0
POLYLINE
  8
38
 62
7
  6
L000000000000000000
 70
0
 66
1
  0
VERTEX
 10
15.700000
 20
110.200000
  8
38
 62
7
  6
L000000000000000000
  0
VERTEX
 10
15.700000
 20
109.400000
  8
38
 62
7
  6
L000000000000000000
  0
SEQEND
  0
POLYLINE
  8
38
 62
7
  6
CONTINUOUS
 70
0
 66
1
  0
VERTEX
 10
14.400000
 20
108.500000
  8
38
 62
7
  6
CONTINUOUS
  0
VERTEX
 10
14.600000
 20
108.500000
  8
38
 62
7
  6
CONTINUOUS
  0
VERTEX
 10
14.600000
 20
109.100000
  8
38
 62
7
  6
CONTINUOUS
  0
VERTEX
 10
15.700000
 20
109.400000
  8
38
 62
7
  6
CONTINUOUS
  0
VERTEX
 10
16.900000
 20
109.100000
  8
38
 62
7
  6
CONTINUOUS
  0
VERTEX
 10
16.900000
 20
108.500000
  8
38
 62
7
  6
CONTINUOUS
  0
VERTEX
 10
17.100000
 20
108.500000
  8
38
 62
7
  6
CONTINUOUS
  0
SEQEND
  0
POLYLINE
  8
38
 62
7
  6
CONTINUOUS
 70
0
 66
1
  0
VERTEX
 10
14.400000
 20
116.400000
  8
38
 62
7
  6
CONTINUOUS
  0
VERTEX
 10
14.600000
 20
116.400000
  8
38
 62
7
  6
CONTINUOUS
  0
VERTEX
 10
14.600000
 20
115.800000
  8
38
 62
7
  6
CONTINUOUS
  0
VERTEX
 10
15.700000
 20
115.500000
  8
38
 62
7
  6
CONTINUOUS
  0
VERTEX
 10
16.900000
 20
115.800000
  8
38
 62
7
  6
CONTINUOUS
  0
VERTEX
 10
16.900000
 20
116.400000
  8
38
 62
7
  6
CONTINUOUS
  0
VERTEX
 10
17.100000
 20
116.400000
  8
38
 62
7
  6
CONTINUOUS
  0
SEQEND
  0
POLYLINE
  8
38
 62
7
  6
CONTINUOUS
 70
1
 66
1
  0
VERTEX
 10
17.100000
 20
109.700000
 30
0.000000
  8
38
 62
7
  6
CONTINUOUS
  0
VERTEX
 10
17.100000
 20
110.000000
 30
0.000000
  8
38
 62
7
  6
CONTINUOUS
  0
VERTEX
 10
16.200000
 20
110.000000
 30
0.000000
  8
38
 62
7
  6
CONTINUOUS
  0
VERTEX
 10
16.200000
 20
109.700000
 30
0.000000
  8
38
 62
7
  6
CONTINUOUS
  0
SEQEND
  0
POLYLINE
  8
38
 62
7
  6
CONTINUOUS
 70
1
 66
1
  0
VERTEX
 10
17.100000
 20
115.000000
 30
0.000000
  8
38
 62
7
  6
CONTINUOUS
  0
VERTEX
 10
17.100000
 20
115.300000
 30
0.000000
  8
38
 62
7
  6
CONTINUOUS
  0
VERTEX
 10
16.200000
 20
115.300000
 30
0.000000
  8
38
 62
7
  6
CONTINUOUS
  0
VERTEX
 10
16.200000
 20
115.000000
 30
0.000000
  8
38
 62
7
  6
CONTINUOUS
  0
SEQEND
  0
POLYLINE
  8
38
 62
7
  6
CONTINUOUS
 70
0
 66
1
  0
VERTEX
 10
16.300000
 20
115.300000
  8
38
 62
7
  6
CONTINUOUS
  0
VERTEX
 10
16.300000
 20
115.000000
  8
38
 62
7
  6
CONTINUOUS
  0
SEQEND
  0
POLYLINE
  8
38
 62
7
  6
CONTINUOUS
 70
0
 66
1
  0
VERTEX
 10
16.500000
 20
115.000000
  8
38
 62
7
  6
CONTINUOUS
  0
VERTEX
 10
16.500000
 20
115.300000
  8
38
 62
7
  6
CONTINUOUS
  0
SEQEND
  0
POLYLINE
  8
38
 62
7
  6
CONTINUOUS
 70
0
 66
1
  0
VERTEX
 10
16.500000
 20
110.000000
  8
38
 62
7
  6
CONTINUOUS
  0
VERTEX
 10
16.500000
 20
109.700000
  8
38
 62
7
  6
CONTINUOUS
  0
SEQEND
  0
POLYLINE
  8
38
 62
7
  6
CONTINUOUS
 70
0
 66
1
  0
VERTEX
 10
16.300000
 20
109.700000
  8
38
 62
7
  6
CONTINUOUS
  0
VERTEX
 10
16.300000
 20
110.000000
  8
38
 62
7
  6
CONTINUOUS
  0
SEQEND
  0
POLYLINE
  8
38
 62
7
  6
CONTINUOUS
 70
1
 66
1
  0
VERTEX
 10
16.600000
 20
107.700000
 30
0.000000
  8
38
 62
7
  6
CONTINUOUS
  0
VERTEX
 10
16.600000
 20
107.500000
 30
0.000000
  8
38
 62
7
  6
CONTINUOUS
  0
VERTEX
 10
14.900000
 20
107.500000
 30
0.000000
  8
38
 62
7
  6
CONTINUOUS
  0
VERTEX
 10
14.900000
 20
107.700000
 30
0.000000
  8
38
 62
7
  6
CONTINUOUS
  0
SEQEND
  0
POLYLINE
  8
38
 62
7
  6
CONTINUOUS
 70
1
 66
1
  0
VERTEX
 10
16.600000
 20
117.400000
 30
0.000000
  8
38
 62
7
  6
CONTINUOUS
  0
VERTEX
 10
16.600000
 20
117.200000
 30
0.000000
  8
38
 62
7
  6
CONTINUOUS
  0
VERTEX
 10
14.900000
 20
117.200000
 30
0.000000
  8
38
 62
7
  6
CONTINUOUS
  0
VERTEX
 10
14.900000
 20
117.400000
 30
0.000000
  8
38
 62
7
  6
CONTINUOUS
  0
SEQEND
  0
SOLID
  8
38
 62
255
  6
CONTINUOUS
 10
17.100000
 20
107.700000
 11
17.100000
 21
117.200000
 12
19.800000
 22
107.700000
 13
19.800000
 23
117.200000
  0
POLYLINE
  8
38
 62
7
  6
CONTINUOUS
 70
1
 66
1
  0
VERTEX
 10
17.100000
 20
107.700000
 30
0.000000
  8
38
 62
7
  6
CONTINUOUS
  0
VERTEX
 10
17.100000
 20
117.200000
 30
0.000000
  8
38
 62
7
  6
CONTINUOUS
  0
VERTEX
 10
19.800000
 20
117.200000
 30
0.000000
  8
38
 62
7
  6
CONTINUOUS
  0
VERTEX
 10
19.800000
 20
107.700000
 30
0.000000
  8
38
 62
7
  6
CONTINUOUS
  0
SEQEND
  0
CIRCLE
  8
38
 62
7
  6
CONTINUOUS
 10
18.400000
 20
116.300000
 30
0.0
 40
0.400000
  0
CIRCLE
  8
38
 62
7
  6
CONTINUOUS
 10
18.400000
 20
108.600000
 30
0.0
 40
0.400000
  0
CIRCLE
  8
38
 62
7
  6
CONTINUOUS
 10
18.400000
 20
116.300000
 30
0.0
 40
0.500000
  0
CIRCLE
  8
38
 62
7
  6
CONTINUOUS
 10
18.400000
 20
108.600000
 30
0.0
 40
0.500000
  0
POLYLINE
  8
38
 62
7
  6
L000000000000000000
 70
0
 66
1
  0
VERTEX
 10
18.400000
 20
115.500000
  8
38
 62
7
  6
L000000000000000000
  0
VERTEX
 10
18.400000
 20
114.800000
  8
38
 62
7
  6
L000000000000000000
  0
SEQEND
  0
POLYLINE
  8
38
 62
7
  6
L000000000000000000
 70
0
 66
1
  0
VERTEX
 10
18.400000
 20
110.200000
  8
38
 62
7
  6
L000000000000000000
  0
VERTEX
 10
18.400000
 20
109.400000
  8
38
 62
7
  6
L000000000000000000
  0
SEQEND
  0
POLYLINE
  8
38
 62
7
  6
CONTINUOUS
 70
0
 66
1
  0
VERTEX
 10
17.100000
 20
108.500000
  8
38
 62
7
  6
CONTINUOUS
  0
VERTEX
 10
17.300000
 20
108.500000
  8
38
 62
7
  6
CONTINUOUS
  0
VERTEX
 10
17.300000
 20
109.100000
  8
38
 62
7
  6
CONTINUOUS
  0
VERTEX
 10
18.400000
 20
109.400000
  8
38
 62
7
  6
CONTINUOUS
  0
VERTEX
 10
19.600000
 20
109.100000
  8
38
 62
7
  6
CONTINUOUS
  0
VERTEX
 10
19.600000
 20
108.500000
  8
38
 62
7
  6
CONTINUOUS
  0
VERTEX
 10
19.800000
 20
108.500000
  8
38
 62
7
  6
CONTINUOUS
  0
SEQEND
  0
POLYLINE
  8
38
 62
7
  6
CONTINUOUS
 70
0
 66
1
  0
VERTEX
 10
17.100000
 20
116.400000
  8
38
 62
7
  6
CONTINUOUS
  0
VERTEX
 10
17.300000
 20
116.400000
  8
38
 62
7
  6
CONTINUOUS
  0
VERTEX
 10
17.300000
 20
115.800000
  8
38
 62
7
  6
CONTINUOUS
  0
VERTEX
 10
18.400000
 20
115.500000
  8
38
 62
7
  6
CONTINUOUS
  0
VERTEX
 10
19.600000
 20
115.800000
  8
38
 62
7
  6
CONTINUOUS
  0
VERTEX
 10
19.600000
 20
116.400000
  8
38
 62
7
  6
CONTINUOUS
  0
VERTEX
 10
19.800000
 20
116.400000
  8
38
 62
7
  6
CONTINUOUS
  0
SEQEND
  0
POLYLINE
  8
38
 62
7
  6
CONTINUOUS
 70
1
 66
1
  0
VERTEX
 10
19.800000
 20
109.700000
 30
0.000000
  8
38
 62
7
  6
CONTINUOUS
  0
VERTEX
 10
19.800000
 20
110.000000
 30
0.000000
  8
38
 62
7
  6
CONTINUOUS
  0
VERTEX
 10
18.900000
 20
110.000000
 30
0.000000
  8
38
 62
7
  6
CONTINUOUS
  0
VERTEX
 10
18.900000
 20
109.700000
 30
0.000000
  8
38
 62
7
  6
CONTINUOUS
  0
SEQEND
  0
POLYLINE
  8
38
 62
7
  6
CONTINUOUS
 70
1
 66
1
  0
VERTEX
 10
19.800000
 20
115.000000
 30
0.000000
  8
38
 62
7
  6
CONTINUOUS
  0
VERTEX
 10
19.800000
 20
115.300000
 30
0.000000
  8
38
 62
7
  6
CONTINUOUS
  0
VERTEX
 10
18.900000
 20
115.300000
 30
0.000000
  8
38
 62
7
  6
CONTINUOUS
  0
VERTEX
 10
18.900000
 20
115.000000
 30
0.000000
  8
38
 62
7
  6
CONTINUOUS
  0
SEQEND
  0
POLYLINE
  8
38
 62
7
  6
CONTINUOUS
 70
0
 66
1
  0
VERTEX
 10
19.000000
 20
115.300000
  8
38
 62
7
  6
CONTINUOUS
  0
VERTEX
 10
19.000000
 20
115.000000
  8
38
 62
7
  6
CONTINUOUS
  0
SEQEND
  0
POLYLINE
  8
38
 62
7
  6
CONTINUOUS
 70
0
 66
1
  0
VERTEX
 10
19.200000
 20
115.000000
  8
38
 62
7
  6
CONTINUOUS
  0
VERTEX
 10
19.200000
 20
115.300000
  8
38
 62
7
  6
CONTINUOUS
  0
SEQEND
  0
POLYLINE
  8
38
 62
7
  6
CONTINUOUS
 70
0
 66
1
  0
VERTEX
 10
19.200000
 20
110.000000
  8
38
 62
7
  6
CONTINUOUS
  0
VERTEX
 10
19.200000
 20
109.700000
  8
38
 62
7
  6
CONTINUOUS
  0
SEQEND
  0
POLYLINE
  8
38
 62
7
  6
CONTINUOUS
 70
0
 66
1
  0
VERTEX
 10
19.000000
 20
109.700000
  8
38
 62
7
  6
CONTINUOUS
  0
VERTEX
 10
19.000000
 20
110.000000
  8
38
 62
7
  6
CONTINUOUS
  0
SEQEND
  0
POLYLINE
  8
38
 62
7
  6
CONTINUOUS
 70
1
 66
1
  0
VERTEX
 10
19.300000
 20
107.700000
 30
0.000000
  8
38
 62
7
  6
CONTINUOUS
  0
VERTEX
 10
19.300000
 20
107.500000
 30
0.000000
  8
38
 62
7
  6
CONTINUOUS
  0
VERTEX
 10
17.600000
 20
107.500000
 30
0.000000
  8
38
 62
7
  6
CONTINUOUS
  0
VERTEX
 10
17.600000
 20
107.700000
 30
0.000000
  8
38
 62
7
  6
CONTINUOUS
  0
SEQEND
  0
POLYLINE
  8
38
 62
7
  6
CONTINUOUS
 70
1
 66
1
  0
VERTEX
 10
19.300000
 20
117.400000
 30
0.000000
  8
38
 62
7
  6
CONTINUOUS
  0
VERTEX
 10
19.300000
 20
117.200000
 30
0.000000
  8
38
 62
7
  6
CONTINUOUS
  0
VERTEX
 10
17.600000
 20
117.200000
 30
0.000000
  8
38
 62
7
  6
CONTINUOUS
  0
VERTEX
 10
17.600000
 20
117.400000
 30
0.000000
  8
38
 62
7
  6
CONTINUOUS
  0
SEQEND
  0
SOLID
  8
38
 62
255
  6
CONTINUOUS
 10
19.800000
 20
107.700000
 11
19.800000
 21
117.200000
 12
22.500000
 22
107.700000
 13
22.500000
 23
117.200000
  0
POLYLINE
  8
38
 62
7
  6
CONTINUOUS
 70
1
 66
1
  0
VERTEX
 10
19.800000
 20
107.700000
 30
0.000000
  8
38
 62
7
  6
CONTINUOUS
  0
VERTEX
 10
19.800000
 20
117.200000
 30
0.000000
  8
38
 62
7
  6
CONTINUOUS
  0
VERTEX
 10
22.500000
 20
117.200000
 30
0.000000
  8
38
 62
7
  6
CONTINUOUS
  0
VERTEX
 10
22.500000
 20
107.700000
 30
0.000000
  8
38
 62
7
  6
CONTINUOUS
  0
SEQEND
  0
CIRCLE
  8
38
 62
7
  6
CONTINUOUS
 10
21.100000
 20
116.300000
 30
0.0
 40
0.400000
  0
CIRCLE
  8
38
 62
7
  6
CONTINUOUS
 10
21.100000
 20
108.600000
 30
0.0
 40
0.400000
  0
CIRCLE
  8
38
 62
7
  6
CONTINUOUS
 10
21.100000
 20
116.300000
 30
0.0
 40
0.500000
  0
CIRCLE
  8
38
 62
7
  6
CONTINUOUS
 10
21.100000
 20
108.600000
 30
0.0
 40
0.500000
  0
POLYLINE
  8
38
 62
7
  6
L000000000000000000
 70
0
 66
1
  0
VERTEX
 10
21.100000
 20
115.500000
  8
38
 62
7
  6
L000000000000000000
  0
VERTEX
 10
21.100000
 20
114.800000
  8
38
 62
7
  6
L000000000000000000
  0
SEQEND
  0
POLYLINE
  8
38
 62
7
  6
L000000000000000000
 70
0
 66
1
  0
VERTEX
 10
21.100000
 20
110.200000
  8
38
 62
7
  6
L000000000000000000
  0
VERTEX
 10
21.100000
 20
109.400000
  8
38
 62
7
  6
L000000000000000000
  0
SEQEND
  0
POLYLINE
  8
38
 62
7
  6
CONTINUOUS
 70
0
 66
1
  0
VERTEX
 10
19.800000
 20
108.500000
  8
38
 62
7
  6
CONTINUOUS
  0
VERTEX
 10
20.000000
 20
108.500000
  8
38
 62
7
  6
CONTINUOUS
  0
VERTEX
 10
20.000000
 20
109.100000
  8
38
 62
7
  6
CONTINUOUS
  0
VERTEX
 10
21.100000
 20
109.400000
  8
38
 62
7
  6
CONTINUOUS
  0
VERTEX
 10
22.300000
 20
109.100000
  8
38
 62
7
  6
CONTINUOUS
  0
VERTEX
 10
22.300000
 20
108.500000
  8
38
 62
7
  6
CONTINUOUS
  0
VERTEX
 10
22.500000
 20
108.500000
  8
38
 62
7
  6
CONTINUOUS
  0
SEQEND
  0
POLYLINE
  8
38
 62
7
  6
CONTINUOUS
 70
0
 66
1
  0
VERTEX
 10
19.800000
 20
116.400000
  8
38
 62
7
  6
CONTINUOUS
  0
VERTEX
 10
20.000000
 20
116.400000
  8
38
 62
7
  6
CONTINUOUS
  0
VERTEX
 10
20.000000
 20
115.800000
  8
38
 62
7
  6
CONTINUOUS
  0
VERTEX
 10
21.100000
 20
115.500000
  8
38
 62
7
  6
CONTINUOUS
  0
VERTEX
 10
22.300000
 20
115.800000
  8
38
 62
7
  6
CONTINUOUS
  0
VERTEX
 10
22.300000
 20
116.400000
  8
38
 62
7
  6
CONTINUOUS
  0
VERTEX
 10
22.500000
 20
116.400000
  8
38
 62
7
  6
CONTINUOUS
  0
SEQEND
  0
POLYLINE
  8
38
 62
7
  6
CONTINUOUS
 70
1
 66
1
  0
VERTEX
 10
22.500000
 20
109.700000
 30
0.000000
  8
38
 62
7
  6
CONTINUOUS
  0
VERTEX
 10
22.500000
 20
110.000000
 30
0.000000
  8
38
 62
7
  6
CONTINUOUS
  0
VERTEX
 10
21.600000
 20
110.000000
 30
0.000000
  8
38
 62
7
  6
CONTINUOUS
  0
VERTEX
 10
21.600000
 20
109.700000
 30
0.000000
  8
38
 62
7
  6
CONTINUOUS
  0
SEQEND
  0
POLYLINE
  8
38
 62
7
  6
CONTINUOUS
 70
1
 66
1
  0
VERTEX
 10
22.500000
 20
115.000000
 30
0.000000
  8
38
 62
7
  6
CONTINUOUS
  0
VERTEX
 10
22.500000
 20
115.300000
 30
0.000000
  8
38
 62
7
  6
CONTINUOUS
  0
VERTEX
 10
21.600000
 20
115.300000
 30
0.000000
  8
38
 62
7
  6
CONTINUOUS
  0
VERTEX
 10
21.600000
 20
115.000000
 30
0.000000
  8
38
 62
7
  6
CONTINUOUS
  0
SEQEND
  0
POLYLINE
  8
38
 62
7
  6
CONTINUOUS
 70
0
 66
1
  0
VERTEX
 10
21.700000
 20
115.300000
  8
38
 62
7
  6
CONTINUOUS
  0
VERTEX
 10
21.700000
 20
115.000000
  8
38
 62
7
  6
CONTINUOUS
  0
SEQEND
  0
POLYLINE
  8
38
 62
7
  6
CONTINUOUS
 70
0
 66
1
  0
VERTEX
 10
21.900000
 20
115.000000
  8
38
 62
7
  6
CONTINUOUS
  0
VERTEX
 10
21.900000
 20
115.300000
  8
38
 62
7
  6
CONTINUOUS
  0
SEQEND
  0
POLYLINE
  8
38
 62
7
  6
CONTINUOUS
 70
0
 66
1
  0
VERTEX
 10
21.900000
 20
110.000000
  8
38
 62
7
  6
CONTINUOUS
  0
VERTEX
 10
21.900000
 20
109.700000
  8
38
 62
7
  6
CONTINUOUS
  0
SEQEND
  0
POLYLINE
  8
38
 62
7
  6
CONTINUOUS
 70
0
 66
1
  0
VERTEX
 10
21.700000
 20
109.700000
  8
38
 62
7
  6
CONTINUOUS
  0
VERTEX
 10
21.700000
 20
110.000000
  8
38
 62
7
  6
CONTINUOUS
  0
SEQEND
  0
POLYLINE
  8
38
 62
7
  6
CONTINUOUS
 70
1
 66
1
  0
VERTEX
 10
22.000000
 20
107.700000
 30
0.000000
  8
38
 62
7
  6
CONTINUOUS
  0
VERTEX
 10
22.000000
 20
107.500000
 30
0.000000
  8
38
 62
7
  6
CONTINUOUS
  0
VERTEX
 10
20.300000
 20
107.500000
 30
0.000000
  8
38
 62
7
  6
CONTINUOUS
  0
VERTEX
 10
20.300000
 20
107.700000
 30
0.000000
  8
38
 62
7
  6
CONTINUOUS
  0
SEQEND
  0
POLYLINE
  8
38
 62
7
  6
CONTINUOUS
 70
1
 66
1
  0
VERTEX
 10
22.000000
 20
117.400000
 30
0.000000
  8
38
 62
7
  6
CONTINUOUS
  0
VERTEX
 10
22.000000
 20
117.200000
 30
0.000000
  8
38
 62
7
  6
CONTINUOUS
  0
VERTEX
 10
20.300000
 20
117.200000
 30
0.000000
  8
38
 62
7
  6
CONTINUOUS
  0
VERTEX
 10
20.300000
 20
117.400000
 30
0.000000
  8
38
 62
7
  6
CONTINUOUS
  0
SEQEND
  0
SOLID
  8
38
 62
255
  6
CONTINUOUS
 10
55.500000
 20
83.300000
 11
55.500000
 21
62.800000
 12
69.500000
 22
83.300000
 13
69.500000
 23
62.800000
  0
POLYLINE
  8
38
 62
7
  6
CONTINUOUS
 70
1
 66
1
  0
VERTEX
 10
55.500000
 20
83.300000
 30
0.000000
  8
38
 62
7
  6
CONTINUOUS
  0
VERTEX
 10
55.500000
 20
62.800000
 30
0.000000
  8
38
 62
7
  6
CONTINUOUS
  0
VERTEX
 10
69.500000
 20
62.800000
 30
0.000000
  8
38
 62
7
  6
CONTINUOUS
  0
VERTEX
 10
69.500000
 20
83.300000
 30
0.000000
  8
38
 62
7
  6
CONTINUOUS
  0
SEQEND
  0
CIRCLE
  8
38
 62
7
  6
L014100000000000000
 10
57.900000
 20
82.000000
 30
0.0
 40
0.500000
  0
CIRCLE
  8
38
 62
7
  6
L014100000000000000
 10
67.100000
 20
82.000000
 30
0.0
 40
0.500000
  0
CIRCLE
  8
38
 62
7
  6
L014100000000000000
 10
62.500000
 20
82.000000
 30
0.0
 40
0.500000
  0
CIRCLE
  8
38
 62
7
  6
L014100000000000000
 10
57.900000
 20
64.000000
 30
0.0
 40
0.500000
  0
CIRCLE
  8
38
 62
7
  6
L014100000000000000
 10
62.500000
 20
64.000000
 30
0.0
 40
0.500000
  0
CIRCLE
  8
38
 62
7
  6
L014100000000000000
 10
67.100000
 20
64.000000
 30
0.0
 40
0.500000
  0
POLYLINE
  8
38
 62
7
  6
L000000010000000000
 70
0
 66
1
  0
VERTEX
 10
55.500000
 20
64.900000
  8
38
 62
7
  6
L000000010000000000
  0
VERTEX
 10
69.500000
 20
64.900000
  8
38
 62
7
  6
L000000010000000000
  0
SEQEND
  0
POLYLINE
  8
38
 62
7
  6
L000000010000000000
 70
0
 66
1
  0
VERTEX
 10
55.500000
 20
81.100000
  8
38
 62
7
  6
L000000010000000000
  0
VERTEX
 10
69.500000
 20
81.100000
  8
38
 62
7
  6
L000000010000000000
  0
SEQEND
  0
POLYLINE
  8
38
 62
7
  6
L000000010000000000
 70
0
 66
1
  0
VERTEX
 10
55.500000
 20
83.000000
  8
38
 62
7
  6
L000000010000000000
  0
VERTEX
 10
69.500000
 20
83.000000
  8
38
 62
7
  6
L000000010000000000
  0
SEQEND
  0
POLYLINE
  8
38
 62
7
  6
L000000010000000000
 70
0
 66
1
  0
VERTEX
 10
55.500000
 20
83.100000
  8
38
 62
7
  6
L000000010000000000
  0
VERTEX
 10
69.500000
 20
83.100000
  8
38
 62
7
  6
L000000010000000000
  0
SEQEND
  0
POLYLINE
  8
38
 62
7
  6
L000000010000000000
 70
0
 66
1
  0
VERTEX
 10
55.500000
 20
63.100000
  8
38
 62
7
  6
L000000010000000000
  0
VERTEX
 10
69.500000
 20
63.100000
  8
38
 62
7
  6
L000000010000000000
  0
SEQEND
  0
POLYLINE
  8
38
 62
7
  6
L000000010000000000
 70
0
 66
1
  0
VERTEX
 10
55.500000
 20
63.000000
  8
38
 62
7
  6
L000000010000000000
  0
VERTEX
 10
69.500000
 20
63.000000
  8
38
 62
7
  6
L000000010000000000
  0
SEQEND
  0
CIRCLE
  8
38
 62
7
  6
CONTINUOUS
 10
59.900000
 20
63.500000
 30
0.0
 40
0.200000
  0
CIRCLE
  8
38
 62
7
  6
CONTINUOUS
 10
65.100000
 20
63.500000
 30
0.0
 40
0.200000
  0
CIRCLE
  8
38
 62
7
  6
CONTINUOUS
 10
59.900000
 20
82.600000
 30
0.0
 40
0.200000
  0
CIRCLE
  8
38
 62
7
  6
CONTINUOUS
 10
65.100000
 20
82.600000
 30
0.0
 40
0.200000
  0
SOLID
  8
38
 62
255
  6
CONTINUOUS
 10
69.300000
 20
65.200000
 11
69.300000
 21
69.900000
 12
55.700000
 22
65.200000
 13
55.700000
 23
69.900000
  0
POLYLINE
  8
38
 62
7
  6
CONTINUOUS
 70
1
 66
1
  0
VERTEX
 10
69.300000
 20
65.200000
 30
0.000000
  8
38
 62
7
  6
CONTINUOUS
  0
VERTEX
 10
69.300000
 20
69.900000
 30
0.000000
  8
38
 62
7
  6
CONTINUOUS
  0
VERTEX
 10
55.700000
 20
69.900000
 30
0.000000
  8
38
 62
7
  6
CONTINUOUS
  0
VERTEX
 10
55.700000
 20
65.200000
 30
0.000000
  8
38
 62
7
  6
CONTINUOUS
  0
SEQEND
  0
POLYLINE
  8
38
 62
7
  6
L000000000000000000
 70
0
 66
1
  0
VERTEX
 10
69.100000
 20
69.900000
  8
38
 62
7
  6
L000000000000000000
  0
VERTEX
 10
69.100000
 20
65.200000
  8
38
 62
7
  6
L000000000000000000
  0
SEQEND
  0
POLYLINE
  8
38
 62
7
  6
L000000000000000000
 70
0
 66
1
  0
VERTEX
 10
69.000000
 20
69.900000
  8
38
 62
7
  6
L000000000000000000
  0
VERTEX
 10
69.000000
 20
65.200000
  8
38
 62
7
  6
L000000000000000000
  0
SEQEND
  0
POLYLINE
  8
38
 62
7
  6
L000000000000000000
 70
0
 66
1
  0
VERTEX
 10
56.000000
 20
65.500000
  8
38
 62
7
  6
L000000000000000000
  0
VERTEX
 10
69.000000
 20
65.500000
  8
38
 62
7
  6
L000000000000000000
  0
SEQEND
  0
POLYLINE
  8
38
 62
7
  6
L000000000000000000
 70
0
 66
1
  0
VERTEX
 10
56.000000
 20
65.600000
  8
38
 62
7
  6
L000000000000000000
  0
VERTEX
 10
69.000000
 20
65.600000
  8
38
 62
7
  6
L000000000000000000
  0
SEQEND
  0
POLYLINE
  8
38
 62
7
  6
L000000000000000000
 70
0
 66
1
  0
VERTEX
 10
56.000000
 20
65.400000
  8
38
 62
7
  6
L000000000000000000
  0
VERTEX
 10
69.000000
 20
65.400000
  8
38
 62
7
  6
L000000000000000000
  0
SEQEND
  0
POLYLINE
  8
38
 62
7
  6
L000000000000000000
 70
0
 66
1
  0
VERTEX
 10
55.900000
 20
69.900000
  8
38
 62
7
  6
L000000000000000000
  0
VERTEX
 10
55.900000
 20
65.200000
  8
38
 62
7
  6
L000000000000000000
  0
SEQEND
  0
POLYLINE
  8
38
 62
7
  6
L000000000000000000
 70
0
 66
1
  0
VERTEX
 10
56.000000
 20
69.900000
  8
38
 62
7
  6
L000000000000000000
  0
VERTEX
 10
56.000000
 20
65.200000
  8
38
 62
7
  6
L000000000000000000
  0
SEQEND
  0
POLYLINE
  8
38
 62
7
  6
CONTINUOUS
 70
1
 66
1
  0
VERTEX
 10
68.600000
 20
69.100000
 30
0.000000
  8
38
 62
7
  6
CONTINUOUS
  0
VERTEX
 10
68.600000
 20
69.600000
 30
0.000000
  8
38
 62
7
  6
CONTINUOUS
  0
VERTEX
 10
67.800000
 20
69.600000
 30
0.000000
  8
38
 62
7
  6
CONTINUOUS
  0
VERTEX
 10
67.800000
 20
69.100000
 30
0.000000
  8
38
 62
7
  6
CONTINUOUS
  0
SEQEND
  0
POLYLINE
  8
38
 62
7
  6
CONTINUOUS
 70
1
 66
1
  0
VERTEX
 10
67.400000
 20
69.200000
 30
0.000000
  8
38
 62
7
  6
CONTINUOUS
  0
VERTEX
 10
67.400000
 20
69.600000
 30
0.000000
  8
38
 62
7
  6
CONTINUOUS
  0
VERTEX
 10
67.100000
 20
69.600000
 30
0.000000
  8
38
 62
7
  6
CONTINUOUS
  0
VERTEX
 10
67.100000
 20
69.200000
 30
0.000000
  8
38
 62
7
  6
CONTINUOUS
  0
SEQEND
  0
POLYLINE
  8
38
 62
7
  6
CONTINUOUS
 70
1
 66
1
  0
VERTEX
 10
67.500000
 20
69.100000
 30
0.000000
  8
38
 62
7
  6
CONTINUOUS
  0
VERTEX
 10
67.500000
 20
69.600000
 30
0.000000
  8
38
 62
7
  6
CONTINUOUS
  0
VERTEX
 10
66.700000
 20
69.600000
 30
0.000000
  8
38
 62
7
  6
CONTINUOUS
  0
VERTEX
 10
66.700000
 20
69.100000
 30
0.000000
  8
38
 62
7
  6
CONTINUOUS
  0
SEQEND
  0
POLYLINE
  8
38
 62
7
  6
CONTINUOUS
 70
0
 66
1
  0
VERTEX
 10
67.100000
 20
69.300000
  8
38
 62
7
  6
CONTINUOUS
  0
VERTEX
 10
67.400000
 20
69.300000
  8
38
 62
7
  6
CONTINUOUS
  0
SEQEND
  0
POLYLINE
  8
2
 62
7
  6
CONTINUOUS
 70
1
 66
1
  0
VERTEX
 10
28.000000
 20
107.500000
 30
0.000000
  8
2
 62
7
  6
CONTINUOUS
  0
VERTEX
 10
28.000000
 20
117.500000
 30
0.000000
  8
2
 62
7
  6
CONTINUOUS
  0
VERTEX
 10
27.300000
 20
117.500000
 30
0.000000
  8
2
 62
7
  6
CONTINUOUS
  0
VERTEX
 10
27.300000
 20
107.500000
 30
0.000000
  8
2
 62
7
  6
CONTINUOUS
  0
SEQEND
  0
POLYLINE
  8
2
 62
7
  6
CONTINUOUS
 70
1
 66
1
  0
VERTEX
 10
27.300000
 20
109.500000
 30
0.000000
  8
2
 62
7
  6
CONTINUOUS
  0
VERTEX
 10
27.300000
 20
115.500000
 30
0.000000
  8
2
 62
7
  6
CONTINUOUS
  0
VERTEX
 10
26.600000
 20
115.500000
 30
0.000000
  8
2
 62
7
  6
CONTINUOUS
  0
VERTEX
 10
26.600000
 20
109.500000
 30
0.000000
  8
2
 62
7
  6
CONTINUOUS
  0
SEQEND
  0
POLYLINE
  8
2
 62
7
  6
CONTINUOUS
 70
1
 66
1
  0
VERTEX
 10
28.700000
 20
107.500000
 30
0.000000
  8
2
 62
7
  6
CONTINUOUS
  0
VERTEX
 10
28.700000
 20
117.500000
 30
0.000000
  8
2
 62
7
  6
CONTINUOUS
  0
VERTEX
 10
28.000000
 20
117.500000
 30
0.000000
  8
2
 62
7
  6
CONTINUOUS
  0
VERTEX
 10
28.000000
 20
107.500000
 30
0.000000
  8
2
 62
7
  6
CONTINUOUS
  0
SEQEND
  0
POLYLINE
  8
2
 62
7
  6
CONTINUOUS
 70
1
 66
1
  0
VERTEX
 10
29.400000
 20
107.500000
 30
0.000000
  8
2
 62
7
  6
CONTINUOUS
  0
VERTEX
 10
29.400000
 20
117.500000
 30
0.000000
  8
2
 62
7
  6
CONTINUOUS
  0
VERTEX
 10
28.700000
 20
117.500000
 30
0.000000
  8
2
 62
7
  6
CONTINUOUS
  0
VERTEX
 10
28.700000
 20
107.500000
 30
0.000000
  8
2
 62
7
  6
CONTINUOUS
  0
SEQEND
  0
POLYLINE
  8
2
 62
7
  6
CONTINUOUS
 70
1
 66
1
  0
VERTEX
 10
30.100000
 20
107.500000
 30
0.000000
  8
2
 62
7
  6
CONTINUOUS
  0
VERTEX
 10
30.100000
 20
117.500000
 30
0.000000
  8
2
 62
7
  6
CONTINUOUS
  0
VERTEX
 10
29.400000
 20
117.500000
 30
0.000000
  8
2
 62
7
  6
CONTINUOUS
  0
VERTEX
 10
29.400000
 20
107.500000
 30
0.000000
  8
2
 62
7
  6
CONTINUOUS
  0
SEQEND
  0
POLYLINE
  8
2
 62
7
  6
CONTINUOUS
 70
1
 66
1
  0
VERTEX
 10
30.800000
 20
107.500000
 30
0.000000
  8
2
 62
7
  6
CONTINUOUS
  0
VERTEX
 10
30.800000
 20
117.500000
 30
0.000000
  8
2
 62
7
  6
CONTINUOUS
  0
VERTEX
 10
30.100000
 20
117.500000
 30
0.000000
  8
2
 62
7
  6
CONTINUOUS
  0
VERTEX
 10
30.100000
 20
107.500000
 30
0.000000
  8
2
 62
7
  6
CONTINUOUS
  0
SEQEND
  0
POLYLINE
  8
2
 62
7
  6
CONTINUOUS
 70
1
 66
1
  0
VERTEX
 10
31.500000
 20
107.500000
 30
0.000000
  8
2
 62
7
  6
CONTINUOUS
  0
VERTEX
 10
31.500000
 20
117.500000
 30
0.000000
  8
2
 62
7
  6
CONTINUOUS
  0
VERTEX
 10
30.800000
 20
117.500000
 30
0.000000
  8
2
 62
7
  6
CONTINUOUS
  0
VERTEX
 10
30.800000
 20
107.500000
 30
0.000000
  8
2
 62
7
  6
CONTINUOUS
  0
SEQEND
  0
POLYLINE
  8
2
 62
7
  6
CONTINUOUS
 70
1
 66
1
  0
VERTEX
 10
32.200000
 20
107.500000
 30
0.000000
  8
2
 62
7
  6
CONTINUOUS
  0
VERTEX
 10
32.200000
 20
117.500000
 30
0.000000
  8
2
 62
7
  6
CONTINUOUS
  0
VERTEX
 10
31.500000
 20
117.500000
 30
0.000000
  8
2
 62
7
  6
CONTINUOUS
  0
VERTEX
 10
31.500000
 20
107.500000
 30
0.000000
  8
2
 62
7
  6
CONTINUOUS
  0
SEQEND
  0
POLYLINE
  8
2
 62
7
  6
CONTINUOUS
 70
1
 66
1
  0
VERTEX
 10
32.900000
 20
107.500000
 30
0.000000
  8
2
 62
7
  6
CONTINUOUS
  0
VERTEX
 10
32.900000
 20
117.500000
 30
0.000000
  8
2
 62
7
  6
CONTINUOUS
  0
VERTEX
 10
32.200000
 20
117.500000
 30
0.000000
  8
2
 62
7
  6
CONTINUOUS
  0
VERTEX
 10
32.200000
 20
107.500000
 30
0.000000
  8
2
 62
7
  6
CONTINUOUS
  0
SEQEND
  0
POLYLINE
  8
2
 62
7
  6
CONTINUOUS
 70
1
 66
1
  0
VERTEX
 10
33.600000
 20
107.500000
 30
0.000000
  8
2
 62
7
  6
CONTINUOUS
  0
VERTEX
 10
33.600000
 20
117.500000
 30
0.000000
  8
2
 62
7
  6
CONTINUOUS
  0
VERTEX
 10
32.900000
 20
117.500000
 30
0.000000
  8
2
 62
7
  6
CONTINUOUS
  0
VERTEX
 10
32.900000
 20
107.500000
 30
0.000000
  8
2
 62
7
  6
CONTINUOUS
  0
SEQEND
  0
POLYLINE
  8
2
 62
7
  6
CONTINUOUS
 70
1
 66
1
  0
VERTEX
 10
34.300000
 20
107.500000
 30
0.000000
  8
2
 62
7
  6
CONTINUOUS
  0
VERTEX
 10
34.300000
 20
117.500000
 30
0.000000
  8
2
 62
7
  6
CONTINUOUS
  0
VERTEX
 10
33.600000
 20
117.500000
 30
0.000000
  8
2
 62
7
  6
CONTINUOUS
  0
VERTEX
 10
33.600000
 20
107.500000
 30
0.000000
  8
2
 62
7
  6
CONTINUOUS
  0
SEQEND
  0
POLYLINE
  8
2
 62
7
  6
CONTINUOUS
 70
1
 66
1
  0
VERTEX
 10
35.000000
 20
107.500000
 30
0.000000
  8
2
 62
7
  6
CONTINUOUS
  0
VERTEX
 10
35.000000
 20
117.500000
 30
0.000000
  8
2
 62
7
  6
CONTINUOUS
  0
VERTEX
 10
34.300000
 20
117.500000
 30
0.000000
  8
2
 62
7
  6
CONTINUOUS
  0
VERTEX
 10
34.300000
 20
107.500000
 30
0.000000
  8
2
 62
7
  6
CONTINUOUS
  0
SEQEND
  0
POLYLINE
  8
2
 62
7
  6
CONTINUOUS
 70
1
 66
1
  0
VERTEX
 10
35.700000
 20
107.500000
 30
0.000000
  8
2
 62
7
  6
CONTINUOUS
  0
VERTEX
 10
35.700000
 20
117.500000
 30
0.000000
  8
2
 62
7
  6
CONTINUOUS
  0
VERTEX
 10
35.000000
 20
117.500000
 30
0.000000
  8
2
 62
7
  6
CONTINUOUS
  0
VERTEX
 10
35.000000
 20
107.500000
 30
0.000000
  8
2
 62
7
  6
CONTINUOUS
  0
SEQEND
  0
POLYLINE
  8
2
 62
7
  6
CONTINUOUS
 70
1
 66
1
  0
VERTEX
 10
36.400000
 20
107.500000
 30
0.000000
  8
2
 62
7
  6
CONTINUOUS
  0
VERTEX
 10
36.400000
 20
117.500000
 30
0.000000
  8
2
 62
7
  6
CONTINUOUS
  0
VERTEX
 10
35.700000
 20
117.500000
 30
0.000000
  8
2
 62
7
  6
CONTINUOUS
  0
VERTEX
 10
35.700000
 20
107.500000
 30
0.000000
  8
2
 62
7
  6
CONTINUOUS
  0
SEQEND
  0
POLYLINE
  8
2
 62
7
  6
CONTINUOUS
 70
1
 66
1
  0
VERTEX
 10
37.100000
 20
107.500000
 30
0.000000
  8
2
 62
7
  6
CONTINUOUS
  0
VERTEX
 10
37.100000
 20
117.500000
 30
0.000000
  8
2
 62
7
  6
CONTINUOUS
  0
VERTEX
 10
36.400000
 20
117.500000
 30
0.000000
  8
2
 62
7
  6
CONTINUOUS
  0
VERTEX
 10
36.400000
 20
107.500000
 30
0.000000
  8
2
 62
7
  6
CONTINUOUS
  0
SEQEND
  0
POLYLINE
  8
2
 62
7
  6
CONTINUOUS
 70
1
 66
1
  0
VERTEX
 10
37.800000
 20
107.500000
 30
0.000000
  8
2
 62
7
  6
CONTINUOUS
  0
VERTEX
 10
37.800000
 20
117.500000
 30
0.000000
  8
2
 62
7
  6
CONTINUOUS
  0
VERTEX
 10
37.100000
 20
117.500000
 30
0.000000
  8
2
 62
7
  6
CONTINUOUS
  0
VERTEX
 10
37.100000
 20
107.500000
 30
0.000000
  8
2
 62
7
  6
CONTINUOUS
  0
SEQEND
  0
POLYLINE
  8
2
 62
7
  6
CONTINUOUS
 70
1
 66
1
  0
VERTEX
 10
38.500000
 20
107.500000
 30
0.000000
  8
2
 62
7
  6
CONTINUOUS
  0
VERTEX
 10
38.500000
 20
117.500000
 30
0.000000
  8
2
 62
7
  6
CONTINUOUS
  0
VERTEX
 10
37.800000
 20
117.500000
 30
0.000000
  8
2
 62
7
  6
CONTINUOUS
  0
VERTEX
 10
37.800000
 20
107.500000
 30
0.000000
  8
2
 62
7
  6
CONTINUOUS
  0
SEQEND
  0
POLYLINE
  8
2
 62
7
  6
CONTINUOUS
 70
1
 66
1
  0
VERTEX
 10
39.200000
 20
109.500000
 30
0.000000
  8
2
 62
7
  6
CONTINUOUS
  0
VERTEX
 10
39.200000
 20
115.500000
 30
0.000000
  8
2
 62
7
  6
CONTINUOUS
  0
VERTEX
 10
38.500000
 20
115.500000
 30
0.000000
  8
2
 62
7
  6
CONTINUOUS
  0
VERTEX
 10
38.500000
 20
109.500000
 30
0.000000
  8
2
 62
7
  6
CONTINUOUS
  0
SEQEND
  0
SOLID
  8
2
 62
255
  6
CONTINUOUS
 10
14.400000
 20
110.200000
 11
14.400000
 21
114.800000
 12
11.700000
 22
110.200000
 13
11.700000
 23
114.800000
  0
POLYLINE
  8
2
 62
7
  6
CONTINUOUS
 70
1
 66
1
  0
VERTEX
 10
14.400000
 20
110.200000
 30
0.000000
  8
2
 62
7
  6
CONTINUOUS
  0
VERTEX
 10
14.400000
 20
114.800000
 30
0.000000
  8
2
 62
7
  6
CONTINUOUS
  0
VERTEX
 10
11.700000
 20
114.800000
 30
0.000000
  8
2
 62
7
  6
CONTINUOUS
  0
VERTEX
 10
11.700000
 20
110.200000
 30
0.000000
  8
2
 62
7
  6
CONTINUOUS
  0
SEQEND
  0
LINE
  8
2
 62
7
  6
L000000000000000000
 10
14.000000
 20
112.500000
 11
12.100000
 21
112.500000
  0
SOLID
  8
2
 62
7
  6
L000000000000000000
 10
14.300000
 20
111.000000
 11
14.300000
 21
111.400000
 12
11.800000
 22
111.000000
 13
11.800000
 23
111.400000
  0
POLYLINE
  8
2
 62
7
  6
L000000000000000000
 70
1
 66
1
  0
VERTEX
 10
14.300000
 20
111.000000
 30
0.000000
  8
2
 62
7
  6
L000000000000000000
  0
VERTEX
 10
14.300000
 20
111.400000
 30
0.000000
  8
2
 62
7
  6
L000000000000000000
  0
VERTEX
 10
11.800000
 20
111.400000
 30
0.000000
  8
2
 62
7
  6
L000000000000000000
  0
VERTEX
 10
11.800000
 20
111.000000
 30
0.000000
  8
2
 62
7
  6
L000000000000000000
  0
SEQEND
  0
SOLID
  8
2
 62
1
  6
CONTINUOUS
 10
11.800000
 20
114.200000
 11
11.800000
 21
114.700000
 12
14.300000
 22
114.200000
 13
14.300000
 23
114.700000
  0
POLYLINE
  8
2
 62
7
  6
CONTINUOUS
 70
1
 66
1
  0
VERTEX
 10
11.800000
 20
114.200000
 30
0.000000
  8
2
 62
7
  6
CONTINUOUS
  0
VERTEX
 10
11.800000
 20
114.700000
 30
0.000000
  8
2
 62
7
  6
CONTINUOUS
  0
VERTEX
 10
14.300000
 20
114.700000
 30
0.000000
  8
2
 62
7
  6
CONTINUOUS
  0
VERTEX
 10
14.300000
 20
114.200000
 30
0.000000
  8
2
 62
7
  6
CONTINUOUS
  0
SEQEND
  0
POLYLINE
  8
2
 62
7
  6
CONTINUOUS
 70
0
 66
1
  0
VERTEX
 10
12.100000
 20
111.400000
  8
2
 62
7
  6
CONTINUOUS
  0
VERTEX
 10
12.100000
 20
112.800000
  8
2
 62
7
  6
CONTINUOUS
  0
VERTEX
 10
14.000000
 20
112.800000
  8
2
 62
7
  6
CONTINUOUS
  0
VERTEX
 10
14.000000
 20
111.400000
  8
2
 62
7
  6
CONTINUOUS
  0
SEQEND
  0
POLYLINE
  8
2
 62
7
  6
L000000000000000000
 70
0
 66
1
  0
VERTEX
 10
13.000000
 20
114.200000
  8
2
 62
7
  6
L000000000000000000
  0
VERTEX
 10
13.000000
 20
112.800000
  8
2
 62
7
  6
L000000000000000000
  0
SEQEND
  0
POLYLINE
  8
2
 62
7
  6
L000000000000000000
 70
0
 66
1
  0
VERTEX
 10
13.000000
 20
111.000000
  8
2
 62
7
  6
L000000000000000000
  0
VERTEX
 10
13.000000
 20
110.200000
  8
2
 62
7
  6
L000000000000000000
  0
SEQEND
  0
POLYLINE
  8
2
 62
7
  6
CONTINUOUS
 70
1
 66
1
  0
VERTEX
 10
12.700000
 20
110.600000
 30
0.000000
  8
2
 62
7
  6
CONTINUOUS
  0
VERTEX
 10
12.700000
 20
110.900000
 30
0.000000
  8
2
 62
7
  6
CONTINUOUS
  0
VERTEX
 10
11.700000
 20
110.900000
 30
0.000000
  8
2
 62
7
  6
CONTINUOUS
  0
VERTEX
 10
11.700000
 20
110.600000
 30
0.000000
  8
2
 62
7
  6
CONTINUOUS
  0
SEQEND
  0
SOLID
  8
2
 62
255
  6
CONTINUOUS
 10
17.100000
 20
110.200000
 11
17.100000
 21
114.800000
 12
14.400000
 22
110.200000
 13
14.400000
 23
114.800000
  0
POLYLINE
  8
2
 62
7
  6
CONTINUOUS
 70
1
 66
1
  0
VERTEX
 10
17.100000
 20
110.200000
 30
0.000000
  8
2
 62
7
  6
CONTINUOUS
  0
VERTEX
 10
17.100000
 20
114.800000
 30
0.000000
  8
2
 62
7
  6
CONTINUOUS
  0
VERTEX
 10
14.400000
 20
114.800000
 30
0.000000
  8
2
 62
7
  6
CONTINUOUS
  0
VERTEX
 10
14.400000
 20
110.200000
 30
0.000000
  8
2
 62
7
  6
CONTINUOUS
  0
SEQEND
  0
LINE
  8
2
 62
7
  6
L000000000000000000
 10
16.700000
 20
112.500000
 11
14.800000
 21
112.500000
  0
SOLID
  8
2
 62
7
  6
L000000000000000000
 10
17.000000
 20
111.000000
 11
17.000000
 21
111.400000
 12
14.500000
 22
111.000000
 13
14.500000
 23
111.400000
  0
POLYLINE
  8
2
 62
7
  6
L000000000000000000
 70
1
 66
1
  0
VERTEX
 10
17.000000
 20
111.000000
 30
0.000000
  8
2
 62
7
  6
L000000000000000000
  0
VERTEX
 10
17.000000
 20
111.400000
 30
0.000000
  8
2
 62
7
  6
L000000000000000000
  0
VERTEX
 10
14.500000
 20
111.400000
 30
0.000000
  8
2
 62
7
  6
L000000000000000000
  0
VERTEX
 10
14.500000
 20
111.000000
 30
0.000000
  8
2
 62
7
  6
L000000000000000000
  0
SEQEND
  0
SOLID
  8
2
 62
1
  6
CONTINUOUS
 10
14.500000
 20
114.200000
 11
14.500000
 21
114.700000
 12
17.000000
 22
114.200000
 13
17.000000
 23
114.700000
  0
POLYLINE
  8
2
 62
7
  6
CONTINUOUS
 70
1
 66
1
  0
VERTEX
 10
14.500000
 20
114.200000
 30
0.000000
  8
2
 62
7
  6
CONTINUOUS
  0
VERTEX
 10
14.500000
 20
114.700000
 30
0.000000
  8
2
 62
7
  6
CONTINUOUS
  0
VERTEX
 10
17.000000
 20
114.700000
 30
0.000000
  8
2
 62
7
  6
CONTINUOUS
  0
VERTEX
 10
17.000000
 20
114.200000
 30
0.000000
  8
2
 62
7
  6
CONTINUOUS
  0
SEQEND
  0
POLYLINE
  8
2
 62
7
  6
CONTINUOUS
 70
0
 66
1
  0
VERTEX
 10
14.800000
 20
111.400000
  8
2
 62
7
  6
CONTINUOUS
  0
VERTEX
 10
14.800000
 20
112.800000
  8
2
 62
7
  6
CONTINUOUS
  0
VERTEX
 10
16.700000
 20
112.800000
  8
2
 62
7
  6
CONTINUOUS
  0
VERTEX
 10
16.700000
 20
111.400000
  8
2
 62
7
  6
CONTINUOUS
  0
SEQEND
  0
POLYLINE
  8
2
 62
7
  6
L000000000000000000
 70
0
 66
1
  0
VERTEX
 10
15.700000
 20
114.200000
  8
2
 62
7
  6
L000000000000000000
  0
VERTEX
 10
15.700000
 20
112.800000
  8
2
 62
7
  6
L000000000000000000
  0
SEQEND
  0
POLYLINE
  8
2
 62
7
  6
L000000000000000000
 70
0
 66
1
  0
VERTEX
 10
15.700000
 20
111.000000
  8
2
 62
7
  6
L000000000000000000
  0
VERTEX
 10
15.700000
 20
110.200000
  8
2
 62
7
  6
L000000000000000000
  0
SEQEND
  0
POLYLINE
  8
2
 62
7
  6
CONTINUOUS
 70
1
 66
1
  0
VERTEX
 10
15.400000
 20
110.600000
 30
0.000000
  8
2
 62
7
  6
CONTINUOUS
  0
VERTEX
 10
15.400000
 20
110.900000
 30
0.000000
  8
2
 62
7
  6
CONTINUOUS
  0
VERTEX
 10
14.400000
 20
110.900000
 30
0.000000
  8
2
 62
7
  6
CONTINUOUS
  0
VERTEX
 10
14.400000
 20
110.600000
 30
0.000000
  8
2
 62
7
  6
CONTINUOUS
  0
SEQEND
  0
SOLID
  8
2
 62
255
  6
CONTINUOUS
 10
19.800000
 20
110.200000
 11
19.800000
 21
114.800000
 12
17.100000
 22
110.200000
 13
17.100000
 23
114.800000
  0
POLYLINE
  8
2
 62
7
  6
CONTINUOUS
 70
1
 66
1
  0
VERTEX
 10
19.800000
 20
110.200000
 30
0.000000
  8
2
 62
7
  6
CONTINUOUS
  0
VERTEX
 10
19.800000
 20
114.800000
 30
0.000000
  8
2
 62
7
  6
CONTINUOUS
  0
VERTEX
 10
17.100000
 20
114.800000
 30
0.000000
  8
2
 62
7
  6
CONTINUOUS
  0
VERTEX
 10
17.100000
 20
110.200000
 30
0.000000
  8
2
 62
7
  6
CONTINUOUS
  0
SEQEND
  0
LINE
  8
2
 62
7
  6
L000000000000000000
 10
19.400000
 20
112.500000
 11
17.500000
 21
112.500000
  0
SOLID
  8
2
 62
7
  6
L000000000000000000
 10
19.700000
 20
111.000000
 11
19.700000
 21
111.400000
 12
17.200000
 22
111.000000
 13
17.200000
 23
111.400000
  0
POLYLINE
  8
2
 62
7
  6
L000000000000000000
 70
1
 66
1
  0
VERTEX
 10
19.700000
 20
111.000000
 30
0.000000
  8
2
 62
7
  6
L000000000000000000
  0
VERTEX
 10
19.700000
 20
111.400000
 30
0.000000
  8
2
 62
7
  6
L000000000000000000
  0
VERTEX
 10
17.200000
 20
111.400000
 30
0.000000
  8
2
 62
7
  6
L000000000000000000
  0
VERTEX
 10
17.200000
 20
111.000000
 30
0.000000
  8
2
 62
7
  6
L000000000000000000
  0
SEQEND
  0
SOLID
  8
2
 62
1
  6
CONTINUOUS
 10
17.200000
 20
114.200000
 11
17.200000
 21
114.700000
 12
19.700000
 22
114.200000
 13
19.700000
 23
114.700000
  0
POLYLINE
  8
2
 62
7
  6
CONTINUOUS
 70
1
 66
1
  0
VERTEX
 10
17.200000
 20
114.200000
 30
0.000000
  8
2
 62
7
  6
CONTINUOUS
  0
VERTEX
 10
17.200000
 20
114.700000
 30
0.000000
  8
2
 62
7
  6
CONTINUOUS
  0
VERTEX
 10
19.700000
 20
114.700000
 30
0.000000
  8
2
 62
7
  6
CONTINUOUS
  0
VERTEX
 10
19.700000
 20
114.200000
 30
0.000000
  8
2
 62
7
  6
CONTINUOUS
  0
SEQEND
  0
POLYLINE
  8
2
 62
7
  6
CONTINUOUS
 70
0
 66
1
  0
VERTEX
 10
17.500000
 20
111.400000
  8
2
 62
7
  6
CONTINUOUS
  0
VERTEX
 10
17.500000
 20
112.800000
  8
2
 62
7
  6
CONTINUOUS
  0
VERTEX
 10
19.400000
 20
112.800000
  8
2
 62
7
  6
CONTINUOUS
  0
VERTEX
 10
19.400000
 20
111.400000
  8
2
 62
7
  6
CONTINUOUS
  0
SEQEND
  0
POLYLINE
  8
2
 62
7
  6
L000000000000000000
 70
0
 66
1
  0
VERTEX
 10
18.400000
 20
114.200000
  8
2
 62
7
  6
L000000000000000000
  0
VERTEX
 10
18.400000
 20
112.800000
  8
2
 62
7
  6
L000000000000000000
  0
SEQEND
  0
POLYLINE
  8
2
 62
7
  6
L000000000000000000
 70
0
 66
1
  0
VERTEX
 10
18.400000
 20
111.000000
  8
2
 62
7
  6
L000000000000000000
  0
VERTEX
 10
18.400000
 20
110.200000
  8
2
 62
7
  6
L000000000000000000
  0
SEQEND
  0
POLYLINE
  8
2
 62
7
  6
CONTINUOUS
 70
1
 66
1
  0
VERTEX
 10
18.100000
 20
110.600000
 30
0.000000
  8
2
 62
7
  6
CONTINUOUS
  0
VERTEX
 10
18.100000
 20
110.900000
 30
0.000000
  8
2
 62
7
  6
CONTINUOUS
  0
VERTEX
 10
17.100000
 20
110.900000
 30
0.000000
  8
2
 62
7
  6
CONTINUOUS
  0
VERTEX
 10
17.100000
 20
110.600000
 30
0.000000
  8
2
 62
7
  6
CONTINUOUS
  0
SEQEND
  0
SOLID
  8
2
 62
255
  6
CONTINUOUS
 10
22.500000
 20
110.200000
 11
22.500000
 21
114.800000
 12
19.800000
 22
110.200000
 13
19.800000
 23
114.800000
  0
POLYLINE
  8
2
 62
7
  6
CONTINUOUS
 70
1
 66
1
  0
VERTEX
 10
22.500000
 20
110.200000
 30
0.000000
  8
2
 62
7
  6
CONTINUOUS
  0
VERTEX
 10
22.500000
 20
114.800000
 30
0.000000
  8
2
 62
7
  6
CONTINUOUS
  0
VERTEX
 10
19.800000
 20
114.800000
 30
0.000000
  8
2
 62
7
  6
CONTINUOUS
  0
VERTEX
 10
19.800000
 20
110.200000
 30
0.000000
  8
2
 62
7
  6
CONTINUOUS
  0
SEQEND
  0
LINE
  8
2
 62
7
  6
L000000000000000000
 10
22.100000
 20
112.500000
 11
20.200000
 21
112.500000
  0
SOLID
  8
2
 62
7
  6
L000000000000000000
 10
22.400000
 20
111.000000
 11
22.400000
 21
111.400000
 12
19.900000
 22
111.000000
 13
19.900000
 23
111.400000
  0
POLYLINE
  8
2
 62
7
  6
L000000000000000000
 70
1
 66
1
  0
VERTEX
 10
22.400000
 20
111.000000
 30
0.000000
  8
2
 62
7
  6
L000000000000000000
  0
VERTEX
 10
22.400000
 20
111.400000
 30
0.000000
  8
2
 62
7
  6
L000000000000000000
  0
VERTEX
 10
19.900000
 20
111.400000
 30
0.000000
  8
2
 62
7
  6
L000000000000000000
  0
VERTEX
 10
19.900000
 20
111.000000
 30
0.000000
  8
2
 62
7
  6
L000000000000000000
  0
SEQEND
  0
SOLID
  8
2
 62
1
  6
CONTINUOUS
 10
19.900000
 20
114.200000
 11
19.900000
 21
114.700000
 12
22.400000
 22
114.200000
 13
22.400000
 23
114.700000
  0
POLYLINE
  8
2
 62
7
  6
CONTINUOUS
 70
1
 66
1
  0
VERTEX
 10
19.900000
 20
114.200000
 30
0.000000
  8
2
 62
7
  6
CONTINUOUS
  0
VERTEX
 10
19.900000
 20
114.700000
 30
0.000000
  8
2
 62
7
  6
CONTINUOUS
  0
VERTEX
 10
22.400000
 20
114.700000
 30
0.000000
  8
2
 62
7
  6
CONTINUOUS
  0
VERTEX
 10
22.400000
 20
114.200000
 30
0.000000
  8
2
 62
7
  6
CONTINUOUS
  0
SEQEND
  0
POLYLINE
  8
2
 62
7
  6
CONTINUOUS
 70
0
 66
1
  0
VERTEX
 10
20.200000
 20
111.400000
  8
2
 62
7
  6
CONTINUOUS
  0
VERTEX
 10
20.200000
 20
112.800000
  8
2
 62
7
  6
CONTINUOUS
  0
VERTEX
 10
22.100000
 20
112.800000
  8
2
 62
7
  6
CONTINUOUS
  0
VERTEX
 10
22.100000
 20
111.400000
  8
2
 62
7
  6
CONTINUOUS
  0
SEQEND
  0
POLYLINE
  8
2
 62
7
  6
L000000000000000000
 70
0
 66
1
  0
VERTEX
 10
21.100000
 20
114.200000
  8
2
 62
7
  6
L000000000000000000
  0
VERTEX
 10
21.100000
 20
112.800000
  8
2
 62
7
  6
L000000000000000000
  0
SEQEND
  0
POLYLINE
  8
2
 62
7
  6
L000000000000000000
 70
0
 66
1
  0
VERTEX
 10
21.100000
 20
111.000000
  8
2
 62
7
  6
L000000000000000000
  0
VERTEX
 10
21.100000
 20
110.200000
  8
2
 62
7
  6
L000000000000000000
  0
SEQEND
  0
POLYLINE
  8
2
 62
7
  6
CONTINUOUS
 70
1
 66
1
  0
VERTEX
 10
20.800000
 20
110.600000
 30
0.000000
  8
2
 62
7
  6
CONTINUOUS
  0
VERTEX
 10
20.800000
 20
110.900000
 30
0.000000
  8
2
 62
7
  6
CONTINUOUS
  0
VERTEX
 10
19.800000
 20
110.900000
 30
0.000000
  8
2
 62
7
  6
CONTINUOUS
  0
VERTEX
 10
19.800000
 20
110.600000
 30
0.000000
  8
2
 62
7
  6
CONTINUOUS
  0
SEQEND
  0
POLYLINE
  8
2
 62
7
  6
L014100020032000000
 70
1
 66
1
  0
VERTEX
 10
55.500000
 20
83.300000
 30
0.000000
  8
2
 62
7
  6
L014100020032000000
  0
VERTEX
 10
55.500000
 20
62.800000
 30
0.000000
  8
2
 62
7
  6
L014100020032000000
  0
VERTEX
 10
69.500000
 20
62.800000
 30
0.000000
  8
2
 62
7
  6
L014100020032000000
  0
VERTEX
 10
69.500000
 20
83.300000
 30
0.000000
  8
2
 62
7
  6
L014100020032000000
  0
SEQEND
  0
SOLID
  8
2
 62
255
  6
CONTINUOUS
 10
69.300000
 20
79.500000
 11
69.300000
 21
70.000000
 12
55.700000
 22
79.500000
 13
55.700000
 23
70.000000
  0
POLYLINE
  8
2
 62
7
  6
CONTINUOUS
 70
1
 66
1
  0
VERTEX
 10
69.300000
 20
79.500000
 30
0.000000
  8
2
 62
7
  6
CONTINUOUS
  0
VERTEX
 10
69.300000
 20
70.000000
 30
0.000000
  8
2
 62
7
  6
CONTINUOUS
  0
VERTEX
 10
55.700000
 20
70.000000
 30
0.000000
  8
2
 62
7
  6
CONTINUOUS
  0
VERTEX
 10
55.700000
 20
79.500000
 30
0.000000
  8
2
 62
7
  6
CONTINUOUS
  0
SEQEND
  0
POLYLINE
  8
2
 62
7
  6
CONTINUOUS
 70
0
 66
1
  0
VERTEX
 10
68.300000
 20
71.000000
  8
2
 62
7
  6
CONTINUOUS
  0
VERTEX
 10
68.700000
 20
71.000000
  8
2
 62
7
  6
CONTINUOUS
  0
SEQEND
  0
CIRCLE
  8
2
 62
7
  6
CONTINUOUS
 10
68.500000
 20
71.000000
 30
0.0
 40
0.100000
  0
POLYLINE
  8
2
 62
7
  6
CONTINUOUS
 70
1
 66
1
  0
VERTEX
 10
68.700000
 20
70.800000
 30
0.000000
  8
2
 62
7
  6
CONTINUOUS
  0
VERTEX
 10
68.700000
 20
71.200000
 30
0.000000
  8
2
 62
7
  6
CONTINUOUS
  0
VERTEX
 10
68.300000
 20
71.200000
 30
0.000000
  8
2
 62
7
  6
CONTINUOUS
  0
VERTEX
 10
68.300000
 20
70.800000
 30
0.000000
  8
2
 62
7
  6
CONTINUOUS
  0
SEQEND
  0
POLYLINE
  8
2
 62
7
  6
CONTINUOUS
 70
1
 66
1
  0
VERTEX
 10
66.400000
 20
70.800000
 30
0.000000
  8
2
 62
7
  6
CONTINUOUS
  0
VERTEX
 10
66.400000
 20
71.600000
 30
0.000000
  8
2
 62
7
  6
CONTINUOUS
  0
VERTEX
 10
65.600000
 20
71.600000
 30
0.000000
  8
2
 62
7
  6
CONTINUOUS
  0
VERTEX
 10
65.600000
 20
70.800000
 30
0.000000
  8
2
 62
7
  6
CONTINUOUS
  0
SEQEND
  0
POLYLINE
  8
2
 62
7
  6
CONTINUOUS
 70
1
 66
1
  0
VERTEX
 10
69.000000
 20
71.900000
 30
0.000000
  8
2
 62
7
  6
CONTINUOUS
  0
VERTEX
 10
69.000000
 20
79.200000
 30
0.000000
  8
2
 62
7
  6
CONTINUOUS
  0
VERTEX
 10
65.600000
 20
79.200000
 30
0.000000
  8
2
 62
7
  6
CONTINUOUS
  0
VERTEX
 10
65.600000
 20
71.900000
 30
0.000000
  8
2
 62
7
  6
CONTINUOUS
  0
SEQEND
  0
POLYLINE
  8
2
 62
7
  6
CONTINUOUS
 70
1
 66
1
  0
VERTEX
 10
57.700000
 20
77.000000
 30
0.000000
  8
2
 62
7
  6
CONTINUOUS
  0
VERTEX
 10
57.700000
 20
78.200000
 30
0.000000
  8
2
 62
7
  6
CONTINUOUS
  0
VERTEX
 10
56.500000
 20
78.200000
 30
0.000000
  8
2
 62
7
  6
CONTINUOUS
  0
VERTEX
 10
56.500000
 20
77.000000
 30
0.000000
  8
2
 62
7
  6
CONTINUOUS
  0
SEQEND
  0
CIRCLE
  8
2
 62
7
  6
CONTINUOUS
 10
57.100000
 20
77.600000
 30
0.0
 40
0.400000
  0
SOLID
  8
2
 62
255
  6
CONTINUOUS
 10
65.400000
 20
71.000000
 11
65.400000
 21
79.200000
 12
59.600000
 22
71.000000
 13
59.600000
 23
79.200000
  0
POLYLINE
  8
2
 62
7
  6
CONTINUOUS
 70
1
 66
1
  0
VERTEX
 10
65.400000
 20
71.000000
 30
0.000000
  8
2
 62
7
  6
CONTINUOUS
  0
VERTEX
 10
65.400000
 20
79.200000
 30
0.000000
  8
2
 62
7
  6
CONTINUOUS
  0
VERTEX
 10
59.600000
 20
79.200000
 30
0.000000
  8
2
 62
7
  6
CONTINUOUS
  0
VERTEX
 10
59.600000
 20
71.000000
 30
0.000000
  8
2
 62
7
  6
CONTINUOUS
  0
SEQEND
  0
SOLID
  8
2
 62
1
  6
CONTINUOUS
 10
65.400000
 20
78.300000
 11
65.400000
 21
79.200000
 12
59.600000
 22
78.300000
 13
59.600000
 23
79.200000
  0
POLYLINE
  8
2
 62
7
  6
CONTINUOUS
 70
1
 66
1
  0
VERTEX
 10
65.400000
 20
78.300000
 30
0.000000
  8
2
 62
7
  6
CONTINUOUS
  0
VERTEX
 10
65.400000
 20
79.200000
 30
0.000000
  8
2
 62
7
  6
CONTINUOUS
  0
VERTEX
 10
59.600000
 20
79.200000
 30
0.000000
  8
2
 62
7
  6
CONTINUOUS
  0
VERTEX
 10
59.600000
 20
78.300000
 30
0.000000
  8
2
 62
7
  6
CONTINUOUS
  0
SEQEND
  0
POLYLINE
  8
2
 62
7
  6
CONTINUOUS
 70
1
 66
1
  0
VERTEX
 10
63.800000
 20
71.500000
 30
0.000000
  8
2
 62
7
  6
CONTINUOUS
  0
VERTEX
 10
63.800000
 20
77.700000
 30
0.000000
  8
2
 62
7
  6
CONTINUOUS
  0
VERTEX
 10
61.200000
 20
77.700000
 30
0.000000
  8
2
 62
7
  6
CONTINUOUS
  0
VERTEX
 10
61.200000
 20
71.500000
 30
0.000000
  8
2
 62
7
  6
CONTINUOUS
  0
SEQEND
  0
TEXT
  8
2
 62
7
  6
CONTINUOUS
 10
59.900000
 20
78.633333
 40
0.500000
  1
ABB
 50
0.000000
 51
0.000000
 72
0
 73
0
  0
TEXT
  8
2
 62
7
  6
CONTINUOUS
 10
65.000000
 20
78.633333
 40
0.500000
  1
XT5
 50
0.000000
 51
0.000000
 72
2
 73
0
 11
65.000000
 21
78.633333
  0
TEXT
  8
2
 62
7
  6
CONTINUOUS
 10
60.700000
 20
72.833333
 40
0.800000
  1
0
 50
0.000000
 51
0.000000
 72
1
 73
0
 11
60.700000
 21
72.833333
  0
TEXT
  8
2
 62
7
  6
CONTINUOUS
 10
60.700000
 20
76.133333
 40
0.800000
  1
I
 50
0.000000
 51
0.000000
 72
1
 73
0
 11
60.700000
 21
76.133333
  0
SOLID
  8
2
 62
255
  6
CONTINUOUS
 10
63.700000
 20
71.700000
 11
63.700000
 21
72.300000
 12
61.300000
 22
71.700000
 13
61.300000
 23
72.300000
  0
POLYLINE
  8
2
 62
7
  6
CONTINUOUS
 70
1
 66
1
  0
VERTEX
 10
63.700000
 20
71.700000
 30
0.000000
  8
2
 62
7
  6
CONTINUOUS
  0
VERTEX
 10
63.700000
 20
72.300000
 30
0.000000
  8
2
 62
7
  6
CONTINUOUS
  0
VERTEX
 10
61.300000
 20
72.300000
 30
0.000000
  8
2
 62
7
  6
CONTINUOUS
  0
VERTEX
 10
61.300000
 20
71.700000
 30
0.000000
  8
2
 62
7
  6
CONTINUOUS
  0
SEQEND
  0
POLYLINE
  8
2
 62
7
  6
CONTINUOUS
 70
0
 66
1
  0
VERTEX
 10
61.300000
 20
72.300000
  8
2
 62
7
  6
CONTINUOUS
  0
VERTEX
 10
61.300000
 20
74.700000
  8
2
 62
7
  6
CONTINUOUS
  0
VERTEX
 10
63.700000
 20
74.700000
  8
2
 62
7
  6
CONTINUOUS
  0
VERTEX
 10
63.700000
 20
72.300000
  8
2
 62
7
  6
CONTINUOUS
  0
SEQEND
  0
POLYLINE
  8
2
 62
7
  6
CONTINUOUS
 70
0
 66
1
  0
VERTEX
 10
61.300000
 20
76.800000
  8
2
 62
7
  6
CONTINUOUS
  0
VERTEX
 10
63.700000
 20
76.800000
  8
2
 62
7
  6
CONTINUOUS
  0
SEQEND
  0
POLYLINE
  8
2
 62
7
  6
CONTINUOUS
 70
0
 66
1
  0
VERTEX
 10
61.500000
 20
73.200000
  8
2
 62
7
  6
CONTINUOUS
  0
VERTEX
 10
63.500000
 20
73.200000
  8
2
 62
7
  6
CONTINUOUS
  0
SEQEND
  0
POLYLINE
  8
2
 62
7
  6
CONTINUOUS
 70
0
 66
1
  0
VERTEX
 10
61.500000
 20
73.400000
  8
2
 62
7
  6
CONTINUOUS
  0
VERTEX
 10
63.500000
 20
73.400000
  8
2
 62
7
  6
CONTINUOUS
  0
SEQEND
  0
POLYLINE
  8
2
 62
7
  6
CONTINUOUS
 70
0
 66
1
  0
VERTEX
 10
61.500000
 20
73.000000
  8
2
 62
7
  6
CONTINUOUS
  0
VERTEX
 10
63.500000
 20
73.000000
  8
2
 62
7
  6
CONTINUOUS
  0
SEQEND
  0
CIRCLE
  8
2
 62
7
  6
CONTINUOUS
 10
62.500000
 20
72.000000
 30
0.0
 40
0.200000
  0
POLYLINE
  8
2
 62
7
  6
CONTINUOUS
 70
0
 66
1
  0
VERTEX
 10
61.500000
 20
73.600000
  8
2
 62
7
  6
CONTINUOUS
  0
VERTEX
 10
63.500000
 20
73.600000
  8
2
 62
7
  6
CONTINUOUS
  0
SEQEND
  0
POLYLINE
  8
2
 62
7
  6
CONTINUOUS
 70
0
 66
1
  0
VERTEX
 10
61.300000
 20
76.800000
  8
2
 62
7
  6
CONTINUOUS
  0
VERTEX
 10
61.300000
 20
72.400000
  8
2
 62
7
  6
CONTINUOUS
  0
SEQEND
  0
POLYLINE
  8
2
 62
7
  6
CONTINUOUS
 70
0
 66
1
  0
VERTEX
 10
63.700000
 20
76.800000
  8
2
 62
7
  6
CONTINUOUS
  0
VERTEX
 10
63.700000
 20
72.400000
  8
2
 62
7
  6
CONTINUOUS
  0
SEQEND
  0
SOLID
  8
30
 62
255
  6
CONTINUOUS
 10
74.500000
 20
51.600000
 11
74.500000
 21
94.600000
 12
72.500000
 22
51.600000
 13
72.500000
 23
94.600000
  0
POLYLINE
  8
30
 62
7
  6
CONTINUOUS
 70
1
 66
1
  0
VERTEX
 10
74.500000
 20
51.600000
 30
0.000000
  8
30
 62
7
  6
CONTINUOUS
  0
VERTEX
 10
74.500000
 20
94.600000
 30
0.000000
  8
30
 62
7
  6
CONTINUOUS
  0
VERTEX
 10
72.500000
 20
94.600000
 30
0.000000
  8
30
 62
7
  6
CONTINUOUS
  0
VERTEX
 10
72.500000
 20
51.600000
 30
0.000000
  8
30
 62
7
  6
CONTINUOUS
  0
SEQEND
  0
SOLID
  8
30
 62
255
  6
CONTINUOUS
 10
52.500000
 20
51.600000
 11
52.500000
 21
94.600000
 12
50.500000
 22
51.600000
 13
50.500000
 23
94.600000
  0
POLYLINE
  8
30
 62
7
  6
CONTINUOUS
 70
1
 66
1
  0
VERTEX
 10
52.500000
 20
51.600000
 30
0.000000
  8
30
 62
7
  6
CONTINUOUS
  0
VERTEX
 10
52.500000
 20
94.600000
 30
0.000000
  8
30
 62
7
  6
CONTINUOUS
  0
VERTEX
 10
50.500000
 20
94.600000
 30
0.000000
  8
30
 62
7
  6
CONTINUOUS
  0
VERTEX
 10
50.500000
 20
51.600000
 30
0.000000
  8
30
 62
7
  6
CONTINUOUS
  0
SEQEND
  0
SOLID
  8
30
 62
255
  6
CONTINUOUS
 10
24.500000
 20
51.600000
 11
24.500000
 21
94.600000
 12
22.500000
 22
51.600000
 13
22.500000
 23
94.600000
  0
POLYLINE
  8
30
 62
7
  6
CONTINUOUS
 70
1
 66
1
  0
VERTEX
 10
24.500000
 20
51.600000
 30
0.000000
  8
30
 62
7
  6
CONTINUOUS
  0
VERTEX
 10
24.500000
 20
94.600000
 30
0.000000
  8
30
 62
7
  6
CONTINUOUS
  0
VERTEX
 10
22.500000
 20
94.600000
 30
0.000000
  8
30
 62
7
  6
CONTINUOUS
  0
VERTEX
 10
22.500000
 20
51.600000
 30
0.000000
  8
30
 62
7
  6
CONTINUOUS
  0
SEQEND
  0
SOLID
  8
30
 62
255
  6
CONTINUOUS
 10
2.500000
 20
51.600000
 11
2.500000
 21
94.600000
 12
0.500000
 22
51.600000
 13
0.500000
 23
94.600000
  0
POLYLINE
  8
30
 62
7
  6
CONTINUOUS
 70
1
 66
1
  0
VERTEX
 10
2.500000
 20
51.600000
 30
0.000000
  8
30
 62
7
  6
CONTINUOUS
  0
VERTEX
 10
2.500000
 20
94.600000
 30
0.000000
  8
30
 62
7
  6
CONTINUOUS
  0
VERTEX
 10
0.500000
 20
94.600000
 30
0.000000
  8
30
 62
7
  6
CONTINUOUS
  0
VERTEX
 10
0.500000
 20
51.600000
 30
0.000000
  8
30
 62
7
  6
CONTINUOUS
  0
SEQEND
  0
POLYLINE
  8
30
 62
7
  6
CONTINUOUS
 70
1
 66
1
  0
VERTEX
 10
4.000000
 20
21.000000
 30
0.000000
  8
30
 62
7
  6
CONTINUOUS
  0
VERTEX
 10
4.000000
 20
29.000000
 30
0.000000
  8
30
 62
7
  6
CONTINUOUS
  0
VERTEX
 10
2.000000
 20
29.000000
 30
0.000000
  8
30
 62
7
  6
CONTINUOUS
  0
VERTEX
 10
2.000000
 20
21.000000
 30
0.000000
  8
30
 62
7
  6
CONTINUOUS
  0
SEQEND
  0
POLYLINE
  8
30
 62
7
  6
CONTINUOUS
 70
1
 66
1
  0
VERTEX
 10
4.000000
 20
6.000000
 30
0.000000
  8
30
 62
7
  6
CONTINUOUS
  0
VERTEX
 10
4.000000
 20
14.000000
 30
0.000000
  8
30
 62
7
  6
CONTINUOUS
  0
VERTEX
 10
2.000000
 20
14.000000
 30
0.000000
  8
30
 62
7
  6
CONTINUOUS
  0
VERTEX
 10
2.000000
 20
6.000000
 30
0.000000
  8
30
 62
7
  6
CONTINUOUS
  0
SEQEND
  0
POLYLINE
  8
30
 62
7
  6
CONTINUOUS
 70
1
 66
1
  0
VERTEX
 10
73.000000
 20
21.100000
 30
0.000000
  8
30
 62
7
  6
CONTINUOUS
  0
VERTEX
 10
73.000000
 20
29.100000
 30
0.000000
  8
30
 62
7
  6
CONTINUOUS
  0
VERTEX
 10
71.000000
 20
29.100000
 30
0.000000
  8
30
 62
7
  6
CONTINUOUS
  0
VERTEX
 10
71.000000
 20
21.100000
 30
0.000000
  8
30
 62
7
  6
CONTINUOUS
  0
SEQEND
  0
POLYLINE
  8
30
 62
7
  6
CONTINUOUS
 70
1
 66
1
  0
VERTEX
 10
73.000000
 20
6.100000
 30
0.000000
  8
30
 62
7
  6
CONTINUOUS
  0
VERTEX
 10
73.000000
 20
14.100000
 30
0.000000
  8
30
 62
7
  6
CONTINUOUS
  0
VERTEX
 10
71.000000
 20
14.100000
 30
0.000000
  8
30
 62
7
  6
CONTINUOUS
  0
VERTEX
 10
71.000000
 20
6.100000
 30
0.000000
  8
30
 62
7
  6
CONTINUOUS
  0
SEQEND
  0
SOLID
  8
30
 62
255
  6
CONTINUOUS
 10
68.600000
 20
100.000000
 11
68.600000
 21
101.000000
 12
56.400000
 22
100.000000
 13
56.400000
 23
101.000000
  0
POLYLINE
  8
30
 62
7
  6
CONTINUOUS
 70
1
 66
1
  0
VERTEX
 10
68.600000
 20
100.000000
 30
0.000000
  8
30
 62
7
  6
CONTINUOUS
  0
VERTEX
 10
68.600000
 20
101.000000
 30
0.000000
  8
30
 62
7
  6
CONTINUOUS
  0
VERTEX
 10
56.400000
 20
101.000000
 30
0.000000
  8
30
 62
7
  6
CONTINUOUS
  0
VERTEX
 10
56.400000
 20
100.000000
 30
0.000000
  8
30
 62
7
  6
CONTINUOUS
  0
SEQEND
  0
SOLID
  8
157
 62
255
  6
CONTINUOUS
 10
40.500000
 20
87.800000
 11
40.500000
 21
95.400000
 12
34.500000
 22
87.800000
 13
34.500000
 23
95.400000
  0
POLYLINE
  8
157
 62
7
  6
CONTINUOUS
 70
1
 66
1
  0
VERTEX
 10
40.500000
 20
87.800000
 30
0.000000
  8
157
 62
7
  6
CONTINUOUS
  0
VERTEX
 10
40.500000
 20
95.400000
 30
0.000000
  8
157
 62
7
  6
CONTINUOUS
  0
VERTEX
 10
34.500000
 20
95.400000
 30
0.000000
  8
157
 62
7
  6
CONTINUOUS
  0
VERTEX
 10
34.500000
 20
87.800000
 30
0.000000
  8
157
 62
7
  6
CONTINUOUS
  0
SEQEND
  0
TEXT
  8
157
 62
7
  6
CONTINUOUS
 10
37.500000
 20
90.266667
 40
4.000000
  1
W
 50
0.000000
 51
0.000000
 72
1
 73
0
 11
37.500000
 21
90.266667
  0
SOLID
  8
157
 62
255
  6
CONTINUOUS
 10
40.500000
 20
69.200000
 11
40.500000
 21
76.800000
 12
34.500000
 22
69.200000
 13
34.500000
 23
76.800000
  0
POLYLINE
  8
157
 62
7
  6
CONTINUOUS
 70
1
 66
1
  0
VERTEX
 10
40.500000
 20
69.200000
 30
0.000000
  8
157
 62
7
  6
CONTINUOUS
  0
VERTEX
 10
40.500000
 20
76.800000
 30
0.000000
  8
157
 62
7
  6
CONTINUOUS
  0
VERTEX
 10
34.500000
 20
76.800000
 30
0.000000
  8
157
 62
7
  6
CONTINUOUS
  0
VERTEX
 10
34.500000
 20
69.200000
 30
0.000000
  8
157
 62
7
  6
CONTINUOUS
  0
SEQEND
  0
TEXT
  8
157
 62
7
  6
CONTINUOUS
 10
37.500000
 20
71.666667
 40
4.000000
  1
W
 50
0.000000
 51
0.000000
 72
1
 73
0
 11
37.500000
 21
71.666667
  0
SOLID
  8
157
 62
255
  6
CONTINUOUS
 10
40.500000
 20
50.700000
 11
40.500000
 21
58.300000
 12
34.500000
 22
50.700000
 13
34.500000
 23
58.300000
  0
POLYLINE
  8
157
 62
7
  6
CONTINUOUS
 70
1
 66
1
  0
VERTEX
 10
40.500000
 20
50.700000
 30
0.000000
  8
157
 62
7
  6
CONTINUOUS
  0
VERTEX
 10
40.500000
 20
58.300000
 30
0.000000
  8
157
 62
7
  6
CONTINUOUS
  0
VERTEX
 10
34.500000
 20
58.300000
 30
0.000000
  8
157
 62
7
  6
CONTINUOUS
  0
VERTEX
 10
34.500000
 20
50.700000
 30
0.000000
  8
157
 62
7
  6
CONTINUOUS
  0
SEQEND
  0
TEXT
  8
157
 62
7
  6
CONTINUOUS
 10
37.500000
 20
53.166667
 40
4.000000
  1
W
 50
0.000000
 51
0.000000
 72
1
 73
0
 11
37.500000
 21
53.166667
  0
LINE
  8
160
 62
1
  6
L0141000200320000FF
 10
51.000000
 20
179.000000
 11
51.000000
 21
106.000000
  0
LINE
  8
160
 62
1
  6
L0141000200320000FF
 10
74.000000
 20
179.000000
 11
74.000000
 21
106.000000
  0
LINE
  8
160
 62
1
  6
L0141000400320000FF
 10
74.000000
 20
134.000000
 11
51.000000
 21
134.000000
  0
LINE
  8
160
 62
1
  6
L0141000200320000FF
 10
49.000000
 20
104.000000
 11
49.000000
 21
1.000000
  0
LINE
  8
160
 62
1
  6
L0141000200320000FF
 10
74.000000
 20
104.000000
 11
1.000000
 21
104.000000
  0
SOLID
  8
161
 62
255
  6
CONTINUOUS
 10
57.000000
 20
114.400000
 11
57.000000
 21
115.400000
 12
56.000000
 22
114.400000
 13
56.000000
 23
115.400000
  0
POLYLINE
  8
161
 62
7
  6
CONTINUOUS
 70
1
 66
1
  0
VERTEX
 10
57.000000
 20
114.400000
 30
0.000000
  8
161
 62
7
  6
CONTINUOUS
  0
VERTEX
 10
57.000000
 20
115.400000
 30
0.000000
  8
161
 62
7
  6
CONTINUOUS
  0
VERTEX
 10
56.000000
 20
115.400000
 30
0.000000
  8
161
 62
7
  6
CONTINUOUS
  0
VERTEX
 10
56.000000
 20
114.400000
 30
0.000000
  8
161
 62
7
  6
CONTINUOUS
  0
SEQEND
  0
SOLID
  8
161
 62
255
  6
CONTINUOUS
 10
63.000000
 20
114.400000
 11
63.000000
 21
115.400000
 12
62.000000
 22
114.400000
 13
62.000000
 23
115.400000
  0
POLYLINE
  8
161
 62
7
  6
CONTINUOUS
 70
1
 66
1
  0
VERTEX
 10
63.000000
 20
114.400000
 30
0.000000
  8
161
 62
7
  6
CONTINUOUS
  0
VERTEX
 10
63.000000
 20
115.400000
 30
0.000000
  8
161
 62
7
  6
CONTINUOUS
  0
VERTEX
 10
62.000000
 20
115.400000
 30
0.000000
  8
161
 62
7
  6
CONTINUOUS
  0
VERTEX
 10
62.000000
 20
114.400000
 30
0.000000
  8
161
 62
7
  6
CONTINUOUS
  0
SEQEND
  0
SOLID
  8
161
 62
255
  6
CONTINUOUS
 10
69.000000
 20
114.400000
 11
69.000000
 21
115.400000
 12
68.000000
 22
114.400000
 13
68.000000
 23
115.400000
  0
POLYLINE
  8
161
 62
7
  6
CONTINUOUS
 70
1
 66
1
  0
VERTEX
 10
69.000000
 20
114.400000
 30
0.000000
  8
161
 62
7
  6
CONTINUOUS
  0
VERTEX
 10
69.000000
 20
115.400000
 30
0.000000
  8
161
 62
7
  6
CONTINUOUS
  0
VERTEX
 10
68.000000
 20
115.400000
 30
0.000000
  8
161
 62
7
  6
CONTINUOUS
  0
VERTEX
 10
68.000000
 20
114.400000
 30
0.000000
  8
161
 62
7
  6
CONTINUOUS
  0
SEQEND
  0
SOLID
  8
161
 62
255
  6
CONTINUOUS
 10
57.000000
 20
126.900000
 11
57.000000
 21
127.900000
 12
56.000000
 22
126.900000
 13
56.000000
 23
127.900000
  0
POLYLINE
  8
161
 62
7
  6
CONTINUOUS
 70
1
 66
1
  0
VERTEX
 10
57.000000
 20
126.900000
 30
0.000000
  8
161
 62
7
  6
CONTINUOUS
  0
VERTEX
 10
57.000000
 20
127.900000
 30
0.000000
  8
161
 62
7
  6
CONTINUOUS
  0
VERTEX
 10
56.000000
 20
127.900000
 30
0.000000
  8
161
 62
7
  6
CONTINUOUS
  0
VERTEX
 10
56.000000
 20
126.900000
 30
0.000000
  8
161
 62
7
  6
CONTINUOUS
  0
SEQEND
  0
SOLID
  8
161
 62
255
  6
CONTINUOUS
 10
63.000000
 20
126.900000
 11
63.000000
 21
127.900000
 12
62.000000
 22
126.900000
 13
62.000000
 23
127.900000
  0
POLYLINE
  8
161
 62
7
  6
CONTINUOUS
 70
1
 66
1
  0
VERTEX
 10
63.000000
 20
126.900000
 30
0.000000
  8
161
 62
7
  6
CONTINUOUS
  0
VERTEX
 10
63.000000
 20
127.900000
 30
0.000000
  8
161
 62
7
  6
CONTINUOUS
  0
VERTEX
 10
62.000000
 20
127.900000
 30
0.000000
  8
161
 62
7
  6
CONTINUOUS
  0
VERTEX
 10
62.000000
 20
126.900000
 30
0.000000
  8
161
 62
7
  6
CONTINUOUS
  0
SEQEND
  0
SOLID
  8
161
 62
255
  6
CONTINUOUS
 10
69.000000
 20
126.900000
 11
69.000000
 21
127.900000
 12
68.000000
 22
126.900000
 13
68.000000
 23
127.900000
  0
POLYLINE
  8
161
 62
7
  6
CONTINUOUS
 70
1
 66
1
  0
VERTEX
 10
69.000000
 20
126.900000
 30
0.000000
  8
161
 62
7
  6
CONTINUOUS
  0
VERTEX
 10
69.000000
 20
127.900000
 30
0.000000
  8
161
 62
7
  6
CONTINUOUS
  0
VERTEX
 10
68.000000
 20
127.900000
 30
0.000000
  8
161
 62
7
  6
CONTINUOUS
  0
VERTEX
 10
68.000000
 20
126.900000
 30
0.000000
  8
161
 62
7
  6
CONTINUOUS
  0
SEQEND
  0
SOLID
  8
161
 62
255
  6
CONTINUOUS
 10
57.000000
 20
160.300000
 11
57.000000
 21
161.300000
 12
56.000000
 22
160.300000
 13
56.000000
 23
161.300000
  0
POLYLINE
  8
161
 62
7
  6
CONTINUOUS
 70
1
 66
1
  0
VERTEX
 10
57.000000
 20
160.300000
 30
0.000000
  8
161
 62
7
  6
CONTINUOUS
  0
VERTEX
 10
57.000000
 20
161.300000
 30
0.000000
  8
161
 62
7
  6
CONTINUOUS
  0
VERTEX
 10
56.000000
 20
161.300000
 30
0.000000
  8
161
 62
7
  6
CONTINUOUS
  0
VERTEX
 10
56.000000
 20
160.300000
 30
0.000000
  8
161
 62
7
  6
CONTINUOUS
  0
SEQEND
  0
SOLID
  8
161
 62
255
  6
CONTINUOUS
 10
63.000000
 20
160.300000
 11
63.000000
 21
161.300000
 12
62.000000
 22
160.300000
 13
62.000000
 23
161.300000
  0
POLYLINE
  8
161
 62
7
  6
CONTINUOUS
 70
1
 66
1
  0
VERTEX
 10
63.000000
 20
160.300000
 30
0.000000
  8
161
 62
7
  6
CONTINUOUS
  0
VERTEX
 10
63.000000
 20
161.300000
 30
0.000000
  8
161
 62
7
  6
CONTINUOUS
  0
VERTEX
 10
62.000000
 20
161.300000
 30
0.000000
  8
161
 62
7
  6
CONTINUOUS
  0
VERTEX
 10
62.000000
 20
160.300000
 30
0.000000
  8
161
 62
7
  6
CONTINUOUS
  0
SEQEND
  0
SOLID
  8
161
 62
255
  6
CONTINUOUS
 10
69.000000
 20
160.300000
 11
69.000000
 21
161.300000
 12
68.000000
 22
160.300000
 13
68.000000
 23
161.300000
  0
POLYLINE
  8
161
 62
7
  6
CONTINUOUS
 70
1
 66
1
  0
VERTEX
 10
69.000000
 20
160.300000
 30
0.000000
  8
161
 62
7
  6
CONTINUOUS
  0
VERTEX
 10
69.000000
 20
161.300000
 30
0.000000
  8
161
 62
7
  6
CONTINUOUS
  0
VERTEX
 10
68.000000
 20
161.300000
 30
0.000000
  8
161
 62
7
  6
CONTINUOUS
  0
VERTEX
 10
68.000000
 20
160.300000
 30
0.000000
  8
161
 62
7
  6
CONTINUOUS
  0
SEQEND
  0
SOLID
  8
161
 62
255
  6
CONTINUOUS
 10
57.000000
 20
146.000000
 11
57.000000
 21
145.000000
 12
56.000000
 22
146.000000
 13
56.000000
 23
145.000000
  0
POLYLINE
  8
161
 62
7
  6
CONTINUOUS
 70
1
 66
1
  0
VERTEX
 10
57.000000
 20
146.000000
 30
0.000000
  8
161
 62
7
  6
CONTINUOUS
  0
VERTEX
 10
57.000000
 20
145.000000
 30
0.000000
  8
161
 62
7
  6
CONTINUOUS
  0
VERTEX
 10
56.000000
 20
145.000000
 30
0.000000
  8
161
 62
7
  6
CONTINUOUS
  0
VERTEX
 10
56.000000
 20
146.000000
 30
0.000000
  8
161
 62
7
  6
CONTINUOUS
  0
SEQEND
  0
SOLID
  8
161
 62
255
  6
CONTINUOUS
 10
63.000000
 20
146.000000
 11
63.000000
 21
145.000000
 12
62.000000
 22
146.000000
 13
62.000000
 23
145.000000
  0
POLYLINE
  8
161
 62
7
  6
CONTINUOUS
 70
1
 66
1
  0
VERTEX
 10
63.000000
 20
146.000000
 30
0.000000
  8
161
 62
7
  6
CONTINUOUS
  0
VERTEX
 10
63.000000
 20
145.000000
 30
0.000000
  8
161
 62
7
  6
CONTINUOUS
  0
VERTEX
 10
62.000000
 20
145.000000
 30
0.000000
  8
161
 62
7
  6
CONTINUOUS
  0
VERTEX
 10
62.000000
 20
146.000000
 30
0.000000
  8
161
 62
7
  6
CONTINUOUS
  0
SEQEND
  0
SOLID
  8
161
 62
255
  6
CONTINUOUS
 10
69.000000
 20
146.000000
 11
69.000000
 21
145.000000
 12
68.000000
 22
146.000000
 13
68.000000
 23
145.000000
  0
POLYLINE
  8
161
 62
7
  6
CONTINUOUS
 70
1
 66
1
  0
VERTEX
 10
69.000000
 20
146.000000
 30
0.000000
  8
161
 62
7
  6
CONTINUOUS
  0
VERTEX
 10
69.000000
 20
145.000000
 30
0.000000
  8
161
 62
7
  6
CONTINUOUS
  0
VERTEX
 10
68.000000
 20
145.000000
 30
0.000000
  8
161
 62
7
  6
CONTINUOUS
  0
VERTEX
 10
68.000000
 20
146.000000
 30
0.000000
  8
161
 62
7
  6
CONTINUOUS
  0
SEQEND
  0
SOLID
  8
161
 62
255
  6
CONTINUOUS
 10
57.000000
 20
172.800000
 11
57.000000
 21
173.800000
 12
56.000000
 22
172.800000
 13
56.000000
 23
173.800000
  0
POLYLINE
  8
161
 62
7
  6
CONTINUOUS
 70
1
 66
1
  0
VERTEX
 10
57.000000
 20
172.800000
 30
0.000000
  8
161
 62
7
  6
CONTINUOUS
  0
VERTEX
 10
57.000000
 20
173.800000
 30
0.000000
  8
161
 62
7
  6
CONTINUOUS
  0
VERTEX
 10
56.000000
 20
173.800000
 30
0.000000
  8
161
 62
7
  6
CONTINUOUS
  0
VERTEX
 10
56.000000
 20
172.800000
 30
0.000000
  8
161
 62
7
  6
CONTINUOUS
  0
SEQEND
  0
SOLID
  8
161
 62
255
  6
CONTINUOUS
 10
63.000000
 20
172.800000
 11
63.000000
 21
173.800000
 12
62.000000
 22
172.800000
 13
62.000000
 23
173.800000
  0
POLYLINE
  8
161
 62
7
  6
CONTINUOUS
 70
1
 66
1
  0
VERTEX
 10
63.000000
 20
172.800000
 30
0.000000
  8
161
 62
7
  6
CONTINUOUS
  0
VERTEX
 10
63.000000
 20
173.800000
 30
0.000000
  8
161
 62
7
  6
CONTINUOUS
  0
VERTEX
 10
62.000000
 20
173.800000
 30
0.000000
  8
161
 62
7
  6
CONTINUOUS
  0
VERTEX
 10
62.000000
 20
172.800000
 30
0.000000
  8
161
 62
7
  6
CONTINUOUS
  0
SEQEND
  0
SOLID
  8
161
 62
255
  6
CONTINUOUS
 10
69.000000
 20
172.800000
 11
69.000000
 21
173.800000
 12
68.000000
 22
172.800000
 13
68.000000
 23
173.800000
  0
POLYLINE
  8
161
 62
7
  6
CONTINUOUS
 70
1
 66
1
  0
VERTEX
 10
69.000000
 20
172.800000
 30
0.000000
  8
161
 62
7
  6
CONTINUOUS
  0
VERTEX
 10
69.000000
 20
173.800000
 30
0.000000
  8
161
 62
7
  6
CONTINUOUS
  0
VERTEX
 10
68.000000
 20
173.800000
 30
0.000000
  8
161
 62
7
  6
CONTINUOUS
  0
VERTEX
 10
68.000000
 20
172.800000
 30
0.000000
  8
161
 62
7
  6
CONTINUOUS
  0
SEQEND
  0
SOLID
  8
161
 62
255
  6
CONTINUOUS
 10
57.000000
 20
163.400000
 11
57.000000
 21
164.400000
 12
56.000000
 22
163.400000
 13
56.000000
 23
164.400000
  0
POLYLINE
  8
161
 62
7
  6
CONTINUOUS
 70
1
 66
1
  0
VERTEX
 10
57.000000
 20
163.400000
 30
0.000000
  8
161
 62
7
  6
CONTINUOUS
  0
VERTEX
 10
57.000000
 20
164.400000
 30
0.000000
  8
161
 62
7
  6
CONTINUOUS
  0
VERTEX
 10
56.000000
 20
164.400000
 30
0.000000
  8
161
 62
7
  6
CONTINUOUS
  0
VERTEX
 10
56.000000
 20
163.400000
 30
0.000000
  8
161
 62
7
  6
CONTINUOUS
  0
SEQEND
  0
SOLID
  8
161
 62
255
  6
CONTINUOUS
 10
63.000000
 20
163.400000
 11
63.000000
 21
164.400000
 12
62.000000
 22
163.400000
 13
62.000000
 23
164.400000
  0
POLYLINE
  8
161
 62
7
  6
CONTINUOUS
 70
1
 66
1
  0
VERTEX
 10
63.000000
 20
163.400000
 30
0.000000
  8
161
 62
7
  6
CONTINUOUS
  0
VERTEX
 10
63.000000
 20
164.400000
 30
0.000000
  8
161
 62
7
  6
CONTINUOUS
  0
VERTEX
 10
62.000000
 20
164.400000
 30
0.000000
  8
161
 62
7
  6
CONTINUOUS
  0
VERTEX
 10
62.000000
 20
163.400000
 30
0.000000
  8
161
 62
7
  6
CONTINUOUS
  0
SEQEND
  0
SOLID
  8
161
 62
255
  6
CONTINUOUS
 10
69.000000
 20
163.400000
 11
69.000000
 21
164.400000
 12
68.000000
 22
163.400000
 13
68.000000
 23
164.400000
  0
POLYLINE
  8
161
 62
7
  6
CONTINUOUS
 70
1
 66
1
  0
VERTEX
 10
69.000000
 20
163.400000
 30
0.000000
  8
161
 62
7
  6
CONTINUOUS
  0
VERTEX
 10
69.000000
 20
164.400000
 30
0.000000
  8
161
 62
7
  6
CONTINUOUS
  0
VERTEX
 10
68.000000
 20
164.400000
 30
0.000000
  8
161
 62
7
  6
CONTINUOUS
  0
VERTEX
 10
68.000000
 20
163.400000
 30
0.000000
  8
161
 62
7
  6
CONTINUOUS
  0
SEQEND
  0
SOLID
  8
161
 62
255
  6
CONTINUOUS
 10
57.000000
 20
141.900000
 11
57.000000
 21
142.900000
 12
56.000000
 22
141.900000
 13
56.000000
 23
142.900000
  0
POLYLINE
  8
161
 62
7
  6
CONTINUOUS
 70
1
 66
1
  0
VERTEX
 10
57.000000
 20
141.900000
 30
0.000000
  8
161
 62
7
  6
CONTINUOUS
  0
VERTEX
 10
57.000000
 20
142.900000
 30
0.000000
  8
161
 62
7
  6
CONTINUOUS
  0
VERTEX
 10
56.000000
 20
142.900000
 30
0.000000
  8
161
 62
7
  6
CONTINUOUS
  0
VERTEX
 10
56.000000
 20
141.900000
 30
0.000000
  8
161
 62
7
  6
CONTINUOUS
  0
SEQEND
  0
SOLID
  8
161
 62
255
  6
CONTINUOUS
 10
69.000000
 20
141.900000
 11
69.000000
 21
142.900000
 12
68.000000
 22
141.900000
 13
68.000000
 23
142.900000
  0
POLYLINE
  8
161
 62
7
  6
CONTINUOUS
 70
1
 66
1
  0
VERTEX
 10
69.000000
 20
141.900000
 30
0.000000
  8
161
 62
7
  6
CONTINUOUS
  0
VERTEX
 10
69.000000
 20
142.900000
 30
0.000000
  8
161
 62
7
  6
CONTINUOUS
  0
VERTEX
 10
68.000000
 20
142.900000
 30
0.000000
  8
161
 62
7
  6
CONTINUOUS
  0
VERTEX
 10
68.000000
 20
141.900000
 30
0.000000
  8
161
 62
7
  6
CONTINUOUS
  0
SEQEND
  0
SOLID
  8
161
 62
255
  6
CONTINUOUS
 10
63.000000
 20
141.900000
 11
63.000000
 21
142.900000
 12
62.000000
 22
141.900000
 13
62.000000
 23
142.900000
  0
POLYLINE
  8
161
 62
7
  6
CONTINUOUS
 70
1
 66
1
  0
VERTEX
 10
63.000000
 20
141.900000
 30
0.000000
  8
161
 62
7
  6
CONTINUOUS
  0
VERTEX
 10
63.000000
 20
142.900000
 30
0.000000
  8
161
 62
7
  6
CONTINUOUS
  0
VERTEX
 10
62.000000
 20
142.900000
 30
0.000000
  8
161
 62
7
  6
CONTINUOUS
  0
VERTEX
 10
62.000000
 20
141.900000
 30
0.000000
  8
161
 62
7
  6
CONTINUOUS
  0
SEQEND
  0
ENDBLK
  0
ENDSEC
  0
SECTION
  2
ENTITIES
  0
INSERT
  8
0
 2
wx32kk11s
 10
0.000000
 20
0.000000
 30
0.0
 50
0.0
  0
ENDSEC
  0
EOF
