  0
SECTION
  2
HEADER
  9
$ACADVER
  1
AC1009
  9
$INSBASE
 10
0.0
 20
0.0
 30
0.0
  9
$EXTMIN
 10
0.0
 20
0.0
 30
0.0
  9
$EXTMAX
 10
0.000000
 20
0.000000
 30
0.0
  9
$LIMMIN
 10
0.0
 20
0.0
  9
$LIMMAX
 10
0.000000
 20
0.000000
  0
ENDSEC
  0
SECTION
  2
TABLES
  0
TABLE
  2
LTYPE
 70
5
  0
LTYPE
  2
L0141000200320000FF
 70
64
  3
- - - - - - - -
 72
65
 73
2
 40
0.500000
 49
0.300000
 49
-0.200000
  0
LTYPE
  2
L014100020032FF0000
 70
64
  3
- - - - - - - -
 72
65
 73
2
 40
0.500000
 49
0.300000
 49
-0.200000
  0
LTYPE
  2
CONTINUOUS
 70
64
  3
Solid line
 72
65
 73
0
 40
0.000000
  0
LTYPE
  2
L000000020000FFFFFF
 70
64
  3
Solid line
 72
65
 73
0
 40
0.000000
  0
LTYPE
  2
L014100020032000000
 70
64
  3
- - - - - - - -
 72
65
 73
2
 40
0.500000
 49
0.300000
 49
-0.200000
  0
ENDTAB
  0
TABLE
  2
LAYER
 70
8
  0
LAYER
  2
0
 70
64
 62
7
  6
CONTINUOUS
  0
LAYER
  2
1
 70
64
 62
7
  6
CONTINUOUS
  0
LAYER
  2
2
 70
64
 62
7
  6
CONTINUOUS
  0
LAYER
  2
3
 70
64
 62
-7
  6
CONTINUOUS
  0
LAYER
  2
4
 70
64
 62
7
  6
CONTINUOUS
  0
LAYER
  2
5
 70
64
 62
7
  6
CONTINUOUS
  0
LAYER
  2
6
 70
64
 62
7
  6
CONTINUOUS
  0
LAYER
  2
7
 70
64
 62
7
  6
CONTINUOUS
  0
LAYER
  2
8
 70
64
 62
7
  6
CONTINUOUS
  0
LAYER
  2
9
 70
64
 62
7
  6
CONTINUOUS
  0
LAYER
  2
10
 70
64
 62
7
  6
CONTINUOUS
  0
LAYER
  2
11
 70
64
 62
7
  6
CONTINUOUS
  0
LAYER
  2
12
 70
64
 62
7
  6
CONTINUOUS
  0
LAYER
  2
13
 70
64
 62
7
  6
CONTINUOUS
  0
LAYER
  2
14
 70
64
 62
7
  6
CONTINUOUS
  0
LAYER
  2
15
 70
64
 62
-7
  6
CONTINUOUS
  0
LAYER
  2
16
 70
64
 62
7
  6
CONTINUOUS
  0
LAYER
  2
17
 70
64
 62
7
  6
CONTINUOUS
  0
LAYER
  2
18
 70
64
 62
7
  6
CONTINUOUS
  0
LAYER
  2
19
 70
64
 62
7
  6
CONTINUOUS
  0
LAYER
  2
20
 70
64
 62
7
  6
CONTINUOUS
  0
LAYER
  2
21
 70
64
 62
7
  6
CONTINUOUS
  0
LAYER
  2
22
 70
64
 62
7
  6
CONTINUOUS
  0
LAYER
  2
23
 70
64
 62
7
  6
CONTINUOUS
  0
LAYER
  2
24
 70
64
 62
7
  6
CONTINUOUS
  0
LAYER
  2
25
 70
64
 62
7
  6
CONTINUOUS
  0
LAYER
  2
26
 70
64
 62
7
  6
CONTINUOUS
  0
LAYER
  2
27
 70
64
 62
7
  6
CONTINUOUS
  0
LAYER
  2
28
 70
64
 62
7
  6
CONTINUOUS
  0
LAYER
  2
29
 70
64
 62
-7
  6
CONTINUOUS
  0
LAYER
  2
30
 70
64
 62
-7
  6
CONTINUOUS
  0
LAYER
  2
31
 70
64
 62
7
  6
CONTINUOUS
  0
LAYER
  2
32
 70
64
 62
7
  6
CONTINUOUS
  0
LAYER
  2
33
 70
64
 62
7
  6
CONTINUOUS
  0
LAYER
  2
34
 70
64
 62
7
  6
CONTINUOUS
  0
LAYER
  2
35
 70
64
 62
7
  6
CONTINUOUS
  0
LAYER
  2
36
 70
64
 62
7
  6
CONTINUOUS
  0
LAYER
  2
37
 70
64
 62
7
  6
CONTINUOUS
  0
LAYER
  2
38
 70
64
 62
-7
  6
CONTINUOUS
  0
LAYER
  2
39
 70
64
 62
-7
  6
CONTINUOUS
  0
LAYER
  2
40
 70
64
 62
7
  6
CONTINUOUS
  0
LAYER
  2
41
 70
64
 62
7
  6
CONTINUOUS
  0
LAYER
  2
42
 70
64
 62
7
  6
CONTINUOUS
  0
LAYER
  2
43
 70
64
 62
7
  6
CONTINUOUS
  0
LAYER
  2
44
 70
64
 62
7
  6
CONTINUOUS
  0
LAYER
  2
45
 70
64
 62
7
  6
CONTINUOUS
  0
LAYER
  2
46
 70
64
 62
7
  6
CONTINUOUS
  0
LAYER
  2
47
 70
64
 62
-7
  6
CONTINUOUS
  0
LAYER
  2
48
 70
64
 62
-7
  6
CONTINUOUS
  0
LAYER
  2
49
 70
64
 62
-7
  6
CONTINUOUS
  0
LAYER
  2
50
 70
64
 62
-7
  6
CONTINUOUS
  0
LAYER
  2
51
 70
64
 62
-7
  6
CONTINUOUS
  0
LAYER
  2
52
 70
64
 62
-7
  6
CONTINUOUS
  0
LAYER
  2
53
 70
64
 62
-7
  6
CONTINUOUS
  0
LAYER
  2
54
 70
64
 62
-7
  6
CONTINUOUS
  0
LAYER
  2
55
 70
64
 62
-7
  6
CONTINUOUS
  0
LAYER
  2
56
 70
64
 62
-7
  6
CONTINUOUS
  0
LAYER
  2
57
 70
64
 62
-7
  6
CONTINUOUS
  0
LAYER
  2
58
 70
64
 62
7
  6
CONTINUOUS
  0
LAYER
  2
59
 70
64
 62
-7
  6
CONTINUOUS
  0
LAYER
  2
60
 70
64
 62
-7
  6
CONTINUOUS
  0
LAYER
  2
61
 70
64
 62
7
  6
CONTINUOUS
  0
LAYER
  2
62
 70
64
 62
7
  6
CONTINUOUS
  0
LAYER
  2
63
 70
64
 62
7
  6
CONTINUOUS
  0
LAYER
  2
64
 70
64
 62
7
  6
CONTINUOUS
  0
LAYER
  2
65
 70
64
 62
7
  6
CONTINUOUS
  0
LAYER
  2
66
 70
64
 62
7
  6
CONTINUOUS
  0
LAYER
  2
67
 70
64
 62
7
  6
CONTINUOUS
  0
LAYER
  2
68
 70
64
 62
7
  6
CONTINUOUS
  0
LAYER
  2
69
 70
64
 62
7
  6
CONTINUOUS
  0
LAYER
  2
70
 70
64
 62
7
  6
CONTINUOUS
  0
LAYER
  2
71
 70
64
 62
7
  6
CONTINUOUS
  0
LAYER
  2
72
 70
64
 62
7
  6
CONTINUOUS
  0
LAYER
  2
73
 70
64
 62
7
  6
CONTINUOUS
  0
LAYER
  2
74
 70
64
 62
7
  6
CONTINUOUS
  0
LAYER
  2
75
 70
64
 62
7
  6
CONTINUOUS
  0
LAYER
  2
76
 70
64
 62
7
  6
CONTINUOUS
  0
LAYER
  2
77
 70
64
 62
7
  6
CONTINUOUS
  0
LAYER
  2
78
 70
64
 62
7
  6
CONTINUOUS
  0
LAYER
  2
79
 70
64
 62
7
  6
CONTINUOUS
  0
LAYER
  2
80
 70
64
 62
7
  6
CONTINUOUS
  0
LAYER
  2
81
 70
64
 62
7
  6
CONTINUOUS
  0
LAYER
  2
82
 70
64
 62
7
  6
CONTINUOUS
  0
LAYER
  2
83
 70
64
 62
7
  6
CONTINUOUS
  0
LAYER
  2
84
 70
64
 62
7
  6
CONTINUOUS
  0
LAYER
  2
85
 70
64
 62
7
  6
CONTINUOUS
  0
LAYER
  2
86
 70
64
 62
7
  6
CONTINUOUS
  0
LAYER
  2
87
 70
64
 62
7
  6
CONTINUOUS
  0
LAYER
  2
88
 70
64
 62
7
  6
CONTINUOUS
  0
LAYER
  2
89
 70
64
 62
7
  6
CONTINUOUS
  0
LAYER
  2
90
 70
64
 62
7
  6
CONTINUOUS
  0
LAYER
  2
91
 70
64
 62
7
  6
CONTINUOUS
  0
LAYER
  2
92
 70
64
 62
7
  6
CONTINUOUS
  0
LAYER
  2
93
 70
64
 62
7
  6
CONTINUOUS
  0
LAYER
  2
94
 70
64
 62
7
  6
CONTINUOUS
  0
LAYER
  2
95
 70
64
 62
7
  6
CONTINUOUS
  0
LAYER
  2
96
 70
64
 62
7
  6
CONTINUOUS
  0
LAYER
  2
97
 70
64
 62
7
  6
CONTINUOUS
  0
LAYER
  2
98
 70
64
 62
7
  6
CONTINUOUS
  0
LAYER
  2
99
 70
64
 62
7
  6
CONTINUOUS
  0
LAYER
  2
100
 70
64
 62
7
  6
CONTINUOUS
  0
LAYER
  2
101
 70
64
 62
7
  6
CONTINUOUS
  0
LAYER
  2
102
 70
64
 62
7
  6
CONTINUOUS
  0
LAYER
  2
103
 70
64
 62
7
  6
CONTINUOUS
  0
LAYER
  2
104
 70
64
 62
7
  6
CONTINUOUS
  0
LAYER
  2
105
 70
64
 62
7
  6
CONTINUOUS
  0
LAYER
  2
106
 70
64
 62
7
  6
CONTINUOUS
  0
LAYER
  2
107
 70
64
 62
7
  6
CONTINUOUS
  0
LAYER
  2
108
 70
64
 62
7
  6
CONTINUOUS
  0
LAYER
  2
109
 70
64
 62
7
  6
CONTINUOUS
  0
LAYER
  2
110
 70
64
 62
7
  6
CONTINUOUS
  0
LAYER
  2
111
 70
64
 62
7
  6
CONTINUOUS
  0
LAYER
  2
112
 70
64
 62
7
  6
CONTINUOUS
  0
LAYER
  2
113
 70
64
 62
7
  6
CONTINUOUS
  0
LAYER
  2
114
 70
64
 62
7
  6
CONTINUOUS
  0
LAYER
  2
115
 70
64
 62
7
  6
CONTINUOUS
  0
LAYER
  2
116
 70
64
 62
7
  6
CONTINUOUS
  0
LAYER
  2
117
 70
64
 62
7
  6
CONTINUOUS
  0
LAYER
  2
118
 70
64
 62
7
  6
CONTINUOUS
  0
LAYER
  2
119
 70
64
 62
7
  6
CONTINUOUS
  0
LAYER
  2
120
 70
64
 62
7
  6
CONTINUOUS
  0
LAYER
  2
121
 70
64
 62
7
  6
CONTINUOUS
  0
LAYER
  2
122
 70
64
 62
7
  6
CONTINUOUS
  0
LAYER
  2
123
 70
64
 62
7
  6
CONTINUOUS
  0
LAYER
  2
124
 70
64
 62
7
  6
CONTINUOUS
  0
LAYER
  2
125
 70
64
 62
7
  6
CONTINUOUS
  0
LAYER
  2
126
 70
64
 62
7
  6
CONTINUOUS
  0
LAYER
  2
127
 70
64
 62
7
  6
CONTINUOUS
  0
LAYER
  2
128
 70
64
 62
7
  6
CONTINUOUS
  0
LAYER
  2
129
 70
64
 62
7
  6
CONTINUOUS
  0
LAYER
  2
130
 70
64
 62
7
  6
CONTINUOUS
  0
LAYER
  2
131
 70
64
 62
7
  6
CONTINUOUS
  0
LAYER
  2
132
 70
64
 62
7
  6
CONTINUOUS
  0
LAYER
  2
133
 70
64
 62
7
  6
CONTINUOUS
  0
LAYER
  2
134
 70
64
 62
7
  6
CONTINUOUS
  0
LAYER
  2
135
 70
64
 62
7
  6
CONTINUOUS
  0
LAYER
  2
136
 70
64
 62
7
  6
CONTINUOUS
  0
LAYER
  2
137
 70
64
 62
7
  6
CONTINUOUS
  0
LAYER
  2
138
 70
64
 62
7
  6
CONTINUOUS
  0
LAYER
  2
139
 70
64
 62
7
  6
CONTINUOUS
  0
LAYER
  2
140
 70
64
 62
7
  6
CONTINUOUS
  0
LAYER
  2
141
 70
64
 62
7
  6
CONTINUOUS
  0
LAYER
  2
142
 70
64
 62
7
  6
CONTINUOUS
  0
LAYER
  2
143
 70
64
 62
7
  6
CONTINUOUS
  0
LAYER
  2
144
 70
64
 62
7
  6
CONTINUOUS
  0
LAYER
  2
145
 70
64
 62
7
  6
CONTINUOUS
  0
LAYER
  2
146
 70
64
 62
7
  6
CONTINUOUS
  0
LAYER
  2
147
 70
64
 62
7
  6
CONTINUOUS
  0
LAYER
  2
148
 70
64
 62
7
  6
CONTINUOUS
  0
LAYER
  2
149
 70
64
 62
7
  6
CONTINUOUS
  0
LAYER
  2
150
 70
64
 62
7
  6
CONTINUOUS
  0
LAYER
  2
151
 70
64
 62
7
  6
CONTINUOUS
  0
LAYER
  2
152
 70
64
 62
7
  6
CONTINUOUS
  0
LAYER
  2
153
 70
64
 62
7
  6
CONTINUOUS
  0
LAYER
  2
154
 70
64
 62
7
  6
CONTINUOUS
  0
LAYER
  2
155
 70
64
 62
-7
  6
CONTINUOUS
  0
LAYER
  2
156
 70
64
 62
-7
  6
CONTINUOUS
  0
LAYER
  2
157
 70
64
 62
-7
  6
CONTINUOUS
  0
LAYER
  2
158
 70
64
 62
-7
  6
CONTINUOUS
  0
LAYER
  2
159
 70
64
 62
-7
  6
CONTINUOUS
  0
LAYER
  2
160
 70
64
 62
-7
  6
CONTINUOUS
  0
LAYER
  2
161
 70
64
 62
-7
  6
CONTINUOUS
  0
LAYER
  2
162
 70
64
 62
-7
  6
CONTINUOUS
  0
LAYER
  2
163
 70
64
 62
-7
  6
CONTINUOUS
  0
LAYER
  2
164
 70
64
 62
7
  6
CONTINUOUS
  0
LAYER
  2
165
 70
64
 62
7
  6
CONTINUOUS
  0
LAYER
  2
166
 70
64
 62
7
  6
CONTINUOUS
  0
LAYER
  2
167
 70
64
 62
7
  6
CONTINUOUS
  0
LAYER
  2
168
 70
64
 62
7
  6
CONTINUOUS
  0
LAYER
  2
169
 70
64
 62
7
  6
CONTINUOUS
  0
LAYER
  2
170
 70
64
 62
7
  6
CONTINUOUS
  0
LAYER
  2
171
 70
64
 62
7
  6
CONTINUOUS
  0
LAYER
  2
172
 70
64
 62
7
  6
CONTINUOUS
  0
LAYER
  2
173
 70
64
 62
7
  6
CONTINUOUS
  0
LAYER
  2
174
 70
64
 62
7
  6
CONTINUOUS
  0
LAYER
  2
175
 70
64
 62
7
  6
CONTINUOUS
  0
LAYER
  2
176
 70
64
 62
7
  6
CONTINUOUS
  0
LAYER
  2
177
 70
64
 62
7
  6
CONTINUOUS
  0
LAYER
  2
178
 70
64
 62
7
  6
CONTINUOUS
  0
LAYER
  2
179
 70
64
 62
7
  6
CONTINUOUS
  0
LAYER
  2
180
 70
64
 62
7
  6
CONTINUOUS
  0
LAYER
  2
181
 70
64
 62
7
  6
CONTINUOUS
  0
LAYER
  2
182
 70
64
 62
7
  6
CONTINUOUS
  0
LAYER
  2
183
 70
64
 62
7
  6
CONTINUOUS
  0
LAYER
  2
184
 70
64
 62
7
  6
CONTINUOUS
  0
LAYER
  2
185
 70
64
 62
7
  6
CONTINUOUS
  0
LAYER
  2
186
 70
64
 62
7
  6
CONTINUOUS
  0
LAYER
  2
187
 70
64
 62
7
  6
CONTINUOUS
  0
LAYER
  2
188
 70
64
 62
7
  6
CONTINUOUS
  0
LAYER
  2
189
 70
64
 62
7
  6
CONTINUOUS
  0
LAYER
  2
190
 70
64
 62
7
  6
CONTINUOUS
  0
LAYER
  2
191
 70
64
 62
7
  6
CONTINUOUS
  0
LAYER
  2
192
 70
64
 62
7
  6
CONTINUOUS
  0
LAYER
  2
193
 70
64
 62
7
  6
CONTINUOUS
  0
LAYER
  2
194
 70
64
 62
7
  6
CONTINUOUS
  0
LAYER
  2
195
 70
64
 62
7
  6
CONTINUOUS
  0
LAYER
  2
196
 70
64
 62
7
  6
CONTINUOUS
  0
LAYER
  2
197
 70
64
 62
7
  6
CONTINUOUS
  0
LAYER
  2
198
 70
64
 62
7
  6
CONTINUOUS
  0
LAYER
  2
199
 70
64
 62
7
  6
CONTINUOUS
  0
ENDTAB
  0
ENDSEC
  0
SECTION
  2
BLOCKS
  0
BLOCK
  8
0
  2
tx312g
 70
 0
 10
0.0
 20
0.0
 30
0.0
  0
POLYLINE
  8
0
 62
7
  6
CONTINUOUS
 70
1
 66
1
  0
VERTEX
 10
77.500000
 20
182.500000
 30
0.000000
  8
0
 62
7
  6
CONTINUOUS
  0
VERTEX
 10
77.500000
 20
-2.500000
 30
0.000000
  8
0
 62
7
  6
CONTINUOUS
  0
VERTEX
 10
-2.500000
 20
-2.500000
 30
0.000000
  8
0
 62
7
  6
CONTINUOUS
  0
VERTEX
 10
-2.500000
 20
182.500000
 30
0.000000
  8
0
 62
7
  6
CONTINUOUS
  0
SEQEND
  0
POLYLINE
  8
0
 62
7
  6
CONTINUOUS
 70
1
 66
1
  0
VERTEX
 10
75.500000
 20
180.500000
 30
0.000000
  8
0
 62
7
  6
CONTINUOUS
  0
VERTEX
 10
75.500000
 20
-0.500000
 30
0.000000
  8
0
 62
7
  6
CONTINUOUS
  0
VERTEX
 10
-0.500000
 20
-0.500000
 30
0.000000
  8
0
 62
7
  6
CONTINUOUS
  0
VERTEX
 10
-0.500000
 20
180.500000
 30
0.000000
  8
0
 62
7
  6
CONTINUOUS
  0
SEQEND
  0
ENDBLK
  0
BLOCK
  8
0
  2
tzx310
 70
 0
 10
0.0
 20
0.0
 30
0.0
  0
POLYLINE
  8
0
 62
7
  6
CONTINUOUS
 70
1
 66
1
  0
VERTEX
 10
77.500000
 20
-12.500000
 30
0.000000
  8
0
 62
7
  6
CONTINUOUS
  0
VERTEX
 10
77.500000
 20
-2.700000
 30
0.000000
  8
0
 62
7
  6
CONTINUOUS
  0
VERTEX
 10
-2.500000
 20
-2.700000
 30
0.000000
  8
0
 62
7
  6
CONTINUOUS
  0
VERTEX
 10
-2.500000
 20
-12.500000
 30
0.000000
  8
0
 62
7
  6
CONTINUOUS
  0
SEQEND
  0
CIRCLE
  8
0
 62
7
  6
CONTINUOUS
 10
73.800000
 20
-10.000000
 30
0.0
 40
0.600000
  0
CIRCLE
  8
0
 62
7
  6
CONTINUOUS
 10
73.800000
 20
-5.000000
 30
0.0
 40
0.600000
  0
POLYLINE
  8
0
 62
7
  6
CONTINUOUS
 70
0
 66
1
  0
VERTEX
 10
0.300000
 20
-3.100000
  8
0
 62
7
  6
CONTINUOUS
  0
VERTEX
 10
0.300000
 20
-2.800000
  8
0
 62
7
  6
CONTINUOUS
  0
VERTEX
 10
-2.400000
 20
-2.800000
  8
0
 62
7
  6
CONTINUOUS
  0
VERTEX
 10
-2.400000
 20
-12.400000
  8
0
 62
7
  6
CONTINUOUS
  0
VERTEX
 10
0.300000
 20
-12.400000
  8
0
 62
7
  6
CONTINUOUS
  0
VERTEX
 10
0.300000
 20
-12.100000
  8
0
 62
7
  6
CONTINUOUS
  0
SEQEND
  0
POLYLINE
  8
0
 62
7
  6
CONTINUOUS
 70
0
 66
1
  0
VERTEX
 10
74.700000
 20
-3.100000
  8
0
 62
7
  6
CONTINUOUS
  0
VERTEX
 10
74.700000
 20
-2.800000
  8
0
 62
7
  6
CONTINUOUS
  0
VERTEX
 10
77.400000
 20
-2.800000
  8
0
 62
7
  6
CONTINUOUS
  0
VERTEX
 10
77.400000
 20
-12.400000
  8
0
 62
7
  6
CONTINUOUS
  0
VERTEX
 10
74.700000
 20
-12.400000
  8
0
 62
7
  6
CONTINUOUS
  0
VERTEX
 10
74.700000
 20
-12.100000
  8
0
 62
7
  6
CONTINUOUS
  0
SEQEND
  0
CIRCLE
  8
0
 62
7
  6
CONTINUOUS
 10
1.200000
 20
-5.000000
 30
0.0
 40
0.600000
  0
CIRCLE
  8
0
 62
7
  6
CONTINUOUS
 10
1.200000
 20
-10.000000
 30
0.0
 40
0.600000
  0
ENDBLK
  0
BLOCK
  8
0
  2
tz313
 70
 0
 10
0.0
 20
0.0
 30
0.0
  0
POLYLINE
  8
0
 62
7
  6
CONTINUOUS
 70
1
 66
1
  0
VERTEX
 10
76.300000
 20
1.000000
 30
0.000000
  8
0
 62
7
  6
CONTINUOUS
  0
VERTEX
 10
76.300000
 20
-2.500000
 30
0.000000
  8
0
 62
7
  6
CONTINUOUS
  0
VERTEX
 10
-1.300000
 20
-2.500000
 30
0.000000
  8
0
 62
7
  6
CONTINUOUS
  0
VERTEX
 10
-1.300000
 20
1.000000
 30
0.000000
  8
0
 62
7
  6
CONTINUOUS
  0
SEQEND
  0
LINE
  8
0
 62
7
  6
CONTINUOUS
 10
76.300000
 20
0.900000
 11
-1.300000
 21
0.900000
  0
LINE
  8
0
 62
7
  6
CONTINUOUS
 10
76.300000
 20
0.500000
 11
-1.300000
 21
0.500000
  0
LINE
  8
0
 62
7
  6
CONTINUOUS
 10
76.300000
 20
0.100000
 11
-1.300000
 21
0.100000
  0
LINE
  8
0
 62
7
  6
CONTINUOUS
 10
76.300000
 20
-2.400000
 11
-1.300000
 21
-2.400000
  0
LINE
  8
0
 62
7
  6
CONTINUOUS
 10
76.300000
 20
-2.000000
 11
-1.300000
 21
-2.000000
  0
LINE
  8
0
 62
7
  6
CONTINUOUS
 10
76.300000
 20
-1.600000
 11
-1.300000
 21
-1.600000
  0
ENDBLK
  0
BLOCK
  8
0
  2
tz104
 70
 0
 10
0.0
 20
0.0
 30
0.0
  0
POLYLINE
  8
0
 62
7
  6
CONTINUOUS
 70
1
 66
1
  0
VERTEX
 10
-1.000000
 20
-0.400000
  8
0
 62
7
  6
CONTINUOUS
  0
VERTEX
 10
-1.000000
 20
-1.400000
  8
0
 62
7
  6
CONTINUOUS
  0
VERTEX
 10
-1.500000
 20
-1.400000
  8
0
 62
7
  6
CONTINUOUS
  0
VERTEX
 10
-1.500000
 20
-2.400000
  8
0
 62
7
  6
CONTINUOUS
  0
VERTEX
 10
-2.000000
 20
-2.400000
  8
0
 62
7
  6
CONTINUOUS
  0
VERTEX
 10
-2.000000
 20
-3.400000
  8
0
 62
7
  6
CONTINUOUS
  0
VERTEX
 10
-2.500000
 20
-3.400000
  8
0
 62
7
  6
CONTINUOUS
  0
VERTEX
 10
-2.500000
 20
-4.400000
  8
0
 62
7
  6
CONTINUOUS
  0
VERTEX
 10
-3.000000
 20
-4.400000
  8
0
 62
7
  6
CONTINUOUS
  0
VERTEX
 10
-3.000000
 20
-5.400000
  8
0
 62
7
  6
CONTINUOUS
  0
VERTEX
 10
-3.500000
 20
-5.400000
  8
0
 62
7
  6
CONTINUOUS
  0
VERTEX
 10
-3.500000
 20
-6.400000
  8
0
 62
7
  6
CONTINUOUS
  0
VERTEX
 10
-4.000000
 20
-6.400000
  8
0
 62
7
  6
CONTINUOUS
  0
VERTEX
 10
-4.000000
 20
-7.400000
  8
0
 62
7
  6
CONTINUOUS
  0
VERTEX
 10
-4.500000
 20
-7.400000
  8
0
 62
7
  6
CONTINUOUS
  0
VERTEX
 10
-4.500000
 20
-8.000000
  8
0
 62
7
  6
CONTINUOUS
  0
VERTEX
 10
-5.500000
 20
-8.000000
  8
0
 62
7
  6
CONTINUOUS
  0
VERTEX
 10
-5.500000
 20
-7.400000
  8
0
 62
7
  6
CONTINUOUS
  0
VERTEX
 10
-6.000000
 20
-7.400000
  8
0
 62
7
  6
CONTINUOUS
  0
VERTEX
 10
-6.000000
 20
-6.400000
  8
0
 62
7
  6
CONTINUOUS
  0
VERTEX
 10
-6.500000
 20
-6.400000
  8
0
 62
7
  6
CONTINUOUS
  0
VERTEX
 10
-6.500000
 20
-5.400000
  8
0
 62
7
  6
CONTINUOUS
  0
VERTEX
 10
-7.000000
 20
-5.400000
  8
0
 62
7
  6
CONTINUOUS
  0
VERTEX
 10
-7.000000
 20
-4.400000
  8
0
 62
7
  6
CONTINUOUS
  0
VERTEX
 10
-7.500000
 20
-4.400000
  8
0
 62
7
  6
CONTINUOUS
  0
VERTEX
 10
-7.500000
 20
-3.400000
  8
0
 62
7
  6
CONTINUOUS
  0
VERTEX
 10
-8.000000
 20
-3.400000
  8
0
 62
7
  6
CONTINUOUS
  0
VERTEX
 10
-8.000000
 20
-2.400000
  8
0
 62
7
  6
CONTINUOUS
  0
VERTEX
 10
-8.500000
 20
-2.400000
  8
0
 62
7
  6
CONTINUOUS
  0
VERTEX
 10
-8.500000
 20
-1.400000
  8
0
 62
7
  6
CONTINUOUS
  0
VERTEX
 10
-9.000000
 20
-1.400000
  8
0
 62
7
  6
CONTINUOUS
  0
VERTEX
 10
-9.000000
 20
-0.400000
  8
0
 62
7
  6
CONTINUOUS
  0
SEQEND
  0
POLYLINE
  8
0
 62
7
  6
CONTINUOUS
 70
1
 66
1
  0
VERTEX
 10
5.500000
 20
-8.000000
  8
0
 62
7
  6
CONTINUOUS
  0
VERTEX
 10
4.500000
 20
-8.000000
  8
0
 62
7
  6
CONTINUOUS
  0
VERTEX
 10
4.500000
 20
-7.400000
  8
0
 62
7
  6
CONTINUOUS
  0
VERTEX
 10
4.000000
 20
-7.400000
  8
0
 62
7
  6
CONTINUOUS
  0
VERTEX
 10
4.000000
 20
-6.400000
  8
0
 62
7
  6
CONTINUOUS
  0
VERTEX
 10
3.500000
 20
-6.400000
  8
0
 62
7
  6
CONTINUOUS
  0
VERTEX
 10
3.500000
 20
-5.400000
  8
0
 62
7
  6
CONTINUOUS
  0
VERTEX
 10
3.000000
 20
-5.400000
  8
0
 62
7
  6
CONTINUOUS
  0
VERTEX
 10
3.000000
 20
-4.400000
  8
0
 62
7
  6
CONTINUOUS
  0
VERTEX
 10
2.500000
 20
-4.400000
  8
0
 62
7
  6
CONTINUOUS
  0
VERTEX
 10
2.500000
 20
-3.400000
  8
0
 62
7
  6
CONTINUOUS
  0
VERTEX
 10
2.000000
 20
-3.400000
  8
0
 62
7
  6
CONTINUOUS
  0
VERTEX
 10
2.000000
 20
-2.400000
  8
0
 62
7
  6
CONTINUOUS
  0
VERTEX
 10
1.500000
 20
-2.400000
  8
0
 62
7
  6
CONTINUOUS
  0
VERTEX
 10
1.500000
 20
-1.400000
  8
0
 62
7
  6
CONTINUOUS
  0
VERTEX
 10
1.000000
 20
-1.400000
  8
0
 62
7
  6
CONTINUOUS
  0
VERTEX
 10
1.000000
 20
-0.400000
  8
0
 62
7
  6
CONTINUOUS
  0
VERTEX
 10
9.000000
 20
-0.400000
  8
0
 62
7
  6
CONTINUOUS
  0
VERTEX
 10
9.000000
 20
-1.400000
  8
0
 62
7
  6
CONTINUOUS
  0
VERTEX
 10
8.500000
 20
-1.400000
  8
0
 62
7
  6
CONTINUOUS
  0
VERTEX
 10
8.500000
 20
-2.400000
  8
0
 62
7
  6
CONTINUOUS
  0
VERTEX
 10
8.000000
 20
-2.400000
  8
0
 62
7
  6
CONTINUOUS
  0
VERTEX
 10
8.000000
 20
-3.400000
  8
0
 62
7
  6
CONTINUOUS
  0
VERTEX
 10
7.500000
 20
-3.400000
  8
0
 62
7
  6
CONTINUOUS
  0
VERTEX
 10
7.500000
 20
-4.400000
  8
0
 62
7
  6
CONTINUOUS
  0
VERTEX
 10
7.000000
 20
-4.400000
  8
0
 62
7
  6
CONTINUOUS
  0
VERTEX
 10
7.000000
 20
-5.400000
  8
0
 62
7
  6
CONTINUOUS
  0
VERTEX
 10
6.500000
 20
-5.400000
  8
0
 62
7
  6
CONTINUOUS
  0
VERTEX
 10
6.500000
 20
-6.400000
  8
0
 62
7
  6
CONTINUOUS
  0
VERTEX
 10
6.000000
 20
-6.400000
  8
0
 62
7
  6
CONTINUOUS
  0
VERTEX
 10
6.000000
 20
-7.400000
  8
0
 62
7
  6
CONTINUOUS
  0
VERTEX
 10
5.500000
 20
-7.400000
  8
0
 62
7
  6
CONTINUOUS
  0
SEQEND
  0
POLYLINE
  8
0
 62
7
  6
CONTINUOUS
 70
1
 66
1
  0
VERTEX
 10
-11.000000
 20
-0.400000
 30
0.000000
  8
0
 62
7
  6
CONTINUOUS
  0
VERTEX
 10
-11.000000
 20
0.000000
 30
0.000000
  8
0
 62
7
  6
CONTINUOUS
  0
VERTEX
 10
11.000000
 20
0.000000
 30
0.000000
  8
0
 62
7
  6
CONTINUOUS
  0
VERTEX
 10
11.000000
 20
-0.400000
 30
0.000000
  8
0
 62
7
  6
CONTINUOUS
  0
SEQEND
  0
POLYLINE
  8
0
 62
7
  6
CONTINUOUS
 70
1
 66
1
  0
VERTEX
 10
-1.000000
 20
-0.400000
  8
0
 62
7
  6
CONTINUOUS
  0
VERTEX
 10
-1.000000
 20
-1.400000
  8
0
 62
7
  6
CONTINUOUS
  0
VERTEX
 10
-1.500000
 20
-1.400000
  8
0
 62
7
  6
CONTINUOUS
  0
VERTEX
 10
-1.500000
 20
-2.400000
  8
0
 62
7
  6
CONTINUOUS
  0
VERTEX
 10
-2.000000
 20
-2.400000
  8
0
 62
7
  6
CONTINUOUS
  0
VERTEX
 10
-2.000000
 20
-3.400000
  8
0
 62
7
  6
CONTINUOUS
  0
VERTEX
 10
-2.500000
 20
-3.400000
  8
0
 62
7
  6
CONTINUOUS
  0
VERTEX
 10
-2.500000
 20
-4.400000
  8
0
 62
7
  6
CONTINUOUS
  0
VERTEX
 10
-3.000000
 20
-4.400000
  8
0
 62
7
  6
CONTINUOUS
  0
VERTEX
 10
-3.000000
 20
-5.400000
  8
0
 62
7
  6
CONTINUOUS
  0
VERTEX
 10
-3.500000
 20
-5.400000
  8
0
 62
7
  6
CONTINUOUS
  0
VERTEX
 10
-3.500000
 20
-6.400000
  8
0
 62
7
  6
CONTINUOUS
  0
VERTEX
 10
-4.000000
 20
-6.400000
  8
0
 62
7
  6
CONTINUOUS
  0
VERTEX
 10
-4.000000
 20
-7.400000
  8
0
 62
7
  6
CONTINUOUS
  0
VERTEX
 10
-4.500000
 20
-7.400000
  8
0
 62
7
  6
CONTINUOUS
  0
VERTEX
 10
-4.500000
 20
-8.000000
  8
0
 62
7
  6
CONTINUOUS
  0
VERTEX
 10
-5.500000
 20
-8.000000
  8
0
 62
7
  6
CONTINUOUS
  0
VERTEX
 10
-5.500000
 20
-7.400000
  8
0
 62
7
  6
CONTINUOUS
  0
VERTEX
 10
-6.000000
 20
-7.400000
  8
0
 62
7
  6
CONTINUOUS
  0
VERTEX
 10
-6.000000
 20
-6.400000
  8
0
 62
7
  6
CONTINUOUS
  0
VERTEX
 10
-6.500000
 20
-6.400000
  8
0
 62
7
  6
CONTINUOUS
  0
VERTEX
 10
-6.500000
 20
-5.400000
  8
0
 62
7
  6
CONTINUOUS
  0
VERTEX
 10
-7.000000
 20
-5.400000
  8
0
 62
7
  6
CONTINUOUS
  0
VERTEX
 10
-7.000000
 20
-4.400000
  8
0
 62
7
  6
CONTINUOUS
  0
VERTEX
 10
-7.500000
 20
-4.400000
  8
0
 62
7
  6
CONTINUOUS
  0
VERTEX
 10
-7.500000
 20
-3.400000
  8
0
 62
7
  6
CONTINUOUS
  0
VERTEX
 10
-8.000000
 20
-3.400000
  8
0
 62
7
  6
CONTINUOUS
  0
VERTEX
 10
-8.000000
 20
-2.400000
  8
0
 62
7
  6
CONTINUOUS
  0
VERTEX
 10
-8.500000
 20
-2.400000
  8
0
 62
7
  6
CONTINUOUS
  0
VERTEX
 10
-8.500000
 20
-1.400000
  8
0
 62
7
  6
CONTINUOUS
  0
VERTEX
 10
-9.000000
 20
-1.400000
  8
0
 62
7
  6
CONTINUOUS
  0
VERTEX
 10
-9.000000
 20
-0.400000
  8
0
 62
7
  6
CONTINUOUS
  0
SEQEND
  0
POLYLINE
  8
0
 62
7
  6
CONTINUOUS
 70
0
 66
1
  0
VERTEX
 10
-4.000000
 20
-7.400000
  8
0
 62
7
  6
CONTINUOUS
  0
VERTEX
 10
-6.000000
 20
-7.400000
  8
0
 62
7
  6
CONTINUOUS
  0
SEQEND
  0
POLYLINE
  8
0
 62
7
  6
CONTINUOUS
 70
0
 66
1
  0
VERTEX
 10
-3.500000
 20
-6.400000
  8
0
 62
7
  6
CONTINUOUS
  0
VERTEX
 10
-6.500000
 20
-6.400000
  8
0
 62
7
  6
CONTINUOUS
  0
SEQEND
  0
POLYLINE
  8
0
 62
7
  6
CONTINUOUS
 70
0
 66
1
  0
VERTEX
 10
-3.000000
 20
-5.400000
  8
0
 62
7
  6
CONTINUOUS
  0
VERTEX
 10
-7.000000
 20
-5.400000
  8
0
 62
7
  6
CONTINUOUS
  0
SEQEND
  0
POLYLINE
  8
0
 62
7
  6
CONTINUOUS
 70
0
 66
1
  0
VERTEX
 10
-2.500000
 20
-4.400000
  8
0
 62
7
  6
CONTINUOUS
  0
VERTEX
 10
-7.500000
 20
-4.400000
  8
0
 62
7
  6
CONTINUOUS
  0
SEQEND
  0
POLYLINE
  8
0
 62
7
  6
CONTINUOUS
 70
0
 66
1
  0
VERTEX
 10
-2.000000
 20
-3.400000
  8
0
 62
7
  6
CONTINUOUS
  0
VERTEX
 10
-8.000000
 20
-3.400000
  8
0
 62
7
  6
CONTINUOUS
  0
SEQEND
  0
POLYLINE
  8
0
 62
7
  6
CONTINUOUS
 70
0
 66
1
  0
VERTEX
 10
-1.500000
 20
-2.400000
  8
0
 62
7
  6
CONTINUOUS
  0
VERTEX
 10
-8.500000
 20
-2.400000
  8
0
 62
7
  6
CONTINUOUS
  0
SEQEND
  0
POLYLINE
  8
0
 62
7
  6
CONTINUOUS
 70
0
 66
1
  0
VERTEX
 10
-1.000000
 20
-1.400000
  8
0
 62
7
  6
CONTINUOUS
  0
VERTEX
 10
-9.000000
 20
-1.400000
  8
0
 62
7
  6
CONTINUOUS
  0
SEQEND
  0
POLYLINE
  8
0
 62
7
  6
CONTINUOUS
 70
1
 66
1
  0
VERTEX
 10
9.000000
 20
-0.400000
  8
0
 62
7
  6
CONTINUOUS
  0
VERTEX
 10
9.000000
 20
-1.400000
  8
0
 62
7
  6
CONTINUOUS
  0
VERTEX
 10
8.500000
 20
-1.400000
  8
0
 62
7
  6
CONTINUOUS
  0
VERTEX
 10
8.500000
 20
-2.400000
  8
0
 62
7
  6
CONTINUOUS
  0
VERTEX
 10
8.000000
 20
-2.400000
  8
0
 62
7
  6
CONTINUOUS
  0
VERTEX
 10
8.000000
 20
-3.400000
  8
0
 62
7
  6
CONTINUOUS
  0
VERTEX
 10
7.500000
 20
-3.400000
  8
0
 62
7
  6
CONTINUOUS
  0
VERTEX
 10
7.500000
 20
-4.400000
  8
0
 62
7
  6
CONTINUOUS
  0
VERTEX
 10
7.000000
 20
-4.400000
  8
0
 62
7
  6
CONTINUOUS
  0
VERTEX
 10
7.000000
 20
-5.400000
  8
0
 62
7
  6
CONTINUOUS
  0
VERTEX
 10
6.500000
 20
-5.400000
  8
0
 62
7
  6
CONTINUOUS
  0
VERTEX
 10
6.500000
 20
-6.400000
  8
0
 62
7
  6
CONTINUOUS
  0
VERTEX
 10
6.000000
 20
-6.400000
  8
0
 62
7
  6
CONTINUOUS
  0
VERTEX
 10
6.000000
 20
-7.400000
  8
0
 62
7
  6
CONTINUOUS
  0
VERTEX
 10
5.500000
 20
-7.400000
  8
0
 62
7
  6
CONTINUOUS
  0
VERTEX
 10
5.500000
 20
-8.000000
  8
0
 62
7
  6
CONTINUOUS
  0
VERTEX
 10
4.500000
 20
-8.000000
  8
0
 62
7
  6
CONTINUOUS
  0
VERTEX
 10
4.500000
 20
-7.400000
  8
0
 62
7
  6
CONTINUOUS
  0
VERTEX
 10
4.000000
 20
-7.400000
  8
0
 62
7
  6
CONTINUOUS
  0
VERTEX
 10
4.000000
 20
-6.400000
  8
0
 62
7
  6
CONTINUOUS
  0
VERTEX
 10
3.500000
 20
-6.400000
  8
0
 62
7
  6
CONTINUOUS
  0
VERTEX
 10
3.500000
 20
-5.400000
  8
0
 62
7
  6
CONTINUOUS
  0
VERTEX
 10
3.000000
 20
-5.400000
  8
0
 62
7
  6
CONTINUOUS
  0
VERTEX
 10
3.000000
 20
-4.400000
  8
0
 62
7
  6
CONTINUOUS
  0
VERTEX
 10
2.500000
 20
-4.400000
  8
0
 62
7
  6
CONTINUOUS
  0
VERTEX
 10
2.500000
 20
-3.400000
  8
0
 62
7
  6
CONTINUOUS
  0
VERTEX
 10
2.000000
 20
-3.400000
  8
0
 62
7
  6
CONTINUOUS
  0
VERTEX
 10
2.000000
 20
-2.400000
  8
0
 62
7
  6
CONTINUOUS
  0
VERTEX
 10
1.500000
 20
-2.400000
  8
0
 62
7
  6
CONTINUOUS
  0
VERTEX
 10
1.500000
 20
-1.400000
  8
0
 62
7
  6
CONTINUOUS
  0
VERTEX
 10
1.000000
 20
-1.400000
  8
0
 62
7
  6
CONTINUOUS
  0
VERTEX
 10
1.000000
 20
-0.400000
  8
0
 62
7
  6
CONTINUOUS
  0
SEQEND
  0
POLYLINE
  8
0
 62
7
  6
CONTINUOUS
 70
0
 66
1
  0
VERTEX
 10
6.000000
 20
-7.400000
  8
0
 62
7
  6
CONTINUOUS
  0
VERTEX
 10
4.000000
 20
-7.400000
  8
0
 62
7
  6
CONTINUOUS
  0
SEQEND
  0
POLYLINE
  8
0
 62
7
  6
CONTINUOUS
 70
0
 66
1
  0
VERTEX
 10
6.500000
 20
-6.400000
  8
0
 62
7
  6
CONTINUOUS
  0
VERTEX
 10
3.500000
 20
-6.400000
  8
0
 62
7
  6
CONTINUOUS
  0
SEQEND
  0
POLYLINE
  8
0
 62
7
  6
CONTINUOUS
 70
0
 66
1
  0
VERTEX
 10
7.000000
 20
-5.400000
  8
0
 62
7
  6
CONTINUOUS
  0
VERTEX
 10
3.000000
 20
-5.400000
  8
0
 62
7
  6
CONTINUOUS
  0
SEQEND
  0
POLYLINE
  8
0
 62
7
  6
CONTINUOUS
 70
0
 66
1
  0
VERTEX
 10
7.500000
 20
-4.400000
  8
0
 62
7
  6
CONTINUOUS
  0
VERTEX
 10
2.500000
 20
-4.400000
  8
0
 62
7
  6
CONTINUOUS
  0
SEQEND
  0
POLYLINE
  8
0
 62
7
  6
CONTINUOUS
 70
0
 66
1
  0
VERTEX
 10
8.000000
 20
-3.400000
  8
0
 62
7
  6
CONTINUOUS
  0
VERTEX
 10
2.000000
 20
-3.400000
  8
0
 62
7
  6
CONTINUOUS
  0
SEQEND
  0
POLYLINE
  8
0
 62
7
  6
CONTINUOUS
 70
0
 66
1
  0
VERTEX
 10
8.500000
 20
-2.400000
  8
0
 62
7
  6
CONTINUOUS
  0
VERTEX
 10
1.500000
 20
-2.400000
  8
0
 62
7
  6
CONTINUOUS
  0
SEQEND
  0
POLYLINE
  8
0
 62
7
  6
CONTINUOUS
 70
0
 66
1
  0
VERTEX
 10
9.000000
 20
-1.400000
  8
0
 62
7
  6
CONTINUOUS
  0
VERTEX
 10
1.000000
 20
-1.400000
  8
0
 62
7
  6
CONTINUOUS
  0
SEQEND
  0
ENDBLK
  0
BLOCK
  8
0
  2
tz101
 70
 0
 10
0.0
 20
0.0
 30
0.0
  0
POLYLINE
  8
0
 62
7
  6
CONTINUOUS
 70
1
 66
1
  0
VERTEX
 10
-11.000000
 20
-0.400000
 30
0.000000
  8
0
 62
7
  6
CONTINUOUS
  0
VERTEX
 10
-11.000000
 20
0.000000
 30
0.000000
  8
0
 62
7
  6
CONTINUOUS
  0
VERTEX
 10
11.000000
 20
0.000000
 30
0.000000
  8
0
 62
7
  6
CONTINUOUS
  0
VERTEX
 10
11.000000
 20
-0.400000
 30
0.000000
  8
0
 62
7
  6
CONTINUOUS
  0
SEQEND
  0
ENDBLK
  0
BLOCK
  8
1
  2
wx32k2l
 70
 0
 10
0.0
 20
0.0
 30
0.0
  0
POLYLINE
  8
31
 62
255
  6
L000000020000FFFFFF
 70
1
 66
1
  0
VERTEX
 10
52.500000
 20
51.600000
 30
0.000000
  8
31
 62
255
  6
L000000020000FFFFFF
  0
VERTEX
 10
52.500000
 20
94.600000
 30
0.000000
  8
31
 62
255
  6
L000000020000FFFFFF
  0
VERTEX
 10
50.500000
 20
94.600000
 30
0.000000
  8
31
 62
255
  6
L000000020000FFFFFF
  0
VERTEX
 10
50.500000
 20
51.600000
 30
0.000000
  8
31
 62
255
  6
L000000020000FFFFFF
  0
SEQEND
  0
POLYLINE
  8
31
 62
255
  6
L000000020000FFFFFF
 70
1
 66
1
  0
VERTEX
 10
74.500000
 20
51.600000
 30
0.000000
  8
31
 62
255
  6
L000000020000FFFFFF
  0
VERTEX
 10
74.500000
 20
94.600000
 30
0.000000
  8
31
 62
255
  6
L000000020000FFFFFF
  0
VERTEX
 10
72.500000
 20
94.600000
 30
0.000000
  8
31
 62
255
  6
L000000020000FFFFFF
  0
VERTEX
 10
72.500000
 20
51.600000
 30
0.000000
  8
31
 62
255
  6
L000000020000FFFFFF
  0
SEQEND
  0
LINE
  8
31
 62
7
  6
CONTINUOUS
 10
52.500000
 20
94.600000
 11
50.500000
 21
94.600000
  0
LINE
  8
31
 62
7
  6
CONTINUOUS
 10
50.500000
 20
51.600000
 11
52.500000
 21
51.600000
  0
LINE
  8
31
 62
7
  6
L014100020032000000
 10
50.500000
 20
94.600000
 11
50.500000
 21
51.600000
  0
LINE
  8
31
 62
7
  6
CONTINUOUS
 10
74.500000
 20
51.600000
 11
72.500000
 21
51.600000
  0
LINE
  8
31
 62
7
  6
L014100020032000000
 10
74.500000
 20
94.600000
 11
74.500000
 21
51.600000
  0
LINE
  8
31
 62
7
  6
L014100020032000000
 10
72.500000
 20
94.600000
 11
72.500000
 21
51.600000
  0
LINE
  8
31
 62
7
  6
CONTINUOUS
 10
74.500000
 20
94.600000
 11
72.500000
 21
94.600000
  0
POLYLINE
  8
31
 62
255
  6
L000000020000FFFFFF
 70
1
 66
1
  0
VERTEX
 10
2.500000
 20
51.600000
 30
0.000000
  8
31
 62
255
  6
L000000020000FFFFFF
  0
VERTEX
 10
2.500000
 20
94.600000
 30
0.000000
  8
31
 62
255
  6
L000000020000FFFFFF
  0
VERTEX
 10
0.500000
 20
94.600000
 30
0.000000
  8
31
 62
255
  6
L000000020000FFFFFF
  0
VERTEX
 10
0.500000
 20
51.600000
 30
0.000000
  8
31
 62
255
  6
L000000020000FFFFFF
  0
SEQEND
  0
POLYLINE
  8
31
 62
255
  6
L000000020000FFFFFF
 70
1
 66
1
  0
VERTEX
 10
24.500000
 20
51.600000
 30
0.000000
  8
31
 62
255
  6
L000000020000FFFFFF
  0
VERTEX
 10
24.500000
 20
94.600000
 30
0.000000
  8
31
 62
255
  6
L000000020000FFFFFF
  0
VERTEX
 10
22.500000
 20
94.600000
 30
0.000000
  8
31
 62
255
  6
L000000020000FFFFFF
  0
VERTEX
 10
22.500000
 20
51.600000
 30
0.000000
  8
31
 62
255
  6
L000000020000FFFFFF
  0
SEQEND
  0
LINE
  8
31
 62
7
  6
CONTINUOUS
 10
2.500000
 20
94.600000
 11
0.500000
 21
94.600000
  0
LINE
  8
31
 62
7
  6
CONTINUOUS
 10
0.500000
 20
51.600000
 11
2.500000
 21
51.600000
  0
LINE
  8
31
 62
7
  6
L014100020032000000
 10
0.500000
 20
94.600000
 11
0.500000
 21
51.600000
  0
LINE
  8
31
 62
7
  6
CONTINUOUS
 10
24.500000
 20
51.600000
 11
22.500000
 21
51.600000
  0
LINE
  8
31
 62
7
  6
L014100020032000000
 10
24.500000
 20
94.600000
 11
24.500000
 21
51.600000
  0
LINE
  8
31
 62
7
  6
CONTINUOUS
 10
24.500000
 20
94.600000
 11
22.500000
 21
94.600000
  0
POLYLINE
  8
31
 62
255
  6
L000000020000FFFFFF
 70
1
 66
1
  0
VERTEX
 10
4.000000
 20
7.300000
 30
0.000000
  8
31
 62
255
  6
L000000020000FFFFFF
  0
VERTEX
 10
4.000000
 20
22.700000
 30
0.000000
  8
31
 62
255
  6
L000000020000FFFFFF
  0
VERTEX
 10
2.000000
 20
22.700000
 30
0.000000
  8
31
 62
255
  6
L000000020000FFFFFF
  0
VERTEX
 10
2.000000
 20
7.300000
 30
0.000000
  8
31
 62
255
  6
L000000020000FFFFFF
  0
SEQEND
  0
LINE
  8
31
 62
7
  6
CONTINUOUS
 10
4.000000
 20
29.000000
 11
2.000000
 21
29.000000
  0
LINE
  8
31
 62
7
  6
L014100020032000000
 10
4.000000
 20
29.000000
 11
4.000000
 21
21.100000
  0
LINE
  8
31
 62
7
  6
CONTINUOUS
 10
2.000000
 20
21.000000
 11
4.000000
 21
21.000000
  0
LINE
  8
31
 62
7
  6
L014100020032000000
 10
2.000000
 20
29.000000
 11
2.000000
 21
21.000000
  0
POLYLINE
  8
31
 62
255
  6
L000000020000FFFFFF
 70
1
 66
1
  0
VERTEX
 10
51.200000
 20
10.500000
 30
0.000000
  8
31
 62
255
  6
L000000020000FFFFFF
  0
VERTEX
 10
51.200000
 20
25.900000
 30
0.000000
  8
31
 62
255
  6
L000000020000FFFFFF
  0
VERTEX
 10
49.200000
 20
25.900000
 30
0.000000
  8
31
 62
255
  6
L000000020000FFFFFF
  0
VERTEX
 10
49.200000
 20
10.500000
 30
0.000000
  8
31
 62
255
  6
L000000020000FFFFFF
  0
SEQEND
  0
POLYLINE
  8
31
 62
255
  6
L000000020000FFFFFF
 70
1
 66
1
  0
VERTEX
 10
48.000000
 20
7.400000
 30
0.000000
  8
31
 62
255
  6
L000000020000FFFFFF
  0
VERTEX
 10
48.000000
 20
22.800000
 30
0.000000
  8
31
 62
255
  6
L000000020000FFFFFF
  0
VERTEX
 10
46.000000
 20
22.800000
 30
0.000000
  8
31
 62
255
  6
L000000020000FFFFFF
  0
VERTEX
 10
46.000000
 20
7.400000
 30
0.000000
  8
31
 62
255
  6
L000000020000FFFFFF
  0
SEQEND
  0
LINE
  8
31
 62
7
  6
CONTINUOUS
 10
4.000000
 20
14.000000
 11
2.000000
 21
14.000000
  0
LINE
  8
31
 62
7
  6
L014100020032000000
 10
4.000000
 20
14.000000
 11
4.000000
 21
6.100000
  0
LINE
  8
31
 62
7
  6
CONTINUOUS
 10
2.000000
 20
6.000000
 11
4.000000
 21
6.000000
  0
LINE
  8
31
 62
7
  6
L014100020032000000
 10
2.000000
 20
14.000000
 11
2.000000
 21
6.000000
  0
LINE
  8
31
 62
7
  6
CONTINUOUS
 10
73.000000
 20
29.100000
 11
71.000000
 21
29.100000
  0
LINE
  8
31
 62
7
  6
L014100020032000000
 10
73.000000
 20
29.100000
 11
73.000000
 21
21.100000
  0
LINE
  8
31
 62
7
  6
CONTINUOUS
 10
71.000000
 20
21.100000
 11
73.000000
 21
21.100000
  0
LINE
  8
31
 62
7
  6
L014100020032000000
 10
71.000000
 20
29.100000
 11
71.000000
 21
21.100000
  0
LINE
  8
31
 62
7
  6
CONTINUOUS
 10
73.000000
 20
14.100000
 11
71.000000
 21
14.100000
  0
LINE
  8
31
 62
7
  6
L014100020032000000
 10
73.000000
 20
14.100000
 11
73.000000
 21
6.100000
  0
LINE
  8
31
 62
7
  6
CONTINUOUS
 10
71.000000
 20
6.100000
 11
73.000000
 21
6.100000
  0
LINE
  8
31
 62
7
  6
L014100020032000000
 10
71.000000
 20
14.100000
 11
71.000000
 21
6.100000
  0
POLYLINE
  8
1
 62
7
  6
CONTINUOUS
 70
1
 66
1
  0
VERTEX
 10
74.800000
 20
105.200000
 30
0.000000
  8
1
 62
7
  6
CONTINUOUS
  0
VERTEX
 10
74.800000
 20
179.800000
 30
0.000000
  8
1
 62
7
  6
CONTINUOUS
  0
VERTEX
 10
0.200000
 20
179.800000
 30
0.000000
  8
1
 62
7
  6
CONTINUOUS
  0
VERTEX
 10
0.200000
 20
105.200000
 30
0.000000
  8
1
 62
7
  6
CONTINUOUS
  0
SEQEND
  0
TEXT
  8
1
 62
7
  6
CONTINUOUS
 10
35.300000
 20
149.500000
 40
3.000000
  1
Wechselplatte 
 50
0.000000
 51
0.000000
 72
1
 73
0
 11
35.300000
 21
149.500000
  0
TEXT
  8
1
 62
7
  6
CONTINUOUS
 10
35.300000
 20
146.500000
 40
3.000000
  1
kommt von NB
 50
0.000000
 51
0.000000
 72
1
 73
0
 11
35.300000
 21
146.500000
  0
TEXT
  8
1
 62
7
  6
CONTINUOUS
 10
35.300000
 20
143.500000
 40
3.000000
  1

 50
0.000000
 51
0.000000
 72
1
 73
0
 11
35.300000
 21
143.500000
  0
TEXT
  8
1
 62
7
  6
CONTINUOUS
 10
35.300000
 20
140.500000
 40
3.000000
  1
vorbereitet für 
 50
0.000000
 51
0.000000
 72
1
 73
0
 11
35.300000
 21
140.500000
  0
TEXT
  8
1
 62
7
  6
CONTINUOUS
 10
35.300000
 20
137.500000
 40
3.000000
  1
WF35ZV und WF35ZT
 50
0.000000
 51
0.000000
 72
1
 73
0
 11
35.300000
 21
137.500000
  0
POLYLINE
  8
1
 62
7
  6
CONTINUOUS
 70
1
 66
1
  0
VERTEX
 10
74.800000
 20
104.800000
 30
0.000000
  8
1
 62
7
  6
CONTINUOUS
  0
VERTEX
 10
74.800000
 20
0.200000
 30
0.000000
  8
1
 62
7
  6
CONTINUOUS
  0
VERTEX
 10
0.200000
 20
0.200000
 30
0.000000
  8
1
 62
7
  6
CONTINUOUS
  0
VERTEX
 10
0.200000
 20
104.800000
 30
0.000000
  8
1
 62
7
  6
CONTINUOUS
  0
SEQEND
  0
LINE
  8
1
 62
7
  6
CONTINUOUS
 10
51.000000
 20
102.900000
 11
51.000000
 21
102.400000
  0
LINE
  8
1
 62
7
  6
CONTINUOUS
 10
51.000000
 20
99.500000
 11
51.000000
 21
100.000000
  0
LINE
  8
1
 62
7
  6
CONTINUOUS
 10
51.400000
 20
101.200000
 11
50.500000
 21
101.200000
  0
CIRCLE
  8
1
 62
7
  6
CONTINUOUS
 10
51.000000
 20
101.200000
 30
0.0
 40
0.700000
  0
LINE
  8
1
 62
7
  6
CONTINUOUS
 10
74.000000
 20
102.900000
 11
74.000000
 21
102.400000
  0
LINE
  8
1
 62
7
  6
CONTINUOUS
 10
74.000000
 20
99.500000
 11
74.000000
 21
100.000000
  0
LINE
  8
1
 62
7
  6
CONTINUOUS
 10
73.600000
 20
101.200000
 11
74.500000
 21
101.200000
  0
CIRCLE
  8
1
 62
7
  6
CONTINUOUS
 10
74.000000
 20
101.200000
 30
0.0
 40
0.700000
  0
LINE
  8
1
 62
7
  6
CONTINUOUS
 10
74.000000
 20
32.100000
 11
74.000000
 21
32.600000
  0
LINE
  8
1
 62
7
  6
CONTINUOUS
 10
74.000000
 20
35.500000
 11
74.000000
 21
35.000000
  0
LINE
  8
1
 62
7
  6
CONTINUOUS
 10
73.600000
 20
33.800000
 11
74.500000
 21
33.800000
  0
CIRCLE
  8
1
 62
7
  6
CONTINUOUS
 10
74.000000
 20
33.800000
 30
0.0
 40
0.700000
  0
LINE
  8
1
 62
7
  6
CONTINUOUS
 10
51.000000
 20
32.100000
 11
51.000000
 21
32.600000
  0
LINE
  8
1
 62
7
  6
CONTINUOUS
 10
51.000000
 20
35.500000
 11
51.000000
 21
35.000000
  0
LINE
  8
1
 62
7
  6
CONTINUOUS
 10
51.400000
 20
33.800000
 11
50.500000
 21
33.800000
  0
CIRCLE
  8
1
 62
7
  6
CONTINUOUS
 10
51.000000
 20
33.800000
 30
0.0
 40
0.700000
  0
LINE
  8
1
 62
7
  6
CONTINUOUS
 10
26.000000
 20
102.900000
 11
26.000000
 21
102.400000
  0
LINE
  8
1
 62
7
  6
CONTINUOUS
 10
26.000000
 20
99.500000
 11
26.000000
 21
100.000000
  0
LINE
  8
1
 62
7
  6
CONTINUOUS
 10
26.400000
 20
101.200000
 11
25.500000
 21
101.200000
  0
CIRCLE
  8
1
 62
7
  6
CONTINUOUS
 10
26.000000
 20
101.200000
 30
0.0
 40
0.700000
  0
LINE
  8
1
 62
7
  6
CONTINUOUS
 10
49.000000
 20
102.900000
 11
49.000000
 21
102.400000
  0
LINE
  8
1
 62
7
  6
CONTINUOUS
 10
49.000000
 20
99.500000
 11
49.000000
 21
100.000000
  0
LINE
  8
1
 62
7
  6
CONTINUOUS
 10
48.600000
 20
101.200000
 11
49.500000
 21
101.200000
  0
CIRCLE
  8
1
 62
7
  6
CONTINUOUS
 10
49.000000
 20
101.200000
 30
0.0
 40
0.700000
  0
LINE
  8
1
 62
7
  6
CONTINUOUS
 10
49.000000
 20
32.100000
 11
49.000000
 21
32.600000
  0
LINE
  8
1
 62
7
  6
CONTINUOUS
 10
49.000000
 20
35.500000
 11
49.000000
 21
35.000000
  0
LINE
  8
1
 62
7
  6
CONTINUOUS
 10
48.600000
 20
33.800000
 11
49.500000
 21
33.800000
  0
CIRCLE
  8
1
 62
7
  6
CONTINUOUS
 10
49.000000
 20
33.800000
 30
0.0
 40
0.700000
  0
LINE
  8
1
 62
7
  6
CONTINUOUS
 10
26.000000
 20
32.100000
 11
26.000000
 21
32.600000
  0
LINE
  8
1
 62
7
  6
CONTINUOUS
 10
26.000000
 20
35.500000
 11
26.000000
 21
35.000000
  0
LINE
  8
1
 62
7
  6
CONTINUOUS
 10
26.400000
 20
33.800000
 11
25.500000
 21
33.800000
  0
CIRCLE
  8
1
 62
7
  6
CONTINUOUS
 10
26.000000
 20
33.800000
 30
0.0
 40
0.700000
  0
LINE
  8
1
 62
7
  6
CONTINUOUS
 10
50.000000
 20
0.200000
 11
50.000000
 21
104.800000
  0
LINE
  8
1
 62
7
  6
CONTINUOUS
 10
25.000000
 20
0.200000
 11
25.000000
 21
104.800000
  0
LINE
  8
1
 62
7
  6
CONTINUOUS
 10
74.800000
 20
30.000000
 11
0.200000
 21
30.000000
  0
LINE
  8
1
 62
7
  6
CONTINUOUS
 10
1.000000
 20
102.900000
 11
1.000000
 21
102.400000
  0
LINE
  8
1
 62
7
  6
CONTINUOUS
 10
1.000000
 20
99.500000
 11
1.000000
 21
100.000000
  0
LINE
  8
1
 62
7
  6
CONTINUOUS
 10
1.400000
 20
101.200000
 11
0.500000
 21
101.200000
  0
CIRCLE
  8
1
 62
7
  6
CONTINUOUS
 10
1.000000
 20
101.200000
 30
0.0
 40
0.700000
  0
LINE
  8
1
 62
7
  6
CONTINUOUS
 10
24.000000
 20
102.900000
 11
24.000000
 21
102.400000
  0
LINE
  8
1
 62
7
  6
CONTINUOUS
 10
24.000000
 20
99.500000
 11
24.000000
 21
100.000000
  0
LINE
  8
1
 62
7
  6
CONTINUOUS
 10
23.600000
 20
101.200000
 11
24.500000
 21
101.200000
  0
CIRCLE
  8
1
 62
7
  6
CONTINUOUS
 10
24.000000
 20
101.200000
 30
0.0
 40
0.700000
  0
LINE
  8
1
 62
7
  6
CONTINUOUS
 10
24.000000
 20
32.100000
 11
24.000000
 21
32.600000
  0
LINE
  8
1
 62
7
  6
CONTINUOUS
 10
24.000000
 20
35.500000
 11
24.000000
 21
35.000000
  0
LINE
  8
1
 62
7
  6
CONTINUOUS
 10
23.600000
 20
33.800000
 11
24.500000
 21
33.800000
  0
CIRCLE
  8
1
 62
7
  6
CONTINUOUS
 10
24.000000
 20
33.800000
 30
0.0
 40
0.700000
  0
LINE
  8
1
 62
7
  6
CONTINUOUS
 10
1.000000
 20
32.100000
 11
1.000000
 21
32.600000
  0
LINE
  8
1
 62
7
  6
CONTINUOUS
 10
1.000000
 20
35.500000
 11
1.000000
 21
35.000000
  0
LINE
  8
1
 62
7
  6
CONTINUOUS
 10
1.400000
 20
33.800000
 11
0.500000
 21
33.800000
  0
CIRCLE
  8
1
 62
7
  6
CONTINUOUS
 10
1.000000
 20
33.800000
 30
0.0
 40
0.700000
  0
LINE
  8
1
 62
7
  6
CONTINUOUS
 10
1.000000
 20
27.900000
 11
1.000000
 21
27.400000
  0
LINE
  8
1
 62
7
  6
CONTINUOUS
 10
1.000000
 20
24.500000
 11
1.000000
 21
25.000000
  0
LINE
  8
1
 62
7
  6
CONTINUOUS
 10
1.400000
 20
26.200000
 11
0.500000
 21
26.200000
  0
CIRCLE
  8
1
 62
7
  6
CONTINUOUS
 10
1.000000
 20
26.200000
 30
0.0
 40
0.700000
  0
LINE
  8
1
 62
7
  6
CONTINUOUS
 10
24.000000
 20
27.900000
 11
24.000000
 21
27.400000
  0
LINE
  8
1
 62
7
  6
CONTINUOUS
 10
24.000000
 20
24.500000
 11
24.000000
 21
25.000000
  0
LINE
  8
1
 62
7
  6
CONTINUOUS
 10
23.600000
 20
26.200000
 11
24.500000
 21
26.200000
  0
CIRCLE
  8
1
 62
7
  6
CONTINUOUS
 10
24.000000
 20
26.200000
 30
0.0
 40
0.700000
  0
LINE
  8
1
 62
7
  6
CONTINUOUS
 10
26.000000
 20
27.900000
 11
26.000000
 21
27.400000
  0
LINE
  8
1
 62
7
  6
CONTINUOUS
 10
26.000000
 20
24.500000
 11
26.000000
 21
25.000000
  0
LINE
  8
1
 62
7
  6
CONTINUOUS
 10
26.400000
 20
26.200000
 11
25.500000
 21
26.200000
  0
CIRCLE
  8
1
 62
7
  6
CONTINUOUS
 10
26.000000
 20
26.200000
 30
0.0
 40
0.700000
  0
LINE
  8
1
 62
7
  6
CONTINUOUS
 10
49.000000
 20
27.900000
 11
49.000000
 21
27.400000
  0
LINE
  8
1
 62
7
  6
CONTINUOUS
 10
49.000000
 20
24.500000
 11
49.000000
 21
25.000000
  0
LINE
  8
1
 62
7
  6
CONTINUOUS
 10
48.600000
 20
26.200000
 11
49.500000
 21
26.200000
  0
CIRCLE
  8
1
 62
7
  6
CONTINUOUS
 10
49.000000
 20
26.200000
 30
0.0
 40
0.700000
  0
LINE
  8
1
 62
7
  6
CONTINUOUS
 10
26.000000
 20
2.100000
 11
26.000000
 21
2.600000
  0
LINE
  8
1
 62
7
  6
CONTINUOUS
 10
26.000000
 20
5.500000
 11
26.000000
 21
5.000000
  0
LINE
  8
1
 62
7
  6
CONTINUOUS
 10
26.400000
 20
3.800000
 11
25.500000
 21
3.800000
  0
CIRCLE
  8
1
 62
7
  6
CONTINUOUS
 10
26.000000
 20
3.800000
 30
0.0
 40
0.700000
  0
LINE
  8
1
 62
7
  6
CONTINUOUS
 10
51.000000
 20
27.900000
 11
51.000000
 21
27.400000
  0
LINE
  8
1
 62
7
  6
CONTINUOUS
 10
51.000000
 20
24.500000
 11
51.000000
 21
25.000000
  0
LINE
  8
1
 62
7
  6
CONTINUOUS
 10
51.400000
 20
26.200000
 11
50.500000
 21
26.200000
  0
CIRCLE
  8
1
 62
7
  6
CONTINUOUS
 10
51.000000
 20
26.200000
 30
0.0
 40
0.700000
  0
LINE
  8
1
 62
7
  6
CONTINUOUS
 10
74.000000
 20
27.900000
 11
74.000000
 21
27.400000
  0
LINE
  8
1
 62
7
  6
CONTINUOUS
 10
74.000000
 20
24.500000
 11
74.000000
 21
25.000000
  0
LINE
  8
1
 62
7
  6
CONTINUOUS
 10
73.600000
 20
26.200000
 11
74.500000
 21
26.200000
  0
CIRCLE
  8
1
 62
7
  6
CONTINUOUS
 10
74.000000
 20
26.200000
 30
0.0
 40
0.700000
  0
LINE
  8
1
 62
7
  6
CONTINUOUS
 10
74.000000
 20
2.100000
 11
74.000000
 21
2.600000
  0
LINE
  8
1
 62
7
  6
CONTINUOUS
 10
74.000000
 20
5.500000
 11
74.000000
 21
5.000000
  0
LINE
  8
1
 62
7
  6
CONTINUOUS
 10
73.600000
 20
3.800000
 11
74.500000
 21
3.800000
  0
CIRCLE
  8
1
 62
7
  6
CONTINUOUS
 10
74.000000
 20
3.800000
 30
0.0
 40
0.700000
  0
LINE
  8
1
 62
7
  6
CONTINUOUS
 10
51.000000
 20
2.100000
 11
51.000000
 21
2.600000
  0
LINE
  8
1
 62
7
  6
CONTINUOUS
 10
51.000000
 20
5.500000
 11
51.000000
 21
5.000000
  0
LINE
  8
1
 62
7
  6
CONTINUOUS
 10
51.400000
 20
3.800000
 11
50.500000
 21
3.800000
  0
CIRCLE
  8
1
 62
7
  6
CONTINUOUS
 10
51.000000
 20
3.800000
 30
0.0
 40
0.700000
  0
LINE
  8
1
 62
7
  6
CONTINUOUS
 10
49.000000
 20
2.100000
 11
49.000000
 21
2.600000
  0
LINE
  8
1
 62
7
  6
CONTINUOUS
 10
49.000000
 20
5.500000
 11
49.000000
 21
5.000000
  0
LINE
  8
1
 62
7
  6
CONTINUOUS
 10
49.400000
 20
3.800000
 11
48.500000
 21
3.800000
  0
CIRCLE
  8
1
 62
7
  6
CONTINUOUS
 10
49.000000
 20
3.800000
 30
0.0
 40
0.700000
  0
LINE
  8
1
 62
7
  6
CONTINUOUS
 10
24.000000
 20
2.100000
 11
24.000000
 21
2.600000
  0
LINE
  8
1
 62
7
  6
CONTINUOUS
 10
24.000000
 20
5.500000
 11
24.000000
 21
5.000000
  0
LINE
  8
1
 62
7
  6
CONTINUOUS
 10
23.600000
 20
3.800000
 11
24.500000
 21
3.800000
  0
CIRCLE
  8
1
 62
7
  6
CONTINUOUS
 10
24.000000
 20
3.800000
 30
0.0
 40
0.700000
  0
LINE
  8
1
 62
7
  6
CONTINUOUS
 10
1.000000
 20
2.100000
 11
1.000000
 21
2.600000
  0
LINE
  8
1
 62
7
  6
CONTINUOUS
 10
1.000000
 20
5.500000
 11
1.000000
 21
5.000000
  0
LINE
  8
1
 62
7
  6
CONTINUOUS
 10
1.400000
 20
3.800000
 11
0.500000
 21
3.800000
  0
CIRCLE
  8
1
 62
7
  6
CONTINUOUS
 10
1.000000
 20
3.800000
 30
0.0
 40
0.700000
  0
POLYLINE
  8
1
 62
7
  6
CONTINUOUS
 70
1
 66
1
  0
VERTEX
 10
22.200000
 20
36.600000
 30
0.000000
  8
1
 62
7
  6
CONTINUOUS
  0
VERTEX
 10
22.200000
 20
101.600000
 30
0.000000
  8
1
 62
7
  6
CONTINUOUS
  0
VERTEX
 10
12.400000
 20
101.600000
 30
0.000000
  8
1
 62
7
  6
CONTINUOUS
  0
VERTEX
 10
12.400000
 20
36.600000
 30
0.000000
  8
1
 62
7
  6
CONTINUOUS
  0
SEQEND
  0
POLYLINE
  8
1
 62
7
  6
CONTINUOUS
 70
1
 66
1
  0
VERTEX
 10
72.500000
 20
36.600000
 30
0.000000
  8
1
 62
7
  6
CONTINUOUS
  0
VERTEX
 10
72.500000
 20
101.600000
 30
0.000000
  8
1
 62
7
  6
CONTINUOUS
  0
VERTEX
 10
52.400000
 20
101.600000
 30
0.000000
  8
1
 62
7
  6
CONTINUOUS
  0
VERTEX
 10
52.400000
 20
36.600000
 30
0.000000
  8
1
 62
7
  6
CONTINUOUS
  0
SEQEND
  0
POLYLINE
  8
57
 62
7
  6
L014100020032000000
 70
1
 66
1
  0
VERTEX
 10
74.500000
 20
90.100000
 30
0.000000
  8
57
 62
7
  6
L014100020032000000
  0
VERTEX
 10
74.500000
 20
93.100000
 30
0.000000
  8
57
 62
7
  6
L014100020032000000
  0
VERTEX
 10
42.000000
 20
93.100000
 30
0.000000
  8
57
 62
7
  6
L014100020032000000
  0
VERTEX
 10
42.000000
 20
90.100000
 30
0.000000
  8
57
 62
7
  6
L014100020032000000
  0
SEQEND
  0
POLYLINE
  8
57
 62
7
  6
L014100020032000000
 70
1
 66
1
  0
VERTEX
 10
33.000000
 20
90.100000
 30
0.000000
  8
57
 62
7
  6
L014100020032000000
  0
VERTEX
 10
33.000000
 20
93.100000
 30
0.000000
  8
57
 62
7
  6
L014100020032000000
  0
VERTEX
 10
0.500000
 20
93.100000
 30
0.000000
  8
57
 62
7
  6
L014100020032000000
  0
VERTEX
 10
0.500000
 20
90.100000
 30
0.000000
  8
57
 62
7
  6
L014100020032000000
  0
SEQEND
  0
POLYLINE
  8
57
 62
7
  6
L014100020032000000
 70
1
 66
1
  0
VERTEX
 10
33.000000
 20
71.500000
 30
0.000000
  8
57
 62
7
  6
L014100020032000000
  0
VERTEX
 10
33.000000
 20
74.500000
 30
0.000000
  8
57
 62
7
  6
L014100020032000000
  0
VERTEX
 10
0.500000
 20
74.500000
 30
0.000000
  8
57
 62
7
  6
L014100020032000000
  0
VERTEX
 10
0.500000
 20
71.500000
 30
0.000000
  8
57
 62
7
  6
L014100020032000000
  0
SEQEND
  0
POLYLINE
  8
57
 62
7
  6
L014100020032000000
 70
1
 66
1
  0
VERTEX
 10
74.500000
 20
71.500000
 30
0.000000
  8
57
 62
7
  6
L014100020032000000
  0
VERTEX
 10
74.500000
 20
74.500000
 30
0.000000
  8
57
 62
7
  6
L014100020032000000
  0
VERTEX
 10
42.000000
 20
74.500000
 30
0.000000
  8
57
 62
7
  6
L014100020032000000
  0
VERTEX
 10
42.000000
 20
71.500000
 30
0.000000
  8
57
 62
7
  6
L014100020032000000
  0
SEQEND
  0
POLYLINE
  8
57
 62
7
  6
L014100020032000000
 70
1
 66
1
  0
VERTEX
 10
33.000000
 20
53.000000
 30
0.000000
  8
57
 62
7
  6
L014100020032000000
  0
VERTEX
 10
33.000000
 20
56.000000
 30
0.000000
  8
57
 62
7
  6
L014100020032000000
  0
VERTEX
 10
0.500000
 20
56.000000
 30
0.000000
  8
57
 62
7
  6
L014100020032000000
  0
VERTEX
 10
0.500000
 20
53.000000
 30
0.000000
  8
57
 62
7
  6
L014100020032000000
  0
SEQEND
  0
POLYLINE
  8
57
 62
7
  6
L014100020032000000
 70
1
 66
1
  0
VERTEX
 10
74.500000
 20
53.000000
 30
0.000000
  8
57
 62
7
  6
L014100020032000000
  0
VERTEX
 10
74.500000
 20
56.000000
 30
0.000000
  8
57
 62
7
  6
L014100020032000000
  0
VERTEX
 10
42.000000
 20
56.000000
 30
0.000000
  8
57
 62
7
  6
L014100020032000000
  0
VERTEX
 10
42.000000
 20
53.000000
 30
0.000000
  8
57
 62
7
  6
L014100020032000000
  0
SEQEND
  0
CIRCLE
  8
57
 62
7
  6
L014100020032000000
 10
7.500000
 20
91.600000
 30
0.0
 40
0.700000
  0
CIRCLE
  8
57
 62
7
  6
L014100020032000000
 10
17.500000
 20
91.600000
 30
0.0
 40
0.700000
  0
CIRCLE
  8
57
 62
7
  6
L014100020032000000
 10
57.500000
 20
91.600000
 30
0.0
 40
0.700000
  0
CIRCLE
  8
57
 62
7
  6
L014100020032000000
 10
67.500000
 20
91.600000
 30
0.0
 40
0.700000
  0
CIRCLE
  8
57
 62
7
  6
L014100020032000000
 10
7.500000
 20
73.100000
 30
0.0
 40
0.700000
  0
CIRCLE
  8
57
 62
7
  6
L014100020032000000
 10
17.500000
 20
73.100000
 30
0.0
 40
0.700000
  0
CIRCLE
  8
57
 62
7
  6
L014100020032000000
 10
57.500000
 20
73.100000
 30
0.0
 40
0.700000
  0
CIRCLE
  8
57
 62
7
  6
L014100020032000000
 10
67.500000
 20
73.100000
 30
0.0
 40
0.700000
  0
CIRCLE
  8
57
 62
7
  6
L014100020032000000
 10
7.500000
 20
54.600000
 30
0.0
 40
0.700000
  0
CIRCLE
  8
57
 62
7
  6
L014100020032000000
 10
17.500000
 20
54.600000
 30
0.0
 40
0.700000
  0
CIRCLE
  8
57
 62
7
  6
L014100020032000000
 10
57.500000
 20
54.600000
 30
0.0
 40
0.700000
  0
CIRCLE
  8
57
 62
7
  6
L014100020032000000
 10
67.500000
 20
54.600000
 30
0.0
 40
0.700000
  0
POLYLINE
  8
57
 62
7
  6
L014100020032000000
 70
1
 66
1
  0
VERTEX
 10
74.500000
 20
23.500000
 30
0.000000
  8
57
 62
7
  6
L014100020032000000
  0
VERTEX
 10
74.500000
 20
26.500000
 30
0.000000
  8
57
 62
7
  6
L014100020032000000
  0
VERTEX
 10
0.500000
 20
26.500000
 30
0.000000
  8
57
 62
7
  6
L014100020032000000
  0
VERTEX
 10
0.500000
 20
23.500000
 30
0.000000
  8
57
 62
7
  6
L014100020032000000
  0
SEQEND
  0
POLYLINE
  8
57
 62
7
  6
L014100020032000000
 70
1
 66
1
  0
VERTEX
 10
74.500000
 20
8.500000
 30
0.000000
  8
57
 62
7
  6
L014100020032000000
  0
VERTEX
 10
74.500000
 20
11.500000
 30
0.000000
  8
57
 62
7
  6
L014100020032000000
  0
VERTEX
 10
0.500000
 20
11.500000
 30
0.000000
  8
57
 62
7
  6
L014100020032000000
  0
VERTEX
 10
0.500000
 20
8.500000
 30
0.000000
  8
57
 62
7
  6
L014100020032000000
  0
SEQEND
  0
CIRCLE
  8
57
 62
7
  6
L014100020032000000
 10
5.000000
 20
91.600000
 30
0.0
 40
0.500000
  0
CIRCLE
  8
57
 62
7
  6
L014100020032000000
 10
10.000000
 20
91.600000
 30
0.0
 40
0.500000
  0
CIRCLE
  8
57
 62
7
  6
L014100020032000000
 10
15.000000
 20
91.600000
 30
0.0
 40
0.500000
  0
CIRCLE
  8
57
 62
7
  6
L014100020032000000
 10
20.000000
 20
91.600000
 30
0.0
 40
0.500000
  0
CIRCLE
  8
57
 62
7
  6
L014100020032000000
 10
12.500000
 20
91.600000
 30
0.0
 40
0.600000
  0
CIRCLE
  8
57
 62
7
  6
L014100020032000000
 10
12.500000
 20
91.600000
 30
0.0
 40
1.100000
  0
CIRCLE
  8
57
 62
7
  6
L014100020032000000
 10
55.000000
 20
91.600000
 30
0.0
 40
0.500000
  0
CIRCLE
  8
57
 62
7
  6
L014100020032000000
 10
60.000000
 20
91.600000
 30
0.0
 40
0.500000
  0
CIRCLE
  8
57
 62
7
  6
L014100020032000000
 10
65.000000
 20
91.600000
 30
0.0
 40
0.500000
  0
CIRCLE
  8
57
 62
7
  6
L014100020032000000
 10
70.000000
 20
91.600000
 30
0.0
 40
0.500000
  0
CIRCLE
  8
57
 62
7
  6
L014100020032000000
 10
62.500000
 20
91.600000
 30
0.0
 40
0.600000
  0
CIRCLE
  8
57
 62
7
  6
L014100020032000000
 10
62.500000
 20
91.600000
 30
0.0
 40
1.100000
  0
CIRCLE
  8
57
 62
7
  6
L014100020032000000
 10
5.000000
 20
73.100000
 30
0.0
 40
0.500000
  0
CIRCLE
  8
57
 62
7
  6
L014100020032000000
 10
10.000000
 20
73.100000
 30
0.0
 40
0.500000
  0
CIRCLE
  8
57
 62
7
  6
L014100020032000000
 10
15.000000
 20
73.100000
 30
0.0
 40
0.500000
  0
CIRCLE
  8
57
 62
7
  6
L014100020032000000
 10
20.000000
 20
73.100000
 30
0.0
 40
0.500000
  0
CIRCLE
  8
57
 62
7
  6
L014100020032000000
 10
12.500000
 20
73.100000
 30
0.0
 40
0.600000
  0
CIRCLE
  8
57
 62
7
  6
L014100020032000000
 10
12.500000
 20
73.100000
 30
0.0
 40
1.100000
  0
CIRCLE
  8
57
 62
7
  6
L014100020032000000
 10
55.000000
 20
73.100000
 30
0.0
 40
0.500000
  0
CIRCLE
  8
57
 62
7
  6
L014100020032000000
 10
60.000000
 20
73.100000
 30
0.0
 40
0.500000
  0
CIRCLE
  8
57
 62
7
  6
L014100020032000000
 10
65.000000
 20
73.100000
 30
0.0
 40
0.500000
  0
CIRCLE
  8
57
 62
7
  6
L014100020032000000
 10
70.000000
 20
73.100000
 30
0.0
 40
0.500000
  0
CIRCLE
  8
57
 62
7
  6
L014100020032000000
 10
62.500000
 20
73.100000
 30
0.0
 40
0.600000
  0
CIRCLE
  8
57
 62
7
  6
L014100020032000000
 10
62.500000
 20
73.100000
 30
0.0
 40
1.100000
  0
CIRCLE
  8
57
 62
7
  6
L014100020032000000
 10
5.000000
 20
54.600000
 30
0.0
 40
0.500000
  0
CIRCLE
  8
57
 62
7
  6
L014100020032000000
 10
10.000000
 20
54.600000
 30
0.0
 40
0.500000
  0
CIRCLE
  8
57
 62
7
  6
L014100020032000000
 10
15.000000
 20
54.600000
 30
0.0
 40
0.500000
  0
CIRCLE
  8
57
 62
7
  6
L014100020032000000
 10
20.000000
 20
54.600000
 30
0.0
 40
0.500000
  0
CIRCLE
  8
57
 62
7
  6
L014100020032000000
 10
12.500000
 20
54.600000
 30
0.0
 40
0.600000
  0
CIRCLE
  8
57
 62
7
  6
L014100020032000000
 10
12.500000
 20
54.600000
 30
0.0
 40
1.100000
  0
CIRCLE
  8
57
 62
7
  6
L014100020032000000
 10
55.000000
 20
54.600000
 30
0.0
 40
0.500000
  0
CIRCLE
  8
57
 62
7
  6
L014100020032000000
 10
60.000000
 20
54.600000
 30
0.0
 40
0.500000
  0
CIRCLE
  8
57
 62
7
  6
L014100020032000000
 10
65.000000
 20
54.600000
 30
0.0
 40
0.500000
  0
CIRCLE
  8
57
 62
7
  6
L014100020032000000
 10
70.000000
 20
54.600000
 30
0.0
 40
0.500000
  0
CIRCLE
  8
57
 62
7
  6
L014100020032000000
 10
62.500000
 20
54.600000
 30
0.0
 40
0.600000
  0
CIRCLE
  8
57
 62
7
  6
L014100020032000000
 10
62.500000
 20
54.600000
 30
0.0
 40
1.100000
  0
POLYLINE
  8
57
 62
7
  6
L014100020032000000
 70
1
 66
1
  0
VERTEX
 10
46.000000
 20
89.600000
 30
0.000000
  8
57
 62
7
  6
L014100020032000000
  0
VERTEX
 10
46.000000
 20
93.600000
 30
0.000000
  8
57
 62
7
  6
L014100020032000000
  0
VERTEX
 10
29.000000
 20
93.600000
 30
0.000000
  8
57
 62
7
  6
L014100020032000000
  0
VERTEX
 10
29.000000
 20
89.600000
 30
0.000000
  8
57
 62
7
  6
L014100020032000000
  0
SEQEND
  0
CIRCLE
  8
57
 62
7
  6
L014100020032000000
 10
31.000000
 20
91.600000
 30
0.0
 40
0.700000
  0
CIRCLE
  8
57
 62
7
  6
L014100020032000000
 10
44.000000
 20
91.600000
 30
0.0
 40
0.700000
  0
CIRCLE
  8
57
 62
7
  6
L014100020032000000
 10
47.000000
 20
91.600000
 30
0.0
 40
0.700000
  0
CIRCLE
  8
57
 62
7
  6
L014100020032000000
 10
28.000000
 20
91.600000
 30
0.0
 40
0.700000
  0
CIRCLE
  8
57
 62
7
  6
L014100020032000000
 10
31.000000
 20
91.600000
 30
0.0
 40
0.700000
  0
POLYLINE
  8
57
 62
7
  6
L014100020032000000
 70
1
 66
1
  0
VERTEX
 10
46.000000
 20
71.000000
 30
0.000000
  8
57
 62
7
  6
L014100020032000000
  0
VERTEX
 10
46.000000
 20
75.000000
 30
0.000000
  8
57
 62
7
  6
L014100020032000000
  0
VERTEX
 10
29.000000
 20
75.000000
 30
0.000000
  8
57
 62
7
  6
L014100020032000000
  0
VERTEX
 10
29.000000
 20
71.000000
 30
0.000000
  8
57
 62
7
  6
L014100020032000000
  0
SEQEND
  0
CIRCLE
  8
57
 62
7
  6
L014100020032000000
 10
31.000000
 20
73.000000
 30
0.0
 40
0.700000
  0
CIRCLE
  8
57
 62
7
  6
L014100020032000000
 10
44.000000
 20
73.000000
 30
0.0
 40
0.700000
  0
CIRCLE
  8
57
 62
7
  6
L014100020032000000
 10
47.000000
 20
73.000000
 30
0.0
 40
0.700000
  0
CIRCLE
  8
57
 62
7
  6
L014100020032000000
 10
28.000000
 20
73.000000
 30
0.0
 40
0.700000
  0
POLYLINE
  8
57
 62
7
  6
L014100020032000000
 70
1
 66
1
  0
VERTEX
 10
45.900000
 20
52.500000
 30
0.000000
  8
57
 62
7
  6
L014100020032000000
  0
VERTEX
 10
45.900000
 20
56.500000
 30
0.000000
  8
57
 62
7
  6
L014100020032000000
  0
VERTEX
 10
29.000000
 20
56.500000
 30
0.000000
  8
57
 62
7
  6
L014100020032000000
  0
VERTEX
 10
29.000000
 20
52.500000
 30
0.000000
  8
57
 62
7
  6
L014100020032000000
  0
SEQEND
  0
CIRCLE
  8
57
 62
7
  6
L014100020032000000
 10
31.000000
 20
54.500000
 30
0.0
 40
0.700000
  0
CIRCLE
  8
57
 62
7
  6
L014100020032000000
 10
44.000000
 20
54.500000
 30
0.0
 40
0.700000
  0
CIRCLE
  8
57
 62
7
  6
L014100020032000000
 10
47.000000
 20
54.500000
 30
0.0
 40
0.700000
  0
CIRCLE
  8
57
 62
7
  6
L014100020032000000
 10
28.000000
 20
54.500000
 30
0.0
 40
0.700000
  0
POLYLINE
  8
29
 62
7
  6
CONTINUOUS
 70
1
 66
1
  0
VERTEX
 10
74.800000
 20
105.200000
 30
0.000000
  8
29
 62
7
  6
CONTINUOUS
  0
VERTEX
 10
74.800000
 20
179.800000
 30
0.000000
  8
29
 62
7
  6
CONTINUOUS
  0
VERTEX
 10
0.200000
 20
179.800000
 30
0.000000
  8
29
 62
7
  6
CONTINUOUS
  0
VERTEX
 10
0.200000
 20
105.200000
 30
0.000000
  8
29
 62
7
  6
CONTINUOUS
  0
SEQEND
  0
TEXT
  8
29
 62
7
  6
CONTINUOUS
 10
35.300000
 20
149.500000
 40
3.000000
  1
Wechselplatte 
 50
0.000000
 51
0.000000
 72
1
 73
0
 11
35.300000
 21
149.500000
  0
TEXT
  8
29
 62
7
  6
CONTINUOUS
 10
35.300000
 20
146.500000
 40
3.000000
  1
kommt von NB
 50
0.000000
 51
0.000000
 72
1
 73
0
 11
35.300000
 21
146.500000
  0
TEXT
  8
29
 62
7
  6
CONTINUOUS
 10
35.300000
 20
143.500000
 40
3.000000
  1

 50
0.000000
 51
0.000000
 72
1
 73
0
 11
35.300000
 21
143.500000
  0
TEXT
  8
29
 62
7
  6
CONTINUOUS
 10
35.300000
 20
140.500000
 40
3.000000
  1
vorbereitet für 
 50
0.000000
 51
0.000000
 72
1
 73
0
 11
35.300000
 21
140.500000
  0
TEXT
  8
29
 62
7
  6
CONTINUOUS
 10
35.300000
 20
137.500000
 40
3.000000
  1
WF35ZV und WF35ZT
 50
0.000000
 51
0.000000
 72
1
 73
0
 11
35.300000
 21
137.500000
  0
POLYLINE
  8
29
 62
7
  6
CONTINUOUS
 70
1
 66
1
  0
VERTEX
 10
74.800000
 20
104.800000
 30
0.000000
  8
29
 62
7
  6
CONTINUOUS
  0
VERTEX
 10
74.800000
 20
0.200000
 30
0.000000
  8
29
 62
7
  6
CONTINUOUS
  0
VERTEX
 10
0.200000
 20
0.200000
 30
0.000000
  8
29
 62
7
  6
CONTINUOUS
  0
VERTEX
 10
0.200000
 20
104.800000
 30
0.000000
  8
29
 62
7
  6
CONTINUOUS
  0
SEQEND
  0
LINE
  8
29
 62
7
  6
CONTINUOUS
 10
50.000000
 20
0.200000
 11
50.000000
 21
104.800000
  0
LINE
  8
29
 62
7
  6
CONTINUOUS
 10
25.000000
 20
0.200000
 11
25.000000
 21
104.800000
  0
LINE
  8
29
 62
7
  6
CONTINUOUS
 10
74.800000
 20
30.000000
 11
0.200000
 21
30.000000
  0
POLYLINE
  8
56
 62
7
  6
CONTINUOUS
 70
1
 66
1
  0
VERTEX
 10
74.500000
 20
90.100000
 30
0.000000
  8
56
 62
7
  6
CONTINUOUS
  0
VERTEX
 10
74.500000
 20
93.100000
 30
0.000000
  8
56
 62
7
  6
CONTINUOUS
  0
VERTEX
 10
42.000000
 20
93.100000
 30
0.000000
  8
56
 62
7
  6
CONTINUOUS
  0
VERTEX
 10
42.000000
 20
90.100000
 30
0.000000
  8
56
 62
7
  6
CONTINUOUS
  0
SEQEND
  0
POLYLINE
  8
56
 62
7
  6
CONTINUOUS
 70
1
 66
1
  0
VERTEX
 10
33.000000
 20
90.100000
 30
0.000000
  8
56
 62
7
  6
CONTINUOUS
  0
VERTEX
 10
33.000000
 20
93.100000
 30
0.000000
  8
56
 62
7
  6
CONTINUOUS
  0
VERTEX
 10
0.500000
 20
93.100000
 30
0.000000
  8
56
 62
7
  6
CONTINUOUS
  0
VERTEX
 10
0.500000
 20
90.100000
 30
0.000000
  8
56
 62
7
  6
CONTINUOUS
  0
SEQEND
  0
POLYLINE
  8
56
 62
7
  6
CONTINUOUS
 70
1
 66
1
  0
VERTEX
 10
33.000000
 20
71.500000
 30
0.000000
  8
56
 62
7
  6
CONTINUOUS
  0
VERTEX
 10
33.000000
 20
74.500000
 30
0.000000
  8
56
 62
7
  6
CONTINUOUS
  0
VERTEX
 10
0.500000
 20
74.500000
 30
0.000000
  8
56
 62
7
  6
CONTINUOUS
  0
VERTEX
 10
0.500000
 20
71.500000
 30
0.000000
  8
56
 62
7
  6
CONTINUOUS
  0
SEQEND
  0
POLYLINE
  8
56
 62
7
  6
CONTINUOUS
 70
1
 66
1
  0
VERTEX
 10
74.500000
 20
71.500000
 30
0.000000
  8
56
 62
7
  6
CONTINUOUS
  0
VERTEX
 10
74.500000
 20
74.500000
 30
0.000000
  8
56
 62
7
  6
CONTINUOUS
  0
VERTEX
 10
42.000000
 20
74.500000
 30
0.000000
  8
56
 62
7
  6
CONTINUOUS
  0
VERTEX
 10
42.000000
 20
71.500000
 30
0.000000
  8
56
 62
7
  6
CONTINUOUS
  0
SEQEND
  0
POLYLINE
  8
56
 62
7
  6
CONTINUOUS
 70
1
 66
1
  0
VERTEX
 10
33.000000
 20
53.000000
 30
0.000000
  8
56
 62
7
  6
CONTINUOUS
  0
VERTEX
 10
33.000000
 20
56.000000
 30
0.000000
  8
56
 62
7
  6
CONTINUOUS
  0
VERTEX
 10
0.500000
 20
56.000000
 30
0.000000
  8
56
 62
7
  6
CONTINUOUS
  0
VERTEX
 10
0.500000
 20
53.000000
 30
0.000000
  8
56
 62
7
  6
CONTINUOUS
  0
SEQEND
  0
POLYLINE
  8
56
 62
7
  6
CONTINUOUS
 70
1
 66
1
  0
VERTEX
 10
74.500000
 20
53.000000
 30
0.000000
  8
56
 62
7
  6
CONTINUOUS
  0
VERTEX
 10
74.500000
 20
56.000000
 30
0.000000
  8
56
 62
7
  6
CONTINUOUS
  0
VERTEX
 10
42.000000
 20
56.000000
 30
0.000000
  8
56
 62
7
  6
CONTINUOUS
  0
VERTEX
 10
42.000000
 20
53.000000
 30
0.000000
  8
56
 62
7
  6
CONTINUOUS
  0
SEQEND
  0
CIRCLE
  8
56
 62
7
  6
CONTINUOUS
 10
7.500000
 20
91.600000
 30
0.0
 40
0.700000
  0
CIRCLE
  8
56
 62
7
  6
CONTINUOUS
 10
17.500000
 20
91.600000
 30
0.0
 40
0.700000
  0
CIRCLE
  8
56
 62
7
  6
CONTINUOUS
 10
57.500000
 20
91.600000
 30
0.0
 40
0.700000
  0
CIRCLE
  8
56
 62
7
  6
CONTINUOUS
 10
67.500000
 20
91.600000
 30
0.0
 40
0.700000
  0
CIRCLE
  8
56
 62
7
  6
CONTINUOUS
 10
7.500000
 20
73.100000
 30
0.0
 40
0.700000
  0
CIRCLE
  8
56
 62
7
  6
CONTINUOUS
 10
17.500000
 20
73.100000
 30
0.0
 40
0.700000
  0
CIRCLE
  8
56
 62
7
  6
CONTINUOUS
 10
57.500000
 20
73.100000
 30
0.0
 40
0.700000
  0
CIRCLE
  8
56
 62
7
  6
CONTINUOUS
 10
67.500000
 20
73.100000
 30
0.0
 40
0.700000
  0
CIRCLE
  8
56
 62
7
  6
CONTINUOUS
 10
7.500000
 20
54.600000
 30
0.0
 40
0.700000
  0
CIRCLE
  8
56
 62
7
  6
CONTINUOUS
 10
17.500000
 20
54.600000
 30
0.0
 40
0.700000
  0
CIRCLE
  8
56
 62
7
  6
CONTINUOUS
 10
57.500000
 20
54.600000
 30
0.0
 40
0.700000
  0
CIRCLE
  8
56
 62
7
  6
CONTINUOUS
 10
67.500000
 20
54.600000
 30
0.0
 40
0.700000
  0
POLYLINE
  8
56
 62
7
  6
CONTINUOUS
 70
1
 66
1
  0
VERTEX
 10
74.500000
 20
23.500000
 30
0.000000
  8
56
 62
7
  6
CONTINUOUS
  0
VERTEX
 10
74.500000
 20
26.500000
 30
0.000000
  8
56
 62
7
  6
CONTINUOUS
  0
VERTEX
 10
0.500000
 20
26.500000
 30
0.000000
  8
56
 62
7
  6
CONTINUOUS
  0
VERTEX
 10
0.500000
 20
23.500000
 30
0.000000
  8
56
 62
7
  6
CONTINUOUS
  0
SEQEND
  0
POLYLINE
  8
56
 62
7
  6
CONTINUOUS
 70
1
 66
1
  0
VERTEX
 10
74.500000
 20
8.500000
 30
0.000000
  8
56
 62
7
  6
CONTINUOUS
  0
VERTEX
 10
74.500000
 20
11.500000
 30
0.000000
  8
56
 62
7
  6
CONTINUOUS
  0
VERTEX
 10
0.500000
 20
11.500000
 30
0.000000
  8
56
 62
7
  6
CONTINUOUS
  0
VERTEX
 10
0.500000
 20
8.500000
 30
0.000000
  8
56
 62
7
  6
CONTINUOUS
  0
SEQEND
  0
CIRCLE
  8
56
 62
7
  6
CONTINUOUS
 10
5.000000
 20
91.600000
 30
0.0
 40
0.500000
  0
CIRCLE
  8
56
 62
7
  6
CONTINUOUS
 10
10.000000
 20
91.600000
 30
0.0
 40
0.500000
  0
CIRCLE
  8
56
 62
7
  6
CONTINUOUS
 10
15.000000
 20
91.600000
 30
0.0
 40
0.500000
  0
CIRCLE
  8
56
 62
7
  6
CONTINUOUS
 10
20.000000
 20
91.600000
 30
0.0
 40
0.500000
  0
CIRCLE
  8
56
 62
7
  6
CONTINUOUS
 10
12.500000
 20
91.600000
 30
0.0
 40
0.600000
  0
CIRCLE
  8
56
 62
7
  6
CONTINUOUS
 10
12.500000
 20
91.600000
 30
0.0
 40
1.100000
  0
CIRCLE
  8
56
 62
7
  6
CONTINUOUS
 10
55.000000
 20
91.600000
 30
0.0
 40
0.500000
  0
CIRCLE
  8
56
 62
7
  6
CONTINUOUS
 10
60.000000
 20
91.600000
 30
0.0
 40
0.500000
  0
CIRCLE
  8
56
 62
7
  6
CONTINUOUS
 10
65.000000
 20
91.600000
 30
0.0
 40
0.500000
  0
CIRCLE
  8
56
 62
7
  6
CONTINUOUS
 10
70.000000
 20
91.600000
 30
0.0
 40
0.500000
  0
CIRCLE
  8
56
 62
7
  6
CONTINUOUS
 10
62.500000
 20
91.600000
 30
0.0
 40
0.600000
  0
CIRCLE
  8
56
 62
7
  6
CONTINUOUS
 10
62.500000
 20
91.600000
 30
0.0
 40
1.100000
  0
CIRCLE
  8
56
 62
7
  6
CONTINUOUS
 10
5.000000
 20
73.100000
 30
0.0
 40
0.500000
  0
CIRCLE
  8
56
 62
7
  6
CONTINUOUS
 10
10.000000
 20
73.100000
 30
0.0
 40
0.500000
  0
CIRCLE
  8
56
 62
7
  6
CONTINUOUS
 10
15.000000
 20
73.100000
 30
0.0
 40
0.500000
  0
CIRCLE
  8
56
 62
7
  6
CONTINUOUS
 10
20.000000
 20
73.100000
 30
0.0
 40
0.500000
  0
CIRCLE
  8
56
 62
7
  6
CONTINUOUS
 10
12.500000
 20
73.100000
 30
0.0
 40
0.600000
  0
CIRCLE
  8
56
 62
7
  6
CONTINUOUS
 10
12.500000
 20
73.100000
 30
0.0
 40
1.100000
  0
CIRCLE
  8
56
 62
7
  6
CONTINUOUS
 10
55.000000
 20
73.100000
 30
0.0
 40
0.500000
  0
CIRCLE
  8
56
 62
7
  6
CONTINUOUS
 10
60.000000
 20
73.100000
 30
0.0
 40
0.500000
  0
CIRCLE
  8
56
 62
7
  6
CONTINUOUS
 10
65.000000
 20
73.100000
 30
0.0
 40
0.500000
  0
CIRCLE
  8
56
 62
7
  6
CONTINUOUS
 10
70.000000
 20
73.100000
 30
0.0
 40
0.500000
  0
CIRCLE
  8
56
 62
7
  6
CONTINUOUS
 10
62.500000
 20
73.100000
 30
0.0
 40
0.600000
  0
CIRCLE
  8
56
 62
7
  6
CONTINUOUS
 10
62.500000
 20
73.100000
 30
0.0
 40
1.100000
  0
CIRCLE
  8
56
 62
7
  6
CONTINUOUS
 10
5.000000
 20
54.600000
 30
0.0
 40
0.500000
  0
CIRCLE
  8
56
 62
7
  6
CONTINUOUS
 10
10.000000
 20
54.600000
 30
0.0
 40
0.500000
  0
CIRCLE
  8
56
 62
7
  6
CONTINUOUS
 10
15.000000
 20
54.600000
 30
0.0
 40
0.500000
  0
CIRCLE
  8
56
 62
7
  6
CONTINUOUS
 10
20.000000
 20
54.600000
 30
0.0
 40
0.500000
  0
CIRCLE
  8
56
 62
7
  6
CONTINUOUS
 10
12.500000
 20
54.600000
 30
0.0
 40
0.600000
  0
CIRCLE
  8
56
 62
7
  6
CONTINUOUS
 10
12.500000
 20
54.600000
 30
0.0
 40
1.100000
  0
CIRCLE
  8
56
 62
7
  6
CONTINUOUS
 10
55.000000
 20
54.600000
 30
0.0
 40
0.500000
  0
CIRCLE
  8
56
 62
7
  6
CONTINUOUS
 10
60.000000
 20
54.600000
 30
0.0
 40
0.500000
  0
CIRCLE
  8
56
 62
7
  6
CONTINUOUS
 10
65.000000
 20
54.600000
 30
0.0
 40
0.500000
  0
CIRCLE
  8
56
 62
7
  6
CONTINUOUS
 10
70.000000
 20
54.600000
 30
0.0
 40
0.500000
  0
CIRCLE
  8
56
 62
7
  6
CONTINUOUS
 10
62.500000
 20
54.600000
 30
0.0
 40
0.600000
  0
CIRCLE
  8
56
 62
7
  6
CONTINUOUS
 10
62.500000
 20
54.600000
 30
0.0
 40
1.100000
  0
POLYLINE
  8
56
 62
7
  6
CONTINUOUS
 70
1
 66
1
  0
VERTEX
 10
46.000000
 20
89.600000
 30
0.000000
  8
56
 62
7
  6
CONTINUOUS
  0
VERTEX
 10
46.000000
 20
93.600000
 30
0.000000
  8
56
 62
7
  6
CONTINUOUS
  0
VERTEX
 10
29.100000
 20
93.600000
 30
0.000000
  8
56
 62
7
  6
CONTINUOUS
  0
VERTEX
 10
29.100000
 20
89.600000
 30
0.000000
  8
56
 62
7
  6
CONTINUOUS
  0
SEQEND
  0
CIRCLE
  8
56
 62
7
  6
CONTINUOUS
 10
31.000000
 20
91.600000
 30
0.0
 40
0.700000
  0
CIRCLE
  8
56
 62
7
  6
CONTINUOUS
 10
44.000000
 20
91.600000
 30
0.0
 40
0.700000
  0
CIRCLE
  8
56
 62
7
  6
CONTINUOUS
 10
47.000000
 20
91.600000
 30
0.0
 40
0.700000
  0
CIRCLE
  8
56
 62
7
  6
CONTINUOUS
 10
28.000000
 20
91.600000
 30
0.0
 40
0.700000
  0
CIRCLE
  8
56
 62
7
  6
CONTINUOUS
 10
31.000000
 20
91.600000
 30
0.0
 40
0.700000
  0
POLYLINE
  8
56
 62
7
  6
CONTINUOUS
 70
1
 66
1
  0
VERTEX
 10
46.000000
 20
71.000000
 30
0.000000
  8
56
 62
7
  6
CONTINUOUS
  0
VERTEX
 10
46.000000
 20
74.900000
 30
0.000000
  8
56
 62
7
  6
CONTINUOUS
  0
VERTEX
 10
29.000000
 20
74.900000
 30
0.000000
  8
56
 62
7
  6
CONTINUOUS
  0
VERTEX
 10
29.000000
 20
71.000000
 30
0.000000
  8
56
 62
7
  6
CONTINUOUS
  0
SEQEND
  0
CIRCLE
  8
56
 62
7
  6
CONTINUOUS
 10
31.000000
 20
73.000000
 30
0.0
 40
0.700000
  0
CIRCLE
  8
56
 62
7
  6
CONTINUOUS
 10
44.000000
 20
73.000000
 30
0.0
 40
0.700000
  0
CIRCLE
  8
56
 62
7
  6
CONTINUOUS
 10
47.000000
 20
73.000000
 30
0.0
 40
0.700000
  0
CIRCLE
  8
56
 62
7
  6
CONTINUOUS
 10
28.000000
 20
73.000000
 30
0.0
 40
0.700000
  0
POLYLINE
  8
56
 62
7
  6
CONTINUOUS
 70
1
 66
1
  0
VERTEX
 10
45.900000
 20
52.500000
 30
0.000000
  8
56
 62
7
  6
CONTINUOUS
  0
VERTEX
 10
45.900000
 20
56.500000
 30
0.000000
  8
56
 62
7
  6
CONTINUOUS
  0
VERTEX
 10
29.000000
 20
56.500000
 30
0.000000
  8
56
 62
7
  6
CONTINUOUS
  0
VERTEX
 10
29.000000
 20
52.500000
 30
0.000000
  8
56
 62
7
  6
CONTINUOUS
  0
SEQEND
  0
CIRCLE
  8
56
 62
7
  6
CONTINUOUS
 10
31.000000
 20
54.500000
 30
0.0
 40
0.700000
  0
CIRCLE
  8
56
 62
7
  6
CONTINUOUS
 10
44.000000
 20
54.500000
 30
0.0
 40
0.700000
  0
CIRCLE
  8
56
 62
7
  6
CONTINUOUS
 10
47.000000
 20
54.500000
 30
0.0
 40
0.700000
  0
CIRCLE
  8
56
 62
7
  6
CONTINUOUS
 10
28.000000
 20
54.500000
 30
0.0
 40
0.700000
  0
POLYLINE
  8
58
 62
255
  6
L000000020000FFFFFF
 70
1
 66
1
  0
VERTEX
 10
74.500000
 20
90.100000
 30
0.000000
  8
58
 62
255
  6
L000000020000FFFFFF
  0
VERTEX
 10
74.500000
 20
93.100000
 30
0.000000
  8
58
 62
255
  6
L000000020000FFFFFF
  0
VERTEX
 10
42.000000
 20
93.100000
 30
0.000000
  8
58
 62
255
  6
L000000020000FFFFFF
  0
VERTEX
 10
42.000000
 20
90.100000
 30
0.000000
  8
58
 62
255
  6
L000000020000FFFFFF
  0
SEQEND
  0
POLYLINE
  8
58
 62
255
  6
L000000020000FFFFFF
 70
1
 66
1
  0
VERTEX
 10
33.000000
 20
90.100000
 30
0.000000
  8
58
 62
255
  6
L000000020000FFFFFF
  0
VERTEX
 10
33.000000
 20
93.100000
 30
0.000000
  8
58
 62
255
  6
L000000020000FFFFFF
  0
VERTEX
 10
0.500000
 20
93.100000
 30
0.000000
  8
58
 62
255
  6
L000000020000FFFFFF
  0
VERTEX
 10
0.500000
 20
90.100000
 30
0.000000
  8
58
 62
255
  6
L000000020000FFFFFF
  0
SEQEND
  0
POLYLINE
  8
58
 62
255
  6
L000000020000FFFFFF
 70
1
 66
1
  0
VERTEX
 10
33.000000
 20
71.500000
 30
0.000000
  8
58
 62
255
  6
L000000020000FFFFFF
  0
VERTEX
 10
33.000000
 20
74.500000
 30
0.000000
  8
58
 62
255
  6
L000000020000FFFFFF
  0
VERTEX
 10
0.500000
 20
74.500000
 30
0.000000
  8
58
 62
255
  6
L000000020000FFFFFF
  0
VERTEX
 10
0.500000
 20
71.500000
 30
0.000000
  8
58
 62
255
  6
L000000020000FFFFFF
  0
SEQEND
  0
POLYLINE
  8
58
 62
255
  6
L000000020000FFFFFF
 70
1
 66
1
  0
VERTEX
 10
74.500000
 20
71.500000
 30
0.000000
  8
58
 62
255
  6
L000000020000FFFFFF
  0
VERTEX
 10
74.500000
 20
74.500000
 30
0.000000
  8
58
 62
255
  6
L000000020000FFFFFF
  0
VERTEX
 10
42.000000
 20
74.500000
 30
0.000000
  8
58
 62
255
  6
L000000020000FFFFFF
  0
VERTEX
 10
42.000000
 20
71.500000
 30
0.000000
  8
58
 62
255
  6
L000000020000FFFFFF
  0
SEQEND
  0
POLYLINE
  8
58
 62
255
  6
L000000020000FFFFFF
 70
1
 66
1
  0
VERTEX
 10
33.000000
 20
53.000000
 30
0.000000
  8
58
 62
255
  6
L000000020000FFFFFF
  0
VERTEX
 10
33.000000
 20
56.000000
 30
0.000000
  8
58
 62
255
  6
L000000020000FFFFFF
  0
VERTEX
 10
0.500000
 20
56.000000
 30
0.000000
  8
58
 62
255
  6
L000000020000FFFFFF
  0
VERTEX
 10
0.500000
 20
53.000000
 30
0.000000
  8
58
 62
255
  6
L000000020000FFFFFF
  0
SEQEND
  0
POLYLINE
  8
58
 62
255
  6
L000000020000FFFFFF
 70
1
 66
1
  0
VERTEX
 10
74.500000
 20
53.000000
 30
0.000000
  8
58
 62
255
  6
L000000020000FFFFFF
  0
VERTEX
 10
74.500000
 20
56.000000
 30
0.000000
  8
58
 62
255
  6
L000000020000FFFFFF
  0
VERTEX
 10
42.000000
 20
56.000000
 30
0.000000
  8
58
 62
255
  6
L000000020000FFFFFF
  0
VERTEX
 10
42.000000
 20
53.000000
 30
0.000000
  8
58
 62
255
  6
L000000020000FFFFFF
  0
SEQEND
  0
CIRCLE
  8
58
 62
255
  6
L000000020000FFFFFF
 10
7.500000
 20
91.600000
 30
0.0
 40
0.700000
  0
CIRCLE
  8
58
 62
255
  6
L000000020000FFFFFF
 10
17.500000
 20
91.600000
 30
0.0
 40
0.700000
  0
CIRCLE
  8
58
 62
255
  6
L000000020000FFFFFF
 10
57.500000
 20
91.600000
 30
0.0
 40
0.700000
  0
CIRCLE
  8
58
 62
255
  6
L000000020000FFFFFF
 10
67.500000
 20
91.600000
 30
0.0
 40
0.700000
  0
CIRCLE
  8
58
 62
255
  6
L000000020000FFFFFF
 10
7.500000
 20
73.100000
 30
0.0
 40
0.700000
  0
CIRCLE
  8
58
 62
255
  6
L000000020000FFFFFF
 10
17.500000
 20
73.100000
 30
0.0
 40
0.700000
  0
CIRCLE
  8
58
 62
255
  6
L000000020000FFFFFF
 10
57.500000
 20
73.100000
 30
0.0
 40
0.700000
  0
CIRCLE
  8
58
 62
255
  6
L000000020000FFFFFF
 10
67.500000
 20
73.100000
 30
0.0
 40
0.700000
  0
CIRCLE
  8
58
 62
255
  6
L000000020000FFFFFF
 10
7.500000
 20
54.600000
 30
0.0
 40
0.700000
  0
CIRCLE
  8
58
 62
255
  6
L000000020000FFFFFF
 10
17.500000
 20
54.600000
 30
0.0
 40
0.700000
  0
CIRCLE
  8
58
 62
255
  6
L000000020000FFFFFF
 10
57.500000
 20
54.600000
 30
0.0
 40
0.700000
  0
CIRCLE
  8
58
 62
255
  6
L000000020000FFFFFF
 10
67.500000
 20
54.600000
 30
0.0
 40
0.700000
  0
POLYLINE
  8
58
 62
255
  6
L000000020000FFFFFF
 70
1
 66
1
  0
VERTEX
 10
74.500000
 20
23.500000
 30
0.000000
  8
58
 62
255
  6
L000000020000FFFFFF
  0
VERTEX
 10
74.500000
 20
26.500000
 30
0.000000
  8
58
 62
255
  6
L000000020000FFFFFF
  0
VERTEX
 10
0.500000
 20
26.500000
 30
0.000000
  8
58
 62
255
  6
L000000020000FFFFFF
  0
VERTEX
 10
0.500000
 20
23.500000
 30
0.000000
  8
58
 62
255
  6
L000000020000FFFFFF
  0
SEQEND
  0
POLYLINE
  8
58
 62
255
  6
L000000020000FFFFFF
 70
1
 66
1
  0
VERTEX
 10
74.500000
 20
8.500000
 30
0.000000
  8
58
 62
255
  6
L000000020000FFFFFF
  0
VERTEX
 10
74.500000
 20
11.500000
 30
0.000000
  8
58
 62
255
  6
L000000020000FFFFFF
  0
VERTEX
 10
0.500000
 20
11.500000
 30
0.000000
  8
58
 62
255
  6
L000000020000FFFFFF
  0
VERTEX
 10
0.500000
 20
8.500000
 30
0.000000
  8
58
 62
255
  6
L000000020000FFFFFF
  0
SEQEND
  0
CIRCLE
  8
58
 62
255
  6
L000000020000FFFFFF
 10
5.000000
 20
91.600000
 30
0.0
 40
0.500000
  0
CIRCLE
  8
58
 62
255
  6
L000000020000FFFFFF
 10
10.000000
 20
91.600000
 30
0.0
 40
0.500000
  0
CIRCLE
  8
58
 62
255
  6
L000000020000FFFFFF
 10
15.000000
 20
91.600000
 30
0.0
 40
0.500000
  0
CIRCLE
  8
58
 62
255
  6
L000000020000FFFFFF
 10
20.000000
 20
91.600000
 30
0.0
 40
0.500000
  0
CIRCLE
  8
58
 62
255
  6
L000000020000FFFFFF
 10
12.500000
 20
91.600000
 30
0.0
 40
0.600000
  0
CIRCLE
  8
58
 62
255
  6
L000000020000FFFFFF
 10
12.500000
 20
91.600000
 30
0.0
 40
1.100000
  0
CIRCLE
  8
58
 62
255
  6
L000000020000FFFFFF
 10
55.000000
 20
91.600000
 30
0.0
 40
0.500000
  0
CIRCLE
  8
58
 62
255
  6
L000000020000FFFFFF
 10
60.000000
 20
91.600000
 30
0.0
 40
0.500000
  0
CIRCLE
  8
58
 62
255
  6
L000000020000FFFFFF
 10
65.000000
 20
91.600000
 30
0.0
 40
0.500000
  0
CIRCLE
  8
58
 62
255
  6
L000000020000FFFFFF
 10
70.000000
 20
91.600000
 30
0.0
 40
0.500000
  0
CIRCLE
  8
58
 62
255
  6
L000000020000FFFFFF
 10
62.500000
 20
91.600000
 30
0.0
 40
0.600000
  0
CIRCLE
  8
58
 62
255
  6
L000000020000FFFFFF
 10
62.500000
 20
91.600000
 30
0.0
 40
1.100000
  0
CIRCLE
  8
58
 62
255
  6
L000000020000FFFFFF
 10
5.000000
 20
73.100000
 30
0.0
 40
0.500000
  0
CIRCLE
  8
58
 62
255
  6
L000000020000FFFFFF
 10
10.000000
 20
73.100000
 30
0.0
 40
0.500000
  0
CIRCLE
  8
58
 62
255
  6
L000000020000FFFFFF
 10
15.000000
 20
73.100000
 30
0.0
 40
0.500000
  0
CIRCLE
  8
58
 62
255
  6
L000000020000FFFFFF
 10
20.000000
 20
73.100000
 30
0.0
 40
0.500000
  0
CIRCLE
  8
58
 62
255
  6
L000000020000FFFFFF
 10
12.500000
 20
73.100000
 30
0.0
 40
0.600000
  0
CIRCLE
  8
58
 62
255
  6
L000000020000FFFFFF
 10
12.500000
 20
73.100000
 30
0.0
 40
1.100000
  0
CIRCLE
  8
58
 62
255
  6
L000000020000FFFFFF
 10
55.000000
 20
73.100000
 30
0.0
 40
0.500000
  0
CIRCLE
  8
58
 62
255
  6
L000000020000FFFFFF
 10
60.000000
 20
73.100000
 30
0.0
 40
0.500000
  0
CIRCLE
  8
58
 62
255
  6
L000000020000FFFFFF
 10
65.000000
 20
73.100000
 30
0.0
 40
0.500000
  0
CIRCLE
  8
58
 62
255
  6
L000000020000FFFFFF
 10
70.000000
 20
73.100000
 30
0.0
 40
0.500000
  0
CIRCLE
  8
58
 62
255
  6
L000000020000FFFFFF
 10
62.500000
 20
73.100000
 30
0.0
 40
0.600000
  0
CIRCLE
  8
58
 62
255
  6
L000000020000FFFFFF
 10
62.500000
 20
73.100000
 30
0.0
 40
1.100000
  0
CIRCLE
  8
58
 62
255
  6
L000000020000FFFFFF
 10
5.000000
 20
54.600000
 30
0.0
 40
0.500000
  0
CIRCLE
  8
58
 62
255
  6
L000000020000FFFFFF
 10
10.000000
 20
54.600000
 30
0.0
 40
0.500000
  0
CIRCLE
  8
58
 62
255
  6
L000000020000FFFFFF
 10
15.000000
 20
54.600000
 30
0.0
 40
0.500000
  0
CIRCLE
  8
58
 62
255
  6
L000000020000FFFFFF
 10
20.000000
 20
54.600000
 30
0.0
 40
0.500000
  0
CIRCLE
  8
58
 62
255
  6
L000000020000FFFFFF
 10
12.500000
 20
54.600000
 30
0.0
 40
0.600000
  0
CIRCLE
  8
58
 62
255
  6
L000000020000FFFFFF
 10
12.500000
 20
54.600000
 30
0.0
 40
1.100000
  0
CIRCLE
  8
58
 62
255
  6
L000000020000FFFFFF
 10
55.000000
 20
54.600000
 30
0.0
 40
0.500000
  0
CIRCLE
  8
58
 62
255
  6
L000000020000FFFFFF
 10
60.000000
 20
54.600000
 30
0.0
 40
0.500000
  0
CIRCLE
  8
58
 62
255
  6
L000000020000FFFFFF
 10
65.000000
 20
54.600000
 30
0.0
 40
0.500000
  0
CIRCLE
  8
58
 62
255
  6
L000000020000FFFFFF
 10
70.000000
 20
54.600000
 30
0.0
 40
0.500000
  0
CIRCLE
  8
58
 62
255
  6
L000000020000FFFFFF
 10
62.500000
 20
54.600000
 30
0.0
 40
0.600000
  0
CIRCLE
  8
58
 62
255
  6
L000000020000FFFFFF
 10
62.500000
 20
54.600000
 30
0.0
 40
1.100000
  0
POLYLINE
  8
58
 62
255
  6
L000000020000FFFFFF
 70
1
 66
1
  0
VERTEX
 10
46.000000
 20
89.600000
 30
0.000000
  8
58
 62
255
  6
L000000020000FFFFFF
  0
VERTEX
 10
46.000000
 20
93.600000
 30
0.000000
  8
58
 62
255
  6
L000000020000FFFFFF
  0
VERTEX
 10
29.100000
 20
93.600000
 30
0.000000
  8
58
 62
255
  6
L000000020000FFFFFF
  0
VERTEX
 10
29.100000
 20
89.600000
 30
0.000000
  8
58
 62
255
  6
L000000020000FFFFFF
  0
SEQEND
  0
CIRCLE
  8
58
 62
255
  6
L000000020000FFFFFF
 10
31.000000
 20
91.600000
 30
0.0
 40
0.700000
  0
CIRCLE
  8
58
 62
255
  6
L000000020000FFFFFF
 10
44.000000
 20
91.600000
 30
0.0
 40
0.700000
  0
CIRCLE
  8
58
 62
255
  6
L000000020000FFFFFF
 10
47.000000
 20
91.600000
 30
0.0
 40
0.700000
  0
CIRCLE
  8
58
 62
255
  6
L000000020000FFFFFF
 10
28.000000
 20
91.600000
 30
0.0
 40
0.700000
  0
CIRCLE
  8
58
 62
255
  6
L000000020000FFFFFF
 10
31.000000
 20
91.600000
 30
0.0
 40
0.700000
  0
POLYLINE
  8
58
 62
255
  6
L000000020000FFFFFF
 70
1
 66
1
  0
VERTEX
 10
45.900000
 20
71.000000
 30
0.000000
  8
58
 62
255
  6
L000000020000FFFFFF
  0
VERTEX
 10
45.900000
 20
75.100000
 30
0.000000
  8
58
 62
255
  6
L000000020000FFFFFF
  0
VERTEX
 10
29.000000
 20
75.100000
 30
0.000000
  8
58
 62
255
  6
L000000020000FFFFFF
  0
VERTEX
 10
29.000000
 20
71.000000
 30
0.000000
  8
58
 62
255
  6
L000000020000FFFFFF
  0
SEQEND
  0
CIRCLE
  8
58
 62
255
  6
L000000020000FFFFFF
 10
31.000000
 20
73.000000
 30
0.0
 40
0.700000
  0
CIRCLE
  8
58
 62
255
  6
L000000020000FFFFFF
 10
44.000000
 20
73.000000
 30
0.0
 40
0.700000
  0
CIRCLE
  8
58
 62
255
  6
L000000020000FFFFFF
 10
47.000000
 20
73.000000
 30
0.0
 40
0.700000
  0
CIRCLE
  8
58
 62
255
  6
L000000020000FFFFFF
 10
28.000000
 20
73.000000
 30
0.0
 40
0.700000
  0
POLYLINE
  8
58
 62
255
  6
L000000020000FFFFFF
 70
1
 66
1
  0
VERTEX
 10
46.000000
 20
52.500000
 30
0.000000
  8
58
 62
255
  6
L000000020000FFFFFF
  0
VERTEX
 10
46.000000
 20
56.500000
 30
0.000000
  8
58
 62
255
  6
L000000020000FFFFFF
  0
VERTEX
 10
29.000000
 20
56.500000
 30
0.000000
  8
58
 62
255
  6
L000000020000FFFFFF
  0
VERTEX
 10
29.000000
 20
52.500000
 30
0.000000
  8
58
 62
255
  6
L000000020000FFFFFF
  0
SEQEND
  0
CIRCLE
  8
58
 62
255
  6
L000000020000FFFFFF
 10
31.000000
 20
54.500000
 30
0.0
 40
0.700000
  0
CIRCLE
  8
58
 62
255
  6
L000000020000FFFFFF
 10
44.000000
 20
54.500000
 30
0.0
 40
0.700000
  0
CIRCLE
  8
58
 62
255
  6
L000000020000FFFFFF
 10
47.000000
 20
54.500000
 30
0.0
 40
0.700000
  0
CIRCLE
  8
58
 62
255
  6
L000000020000FFFFFF
 10
28.000000
 20
54.500000
 30
0.0
 40
0.700000
  0
POLYLINE
  8
60
 62
255
  6
L000000020000FFFFFF
 70
1
 66
1
  0
VERTEX
 10
74.500000
 20
90.100000
 30
0.000000
  8
60
 62
255
  6
L000000020000FFFFFF
  0
VERTEX
 10
74.500000
 20
93.100000
 30
0.000000
  8
60
 62
255
  6
L000000020000FFFFFF
  0
VERTEX
 10
42.000000
 20
93.100000
 30
0.000000
  8
60
 62
255
  6
L000000020000FFFFFF
  0
VERTEX
 10
42.000000
 20
90.100000
 30
0.000000
  8
60
 62
255
  6
L000000020000FFFFFF
  0
SEQEND
  0
POLYLINE
  8
60
 62
255
  6
L000000020000FFFFFF
 70
1
 66
1
  0
VERTEX
 10
33.000000
 20
90.100000
 30
0.000000
  8
60
 62
255
  6
L000000020000FFFFFF
  0
VERTEX
 10
33.000000
 20
93.100000
 30
0.000000
  8
60
 62
255
  6
L000000020000FFFFFF
  0
VERTEX
 10
0.500000
 20
93.100000
 30
0.000000
  8
60
 62
255
  6
L000000020000FFFFFF
  0
VERTEX
 10
0.500000
 20
90.100000
 30
0.000000
  8
60
 62
255
  6
L000000020000FFFFFF
  0
SEQEND
  0
POLYLINE
  8
60
 62
255
  6
L000000020000FFFFFF
 70
1
 66
1
  0
VERTEX
 10
33.000000
 20
71.500000
 30
0.000000
  8
60
 62
255
  6
L000000020000FFFFFF
  0
VERTEX
 10
33.000000
 20
74.500000
 30
0.000000
  8
60
 62
255
  6
L000000020000FFFFFF
  0
VERTEX
 10
0.500000
 20
74.500000
 30
0.000000
  8
60
 62
255
  6
L000000020000FFFFFF
  0
VERTEX
 10
0.500000
 20
71.500000
 30
0.000000
  8
60
 62
255
  6
L000000020000FFFFFF
  0
SEQEND
  0
POLYLINE
  8
60
 62
255
  6
L000000020000FFFFFF
 70
1
 66
1
  0
VERTEX
 10
74.500000
 20
71.500000
 30
0.000000
  8
60
 62
255
  6
L000000020000FFFFFF
  0
VERTEX
 10
74.500000
 20
74.500000
 30
0.000000
  8
60
 62
255
  6
L000000020000FFFFFF
  0
VERTEX
 10
42.000000
 20
74.500000
 30
0.000000
  8
60
 62
255
  6
L000000020000FFFFFF
  0
VERTEX
 10
42.000000
 20
71.500000
 30
0.000000
  8
60
 62
255
  6
L000000020000FFFFFF
  0
SEQEND
  0
POLYLINE
  8
60
 62
255
  6
L000000020000FFFFFF
 70
1
 66
1
  0
VERTEX
 10
33.000000
 20
53.000000
 30
0.000000
  8
60
 62
255
  6
L000000020000FFFFFF
  0
VERTEX
 10
33.000000
 20
56.000000
 30
0.000000
  8
60
 62
255
  6
L000000020000FFFFFF
  0
VERTEX
 10
0.500000
 20
56.000000
 30
0.000000
  8
60
 62
255
  6
L000000020000FFFFFF
  0
VERTEX
 10
0.500000
 20
53.000000
 30
0.000000
  8
60
 62
255
  6
L000000020000FFFFFF
  0
SEQEND
  0
POLYLINE
  8
60
 62
255
  6
L000000020000FFFFFF
 70
1
 66
1
  0
VERTEX
 10
74.500000
 20
53.000000
 30
0.000000
  8
60
 62
255
  6
L000000020000FFFFFF
  0
VERTEX
 10
74.500000
 20
56.000000
 30
0.000000
  8
60
 62
255
  6
L000000020000FFFFFF
  0
VERTEX
 10
42.000000
 20
56.000000
 30
0.000000
  8
60
 62
255
  6
L000000020000FFFFFF
  0
VERTEX
 10
42.000000
 20
53.000000
 30
0.000000
  8
60
 62
255
  6
L000000020000FFFFFF
  0
SEQEND
  0
CIRCLE
  8
60
 62
255
  6
L000000020000FFFFFF
 10
7.500000
 20
91.600000
 30
0.0
 40
0.700000
  0
CIRCLE
  8
60
 62
255
  6
L000000020000FFFFFF
 10
17.500000
 20
91.600000
 30
0.0
 40
0.700000
  0
CIRCLE
  8
60
 62
255
  6
L000000020000FFFFFF
 10
57.500000
 20
91.600000
 30
0.0
 40
0.700000
  0
CIRCLE
  8
60
 62
255
  6
L000000020000FFFFFF
 10
67.500000
 20
91.600000
 30
0.0
 40
0.700000
  0
CIRCLE
  8
60
 62
255
  6
L000000020000FFFFFF
 10
7.500000
 20
73.100000
 30
0.0
 40
0.700000
  0
CIRCLE
  8
60
 62
255
  6
L000000020000FFFFFF
 10
17.500000
 20
73.100000
 30
0.0
 40
0.700000
  0
CIRCLE
  8
60
 62
255
  6
L000000020000FFFFFF
 10
57.500000
 20
73.100000
 30
0.0
 40
0.700000
  0
CIRCLE
  8
60
 62
255
  6
L000000020000FFFFFF
 10
67.500000
 20
73.100000
 30
0.0
 40
0.700000
  0
CIRCLE
  8
60
 62
255
  6
L000000020000FFFFFF
 10
7.500000
 20
54.600000
 30
0.0
 40
0.700000
  0
CIRCLE
  8
60
 62
255
  6
L000000020000FFFFFF
 10
17.500000
 20
54.600000
 30
0.0
 40
0.700000
  0
CIRCLE
  8
60
 62
255
  6
L000000020000FFFFFF
 10
57.500000
 20
54.600000
 30
0.0
 40
0.700000
  0
CIRCLE
  8
60
 62
255
  6
L000000020000FFFFFF
 10
67.500000
 20
54.600000
 30
0.0
 40
0.700000
  0
POLYLINE
  8
60
 62
255
  6
L000000020000FFFFFF
 70
1
 66
1
  0
VERTEX
 10
74.500000
 20
23.500000
 30
0.000000
  8
60
 62
255
  6
L000000020000FFFFFF
  0
VERTEX
 10
74.500000
 20
26.500000
 30
0.000000
  8
60
 62
255
  6
L000000020000FFFFFF
  0
VERTEX
 10
0.500000
 20
26.500000
 30
0.000000
  8
60
 62
255
  6
L000000020000FFFFFF
  0
VERTEX
 10
0.500000
 20
23.500000
 30
0.000000
  8
60
 62
255
  6
L000000020000FFFFFF
  0
SEQEND
  0
POLYLINE
  8
60
 62
255
  6
L000000020000FFFFFF
 70
1
 66
1
  0
VERTEX
 10
74.500000
 20
8.500000
 30
0.000000
  8
60
 62
255
  6
L000000020000FFFFFF
  0
VERTEX
 10
74.500000
 20
11.500000
 30
0.000000
  8
60
 62
255
  6
L000000020000FFFFFF
  0
VERTEX
 10
0.500000
 20
11.500000
 30
0.000000
  8
60
 62
255
  6
L000000020000FFFFFF
  0
VERTEX
 10
0.500000
 20
8.500000
 30
0.000000
  8
60
 62
255
  6
L000000020000FFFFFF
  0
SEQEND
  0
CIRCLE
  8
60
 62
255
  6
L000000020000FFFFFF
 10
5.000000
 20
91.600000
 30
0.0
 40
0.500000
  0
CIRCLE
  8
60
 62
255
  6
L000000020000FFFFFF
 10
10.000000
 20
91.600000
 30
0.0
 40
0.500000
  0
CIRCLE
  8
60
 62
255
  6
L000000020000FFFFFF
 10
15.000000
 20
91.600000
 30
0.0
 40
0.500000
  0
CIRCLE
  8
60
 62
255
  6
L000000020000FFFFFF
 10
20.000000
 20
91.600000
 30
0.0
 40
0.500000
  0
CIRCLE
  8
60
 62
255
  6
L000000020000FFFFFF
 10
12.500000
 20
91.600000
 30
0.0
 40
0.600000
  0
CIRCLE
  8
60
 62
255
  6
L000000020000FFFFFF
 10
12.500000
 20
91.600000
 30
0.0
 40
1.100000
  0
CIRCLE
  8
60
 62
255
  6
L000000020000FFFFFF
 10
55.000000
 20
91.600000
 30
0.0
 40
0.500000
  0
CIRCLE
  8
60
 62
255
  6
L000000020000FFFFFF
 10
60.000000
 20
91.600000
 30
0.0
 40
0.500000
  0
CIRCLE
  8
60
 62
255
  6
L000000020000FFFFFF
 10
65.000000
 20
91.600000
 30
0.0
 40
0.500000
  0
CIRCLE
  8
60
 62
255
  6
L000000020000FFFFFF
 10
70.000000
 20
91.600000
 30
0.0
 40
0.500000
  0
CIRCLE
  8
60
 62
255
  6
L000000020000FFFFFF
 10
62.500000
 20
91.600000
 30
0.0
 40
0.600000
  0
CIRCLE
  8
60
 62
255
  6
L000000020000FFFFFF
 10
62.500000
 20
91.600000
 30
0.0
 40
1.100000
  0
CIRCLE
  8
60
 62
255
  6
L000000020000FFFFFF
 10
5.000000
 20
73.100000
 30
0.0
 40
0.500000
  0
CIRCLE
  8
60
 62
255
  6
L000000020000FFFFFF
 10
10.000000
 20
73.100000
 30
0.0
 40
0.500000
  0
CIRCLE
  8
60
 62
255
  6
L000000020000FFFFFF
 10
15.000000
 20
73.100000
 30
0.0
 40
0.500000
  0
CIRCLE
  8
60
 62
255
  6
L000000020000FFFFFF
 10
20.000000
 20
73.100000
 30
0.0
 40
0.500000
  0
CIRCLE
  8
60
 62
255
  6
L000000020000FFFFFF
 10
12.500000
 20
73.100000
 30
0.0
 40
0.600000
  0
CIRCLE
  8
60
 62
255
  6
L000000020000FFFFFF
 10
12.500000
 20
73.100000
 30
0.0
 40
1.100000
  0
CIRCLE
  8
60
 62
255
  6
L000000020000FFFFFF
 10
55.000000
 20
73.100000
 30
0.0
 40
0.500000
  0
CIRCLE
  8
60
 62
255
  6
L000000020000FFFFFF
 10
60.000000
 20
73.100000
 30
0.0
 40
0.500000
  0
CIRCLE
  8
60
 62
255
  6
L000000020000FFFFFF
 10
65.000000
 20
73.100000
 30
0.0
 40
0.500000
  0
CIRCLE
  8
60
 62
255
  6
L000000020000FFFFFF
 10
70.000000
 20
73.100000
 30
0.0
 40
0.500000
  0
CIRCLE
  8
60
 62
255
  6
L000000020000FFFFFF
 10
62.500000
 20
73.100000
 30
0.0
 40
0.600000
  0
CIRCLE
  8
60
 62
255
  6
L000000020000FFFFFF
 10
62.500000
 20
73.100000
 30
0.0
 40
1.100000
  0
CIRCLE
  8
60
 62
255
  6
L000000020000FFFFFF
 10
5.000000
 20
54.600000
 30
0.0
 40
0.500000
  0
CIRCLE
  8
60
 62
255
  6
L000000020000FFFFFF
 10
10.000000
 20
54.600000
 30
0.0
 40
0.500000
  0
CIRCLE
  8
60
 62
255
  6
L000000020000FFFFFF
 10
15.000000
 20
54.600000
 30
0.0
 40
0.500000
  0
CIRCLE
  8
60
 62
255
  6
L000000020000FFFFFF
 10
20.000000
 20
54.600000
 30
0.0
 40
0.500000
  0
CIRCLE
  8
60
 62
255
  6
L000000020000FFFFFF
 10
12.500000
 20
54.600000
 30
0.0
 40
0.600000
  0
CIRCLE
  8
60
 62
255
  6
L000000020000FFFFFF
 10
12.500000
 20
54.600000
 30
0.0
 40
1.100000
  0
CIRCLE
  8
60
 62
255
  6
L000000020000FFFFFF
 10
55.000000
 20
54.600000
 30
0.0
 40
0.500000
  0
CIRCLE
  8
60
 62
255
  6
L000000020000FFFFFF
 10
60.000000
 20
54.600000
 30
0.0
 40
0.500000
  0
CIRCLE
  8
60
 62
255
  6
L000000020000FFFFFF
 10
65.000000
 20
54.600000
 30
0.0
 40
0.500000
  0
CIRCLE
  8
60
 62
255
  6
L000000020000FFFFFF
 10
70.000000
 20
54.600000
 30
0.0
 40
0.500000
  0
CIRCLE
  8
60
 62
255
  6
L000000020000FFFFFF
 10
62.500000
 20
54.600000
 30
0.0
 40
0.600000
  0
CIRCLE
  8
60
 62
255
  6
L000000020000FFFFFF
 10
62.500000
 20
54.600000
 30
0.0
 40
1.100000
  0
POLYLINE
  8
60
 62
255
  6
L000000020000FFFFFF
 70
1
 66
1
  0
VERTEX
 10
46.000000
 20
89.600000
 30
0.000000
  8
60
 62
255
  6
L000000020000FFFFFF
  0
VERTEX
 10
46.000000
 20
93.600000
 30
0.000000
  8
60
 62
255
  6
L000000020000FFFFFF
  0
VERTEX
 10
29.000000
 20
93.600000
 30
0.000000
  8
60
 62
255
  6
L000000020000FFFFFF
  0
VERTEX
 10
29.000000
 20
89.600000
 30
0.000000
  8
60
 62
255
  6
L000000020000FFFFFF
  0
SEQEND
  0
CIRCLE
  8
60
 62
255
  6
L000000020000FFFFFF
 10
31.000000
 20
91.600000
 30
0.0
 40
0.700000
  0
CIRCLE
  8
60
 62
255
  6
L000000020000FFFFFF
 10
44.000000
 20
91.600000
 30
0.0
 40
0.700000
  0
CIRCLE
  8
60
 62
255
  6
L000000020000FFFFFF
 10
47.000000
 20
91.600000
 30
0.0
 40
0.700000
  0
CIRCLE
  8
60
 62
255
  6
L000000020000FFFFFF
 10
28.000000
 20
91.600000
 30
0.0
 40
0.700000
  0
CIRCLE
  8
60
 62
255
  6
L000000020000FFFFFF
 10
31.000000
 20
91.600000
 30
0.0
 40
0.700000
  0
POLYLINE
  8
60
 62
255
  6
L000000020000FFFFFF
 70
1
 66
1
  0
VERTEX
 10
46.000000
 20
71.000000
 30
0.000000
  8
60
 62
255
  6
L000000020000FFFFFF
  0
VERTEX
 10
46.000000
 20
75.000000
 30
0.000000
  8
60
 62
255
  6
L000000020000FFFFFF
  0
VERTEX
 10
29.000000
 20
75.000000
 30
0.000000
  8
60
 62
255
  6
L000000020000FFFFFF
  0
VERTEX
 10
29.000000
 20
71.000000
 30
0.000000
  8
60
 62
255
  6
L000000020000FFFFFF
  0
SEQEND
  0
CIRCLE
  8
60
 62
255
  6
L000000020000FFFFFF
 10
31.000000
 20
73.000000
 30
0.0
 40
0.700000
  0
CIRCLE
  8
60
 62
255
  6
L000000020000FFFFFF
 10
44.000000
 20
73.000000
 30
0.0
 40
0.700000
  0
CIRCLE
  8
60
 62
255
  6
L000000020000FFFFFF
 10
47.000000
 20
73.000000
 30
0.0
 40
0.700000
  0
CIRCLE
  8
60
 62
255
  6
L000000020000FFFFFF
 10
28.000000
 20
73.000000
 30
0.0
 40
0.700000
  0
POLYLINE
  8
60
 62
255
  6
L000000020000FFFFFF
 70
1
 66
1
  0
VERTEX
 10
46.000000
 20
52.500000
 30
0.000000
  8
60
 62
255
  6
L000000020000FFFFFF
  0
VERTEX
 10
46.000000
 20
56.500000
 30
0.000000
  8
60
 62
255
  6
L000000020000FFFFFF
  0
VERTEX
 10
29.000000
 20
56.500000
 30
0.000000
  8
60
 62
255
  6
L000000020000FFFFFF
  0
VERTEX
 10
29.000000
 20
52.500000
 30
0.000000
  8
60
 62
255
  6
L000000020000FFFFFF
  0
SEQEND
  0
CIRCLE
  8
60
 62
255
  6
L000000020000FFFFFF
 10
31.000000
 20
54.500000
 30
0.0
 40
0.700000
  0
CIRCLE
  8
60
 62
255
  6
L000000020000FFFFFF
 10
44.000000
 20
54.500000
 30
0.0
 40
0.700000
  0
CIRCLE
  8
60
 62
255
  6
L000000020000FFFFFF
 10
47.000000
 20
54.500000
 30
0.0
 40
0.700000
  0
CIRCLE
  8
60
 62
255
  6
L000000020000FFFFFF
 10
28.000000
 20
54.500000
 30
0.0
 40
0.700000
  0
POLYLINE
  8
30
 62
7
  6
CONTINUOUS
 70
1
 66
1
  0
VERTEX
 10
74.500000
 20
51.600000
 30
0.000000
  8
30
 62
7
  6
CONTINUOUS
  0
VERTEX
 10
74.500000
 20
94.600000
 30
0.000000
  8
30
 62
7
  6
CONTINUOUS
  0
VERTEX
 10
72.500000
 20
94.600000
 30
0.000000
  8
30
 62
7
  6
CONTINUOUS
  0
VERTEX
 10
72.500000
 20
51.600000
 30
0.000000
  8
30
 62
7
  6
CONTINUOUS
  0
SEQEND
  0
POLYLINE
  8
30
 62
7
  6
CONTINUOUS
 70
1
 66
1
  0
VERTEX
 10
52.500000
 20
51.600000
 30
0.000000
  8
30
 62
7
  6
CONTINUOUS
  0
VERTEX
 10
52.500000
 20
94.600000
 30
0.000000
  8
30
 62
7
  6
CONTINUOUS
  0
VERTEX
 10
50.500000
 20
94.600000
 30
0.000000
  8
30
 62
7
  6
CONTINUOUS
  0
VERTEX
 10
50.500000
 20
51.600000
 30
0.000000
  8
30
 62
7
  6
CONTINUOUS
  0
SEQEND
  0
POLYLINE
  8
30
 62
7
  6
CONTINUOUS
 70
1
 66
1
  0
VERTEX
 10
24.500000
 20
51.600000
 30
0.000000
  8
30
 62
7
  6
CONTINUOUS
  0
VERTEX
 10
24.500000
 20
94.600000
 30
0.000000
  8
30
 62
7
  6
CONTINUOUS
  0
VERTEX
 10
22.500000
 20
94.600000
 30
0.000000
  8
30
 62
7
  6
CONTINUOUS
  0
VERTEX
 10
22.500000
 20
51.600000
 30
0.000000
  8
30
 62
7
  6
CONTINUOUS
  0
SEQEND
  0
POLYLINE
  8
30
 62
7
  6
CONTINUOUS
 70
1
 66
1
  0
VERTEX
 10
2.500000
 20
51.600000
 30
0.000000
  8
30
 62
7
  6
CONTINUOUS
  0
VERTEX
 10
2.500000
 20
94.600000
 30
0.000000
  8
30
 62
7
  6
CONTINUOUS
  0
VERTEX
 10
0.500000
 20
94.600000
 30
0.000000
  8
30
 62
7
  6
CONTINUOUS
  0
VERTEX
 10
0.500000
 20
51.600000
 30
0.000000
  8
30
 62
7
  6
CONTINUOUS
  0
SEQEND
  0
POLYLINE
  8
30
 62
7
  6
CONTINUOUS
 70
1
 66
1
  0
VERTEX
 10
4.000000
 20
21.000000
 30
0.000000
  8
30
 62
7
  6
CONTINUOUS
  0
VERTEX
 10
4.000000
 20
29.000000
 30
0.000000
  8
30
 62
7
  6
CONTINUOUS
  0
VERTEX
 10
2.000000
 20
29.000000
 30
0.000000
  8
30
 62
7
  6
CONTINUOUS
  0
VERTEX
 10
2.000000
 20
21.000000
 30
0.000000
  8
30
 62
7
  6
CONTINUOUS
  0
SEQEND
  0
POLYLINE
  8
30
 62
7
  6
CONTINUOUS
 70
1
 66
1
  0
VERTEX
 10
4.000000
 20
6.000000
 30
0.000000
  8
30
 62
7
  6
CONTINUOUS
  0
VERTEX
 10
4.000000
 20
14.000000
 30
0.000000
  8
30
 62
7
  6
CONTINUOUS
  0
VERTEX
 10
2.000000
 20
14.000000
 30
0.000000
  8
30
 62
7
  6
CONTINUOUS
  0
VERTEX
 10
2.000000
 20
6.000000
 30
0.000000
  8
30
 62
7
  6
CONTINUOUS
  0
SEQEND
  0
POLYLINE
  8
30
 62
7
  6
CONTINUOUS
 70
1
 66
1
  0
VERTEX
 10
73.000000
 20
21.100000
 30
0.000000
  8
30
 62
7
  6
CONTINUOUS
  0
VERTEX
 10
73.000000
 20
29.100000
 30
0.000000
  8
30
 62
7
  6
CONTINUOUS
  0
VERTEX
 10
71.000000
 20
29.100000
 30
0.000000
  8
30
 62
7
  6
CONTINUOUS
  0
VERTEX
 10
71.000000
 20
21.100000
 30
0.000000
  8
30
 62
7
  6
CONTINUOUS
  0
SEQEND
  0
POLYLINE
  8
30
 62
7
  6
CONTINUOUS
 70
1
 66
1
  0
VERTEX
 10
73.000000
 20
6.100000
 30
0.000000
  8
30
 62
7
  6
CONTINUOUS
  0
VERTEX
 10
73.000000
 20
14.100000
 30
0.000000
  8
30
 62
7
  6
CONTINUOUS
  0
VERTEX
 10
71.000000
 20
14.100000
 30
0.000000
  8
30
 62
7
  6
CONTINUOUS
  0
VERTEX
 10
71.000000
 20
6.100000
 30
0.000000
  8
30
 62
7
  6
CONTINUOUS
  0
SEQEND
  0
POLYLINE
  8
157
 62
7
  6
CONTINUOUS
 70
1
 66
1
  0
VERTEX
 10
40.500000
 20
87.800000
 30
0.000000
  8
157
 62
7
  6
CONTINUOUS
  0
VERTEX
 10
40.500000
 20
95.400000
 30
0.000000
  8
157
 62
7
  6
CONTINUOUS
  0
VERTEX
 10
34.500000
 20
95.400000
 30
0.000000
  8
157
 62
7
  6
CONTINUOUS
  0
VERTEX
 10
34.500000
 20
87.800000
 30
0.000000
  8
157
 62
7
  6
CONTINUOUS
  0
SEQEND
  0
TEXT
  8
157
 62
7
  6
CONTINUOUS
 10
37.500000
 20
90.266667
 40
4.000000
  1
W
 50
0.000000
 51
0.000000
 72
1
 73
0
 11
37.500000
 21
90.266667
  0
POLYLINE
  8
157
 62
7
  6
CONTINUOUS
 70
1
 66
1
  0
VERTEX
 10
40.500000
 20
69.200000
 30
0.000000
  8
157
 62
7
  6
CONTINUOUS
  0
VERTEX
 10
40.500000
 20
76.800000
 30
0.000000
  8
157
 62
7
  6
CONTINUOUS
  0
VERTEX
 10
34.500000
 20
76.800000
 30
0.000000
  8
157
 62
7
  6
CONTINUOUS
  0
VERTEX
 10
34.500000
 20
69.200000
 30
0.000000
  8
157
 62
7
  6
CONTINUOUS
  0
SEQEND
  0
TEXT
  8
157
 62
7
  6
CONTINUOUS
 10
37.500000
 20
71.666667
 40
4.000000
  1
W
 50
0.000000
 51
0.000000
 72
1
 73
0
 11
37.500000
 21
71.666667
  0
POLYLINE
  8
157
 62
7
  6
CONTINUOUS
 70
1
 66
1
  0
VERTEX
 10
40.500000
 20
50.700000
 30
0.000000
  8
157
 62
7
  6
CONTINUOUS
  0
VERTEX
 10
40.500000
 20
58.300000
 30
0.000000
  8
157
 62
7
  6
CONTINUOUS
  0
VERTEX
 10
34.500000
 20
58.300000
 30
0.000000
  8
157
 62
7
  6
CONTINUOUS
  0
VERTEX
 10
34.500000
 20
50.700000
 30
0.000000
  8
157
 62
7
  6
CONTINUOUS
  0
SEQEND
  0
TEXT
  8
157
 62
7
  6
CONTINUOUS
 10
37.500000
 20
53.166667
 40
4.000000
  1
W
 50
0.000000
 51
0.000000
 72
1
 73
0
 11
37.500000
 21
53.166667
  0
LINE
  8
160
 62
5
  6
L014100020032FF0000
 10
-1.000000
 20
179.000000
 11
-1.000000
 21
106.000000
  0
LINE
  8
160
 62
5
  6
L014100020032FF0000
 10
76.000000
 20
179.000000
 11
76.000000
 21
106.000000
  0
LINE
  8
160
 62
5
  6
L014100020032FF0000
 10
74.000000
 20
181.000000
 11
1.000000
 21
181.000000
  0
LINE
  8
160
 62
1
  6
L0141000200320000FF
 10
49.000000
 20
104.000000
 11
49.000000
 21
1.000000
  0
LINE
  8
160
 62
1
  6
L0141000200320000FF
 10
74.000000
 20
104.000000
 11
1.000000
 21
104.000000
  0
ENDBLK
  0
BLOCK
  8
3
  2
tg312_d
 70
 0
 10
0.0
 20
0.0
 30
0.0
  0
POLYLINE
  8
3
 62
7
  6
CONTINUOUS
 70
1
 66
1
  0
VERTEX
 10
77.000000
 20
182.000000
 30
0.000000
  8
3
 62
7
  6
CONTINUOUS
  0
VERTEX
 10
77.000000
 20
-2.000000
 30
0.000000
  8
3
 62
7
  6
CONTINUOUS
  0
VERTEX
 10
-2.000000
 20
-2.000000
 30
0.000000
  8
3
 62
7
  6
CONTINUOUS
  0
VERTEX
 10
-2.000000
 20
182.000000
 30
0.000000
  8
3
 62
7
  6
CONTINUOUS
  0
SEQEND
  0
POLYLINE
  8
3
 62
7
  6
CONTINUOUS
 70
1
 66
1
  0
VERTEX
 10
76.000000
 20
12.500000
 30
0.000000
  8
3
 62
7
  6
CONTINUOUS
  0
VERTEX
 10
76.000000
 20
7.500000
 30
0.000000
  8
3
 62
7
  6
CONTINUOUS
  0
VERTEX
 10
77.000000
 20
7.500000
 30
0.000000
  8
3
 62
7
  6
CONTINUOUS
  0
VERTEX
 10
77.000000
 20
12.500000
 30
0.000000
  8
3
 62
7
  6
CONTINUOUS
  0
SEQEND
  0
POLYLINE
  8
3
 62
7
  6
CONTINUOUS
 70
1
 66
1
  0
VERTEX
 10
76.000000
 20
167.500000
 30
0.000000
  8
3
 62
7
  6
CONTINUOUS
  0
VERTEX
 10
76.000000
 20
172.500000
 30
0.000000
  8
3
 62
7
  6
CONTINUOUS
  0
VERTEX
 10
77.000000
 20
172.500000
 30
0.000000
  8
3
 62
7
  6
CONTINUOUS
  0
VERTEX
 10
77.000000
 20
167.500000
 30
0.000000
  8
3
 62
7
  6
CONTINUOUS
  0
SEQEND
  0
POLYLINE
  8
3
 62
7
  6
CONTINUOUS
 70
1
 66
1
  0
VERTEX
 10
76.000000
 20
87.500000
 30
0.000000
  8
3
 62
7
  6
CONTINUOUS
  0
VERTEX
 10
76.000000
 20
92.500000
 30
0.000000
  8
3
 62
7
  6
CONTINUOUS
  0
VERTEX
 10
77.000000
 20
92.500000
 30
0.000000
  8
3
 62
7
  6
CONTINUOUS
  0
VERTEX
 10
77.000000
 20
87.500000
 30
0.000000
  8
3
 62
7
  6
CONTINUOUS
  0
SEQEND
  0
POLYLINE
  8
47
 62
7
  6
CONTINUOUS
 70
1
 66
1
  0
VERTEX
 10
5.000000
 20
98.000000
 30
0.000000
  8
47
 62
7
  6
CONTINUOUS
  0
VERTEX
 10
5.000000
 20
82.000000
 30
0.000000
  8
47
 62
7
  6
CONTINUOUS
  0
VERTEX
 10
2.000000
 20
82.000000
 30
0.000000
  8
47
 62
7
  6
CONTINUOUS
  0
VERTEX
 10
2.000000
 20
98.000000
 30
0.000000
  8
47
 62
7
  6
CONTINUOUS
  0
SEQEND
  0
CIRCLE
  8
47
 62
7
  6
CONTINUOUS
 10
3.500000
 20
95.100000
 30
0.0
 40
0.600000
  0
POLYLINE
  8
47
 62
7
  6
CONTINUOUS
 70
1
 66
1
  0
VERTEX
 10
4.900000
 20
83.500000
 30
0.000000
  8
47
 62
7
  6
CONTINUOUS
  0
VERTEX
 10
4.900000
 20
96.500000
 30
0.000000
  8
47
 62
7
  6
CONTINUOUS
  0
VERTEX
 10
2.100000
 20
96.500000
 30
0.000000
  8
47
 62
7
  6
CONTINUOUS
  0
VERTEX
 10
2.100000
 20
83.500000
 30
0.000000
  8
47
 62
7
  6
CONTINUOUS
  0
SEQEND
  0
POLYLINE
  8
47
 62
7
  6
CONTINUOUS
 70
0
 66
1
  0
VERTEX
 10
4.100000
 20
95.300000
  8
47
 62
7
  6
CONTINUOUS
  0
VERTEX
 10
4.400000
 20
95.300000
  8
47
 62
7
  6
CONTINUOUS
  0
VERTEX
 10
4.400000
 20
94.900000
  8
47
 62
7
  6
CONTINUOUS
  0
VERTEX
 10
4.100000
 20
94.900000
  8
47
 62
7
  6
CONTINUOUS
  0
SEQEND
  0
POLYLINE
  8
47
 62
7
  6
CONTINUOUS
 70
0
 66
1
  0
VERTEX
 10
2.900000
 20
95.300000
  8
47
 62
7
  6
CONTINUOUS
  0
VERTEX
 10
2.600000
 20
95.300000
  8
47
 62
7
  6
CONTINUOUS
  0
VERTEX
 10
2.600000
 20
94.900000
  8
47
 62
7
  6
CONTINUOUS
  0
VERTEX
 10
2.900000
 20
94.900000
  8
47
 62
7
  6
CONTINUOUS
  0
SEQEND
  0
CIRCLE
  8
47
 62
7
  6
CONTINUOUS
 10
3.500000
 20
95.100000
 30
0.0
 40
1.200000
  0
CIRCLE
  8
47
 62
7
  6
CONTINUOUS
 10
3.500000
 20
95.100000
 30
0.0
 40
0.100000
  0
ENDBLK
  0
ENDSEC
  0
SECTION
  2
ENTITIES
  0
INSERT
  8
0
 2
tx312g
 10
0.000000
 20
0.000000
 30
0.0
 50
0.0
  0
INSERT
  8
0
 2
tzx310
 10
0.000000
 20
0.000000
 30
0.0
 50
0.0
  0
INSERT
  8
0
 2
tz313
 10
0.000000
 20
-7.500000
 30
0.0
 50
0.0
  0
INSERT
  8
0
 2
tz104
 10
12.500000
 20
-2.500000
 30
0.0
 50
0.0
  0
INSERT
  8
0
 2
tz104
 10
62.500000
 20
-2.500000
 30
0.0
 50
0.0
  0
INSERT
  8
0
 2
tz101
 10
37.500000
 20
-2.500000
 30
0.0
 50
0.0
  0
INSERT
  8
1
 2
wx32k2l
 10
0.000000
 20
0.000000
 30
0.0
 50
0.0
  0
INSERT
  8
3
 2
tg312_d
 10
0.000000
 20
0.000000
 30
0.0
 50
0.0
  0
ENDSEC
  0
EOF
