  0
SECTION
  2
HEADER
  9
$ACADVER
  1
AC1009
  9
$INSBASE
 10
0.0
 20
0.0
 30
0.0
  9
$EXTMIN
 10
0.0
 20
0.0
 30
0.0
  9
$EXTMAX
 10
0.000000
 20
0.000000
 30
0.0
  9
$LIMMIN
 10
0.0
 20
0.0
  9
$LIMMAX
 10
0.000000
 20
0.000000
  0
ENDSEC
  0
SECTION
  2
TABLES
  0
TABLE
  2
LTYPE
 70
14
  0
LTYPE
  2
L0000000400000000FF
 70
64
  3
Solid line
 72
65
 73
0
 40
0.000000
  0
LTYPE
  2
L00000004000000007F
 70
64
  3
Solid line
 72
65
 73
0
 40
0.000000
  0
LTYPE
  2
L00000004000000FF00
 70
64
  3
Solid line
 72
65
 73
0
 40
0.000000
  0
LTYPE
  2
L0141000200320000FF
 70
64
  3
- - - - - - - -
 72
65
 73
2
 40
0.500000
 49
0.300000
 49
-0.200000
  0
LTYPE
  2
CONTINUOUS
 70
64
  3
Solid line
 72
65
 73
0
 40
0.000000
  0
LTYPE
  2
L000000040000FF0000
 70
64
  3
Solid line
 72
65
 73
0
 40
0.000000
  0
LTYPE
  2
L000000000000000000
 70
64
  3
Solid line
 72
65
 73
0
 40
0.000000
  0
LTYPE
  2
L000000020000FFFFFF
 70
64
  3
Solid line
 72
65
 73
0
 40
0.000000
  0
LTYPE
  2
L0141000400320000FF
 70
64
  3
- - - - - - - -
 72
65
 73
2
 40
0.500000
 49
0.300000
 49
-0.200000
  0
LTYPE
  2
L0000000200000000FF
 70
64
  3
Solid line
 72
65
 73
0
 40
0.000000
  0
LTYPE
  2
L014100020032000000
 70
64
  3
- - - - - - - -
 72
65
 73
2
 40
0.500000
 49
0.300000
 49
-0.200000
  0
LTYPE
  2
L000000040000000000
 70
64
  3
Solid line
 72
65
 73
0
 40
0.000000
  0
LTYPE
  2
L000000060000000000
 70
64
  3
Solid line
 72
65
 73
0
 40
0.000000
  0
LTYPE
  2
L000000060000FFFF00
 70
64
  3
Solid line
 72
65
 73
0
 40
0.000000
  0
ENDTAB
  0
TABLE
  2
LAYER
 70
8
  0
LAYER
  2
0
 70
64
 62
7
  6
CONTINUOUS
  0
LAYER
  2
1
 70
64
 62
7
  6
CONTINUOUS
  0
LAYER
  2
2
 70
64
 62
7
  6
CONTINUOUS
  0
LAYER
  2
3
 70
64
 62
-7
  6
CONTINUOUS
  0
LAYER
  2
4
 70
64
 62
7
  6
CONTINUOUS
  0
LAYER
  2
5
 70
64
 62
7
  6
CONTINUOUS
  0
LAYER
  2
6
 70
64
 62
7
  6
CONTINUOUS
  0
LAYER
  2
7
 70
64
 62
7
  6
CONTINUOUS
  0
LAYER
  2
8
 70
64
 62
7
  6
CONTINUOUS
  0
LAYER
  2
9
 70
64
 62
7
  6
CONTINUOUS
  0
LAYER
  2
10
 70
64
 62
7
  6
CONTINUOUS
  0
LAYER
  2
11
 70
64
 62
7
  6
CONTINUOUS
  0
LAYER
  2
12
 70
64
 62
7
  6
CONTINUOUS
  0
LAYER
  2
13
 70
64
 62
7
  6
CONTINUOUS
  0
LAYER
  2
14
 70
64
 62
7
  6
CONTINUOUS
  0
LAYER
  2
15
 70
64
 62
-7
  6
CONTINUOUS
  0
LAYER
  2
16
 70
64
 62
7
  6
CONTINUOUS
  0
LAYER
  2
17
 70
64
 62
7
  6
CONTINUOUS
  0
LAYER
  2
18
 70
64
 62
7
  6
CONTINUOUS
  0
LAYER
  2
19
 70
64
 62
7
  6
CONTINUOUS
  0
LAYER
  2
20
 70
64
 62
7
  6
CONTINUOUS
  0
LAYER
  2
21
 70
64
 62
7
  6
CONTINUOUS
  0
LAYER
  2
22
 70
64
 62
7
  6
CONTINUOUS
  0
LAYER
  2
23
 70
64
 62
7
  6
CONTINUOUS
  0
LAYER
  2
24
 70
64
 62
7
  6
CONTINUOUS
  0
LAYER
  2
25
 70
64
 62
7
  6
CONTINUOUS
  0
LAYER
  2
26
 70
64
 62
7
  6
CONTINUOUS
  0
LAYER
  2
27
 70
64
 62
7
  6
CONTINUOUS
  0
LAYER
  2
28
 70
64
 62
7
  6
CONTINUOUS
  0
LAYER
  2
29
 70
64
 62
-7
  6
CONTINUOUS
  0
LAYER
  2
30
 70
64
 62
7
  6
CONTINUOUS
  0
LAYER
  2
31
 70
64
 62
7
  6
CONTINUOUS
  0
LAYER
  2
32
 70
64
 62
7
  6
CONTINUOUS
  0
LAYER
  2
33
 70
64
 62
7
  6
CONTINUOUS
  0
LAYER
  2
34
 70
64
 62
7
  6
CONTINUOUS
  0
LAYER
  2
35
 70
64
 62
7
  6
CONTINUOUS
  0
LAYER
  2
36
 70
64
 62
7
  6
CONTINUOUS
  0
LAYER
  2
37
 70
64
 62
7
  6
CONTINUOUS
  0
LAYER
  2
38
 70
64
 62
-7
  6
CONTINUOUS
  0
LAYER
  2
39
 70
64
 62
-7
  6
CONTINUOUS
  0
LAYER
  2
40
 70
64
 62
7
  6
CONTINUOUS
  0
LAYER
  2
41
 70
64
 62
7
  6
CONTINUOUS
  0
LAYER
  2
42
 70
64
 62
7
  6
CONTINUOUS
  0
LAYER
  2
43
 70
64
 62
7
  6
CONTINUOUS
  0
LAYER
  2
44
 70
64
 62
7
  6
CONTINUOUS
  0
LAYER
  2
45
 70
64
 62
7
  6
CONTINUOUS
  0
LAYER
  2
46
 70
64
 62
7
  6
CONTINUOUS
  0
LAYER
  2
47
 70
64
 62
-7
  6
CONTINUOUS
  0
LAYER
  2
48
 70
64
 62
-7
  6
CONTINUOUS
  0
LAYER
  2
49
 70
64
 62
-7
  6
CONTINUOUS
  0
LAYER
  2
50
 70
64
 62
-7
  6
CONTINUOUS
  0
LAYER
  2
51
 70
64
 62
-7
  6
CONTINUOUS
  0
LAYER
  2
52
 70
64
 62
-7
  6
CONTINUOUS
  0
LAYER
  2
53
 70
64
 62
-7
  6
CONTINUOUS
  0
LAYER
  2
54
 70
64
 62
-7
  6
CONTINUOUS
  0
LAYER
  2
55
 70
64
 62
-7
  6
CONTINUOUS
  0
LAYER
  2
56
 70
64
 62
-7
  6
CONTINUOUS
  0
LAYER
  2
57
 70
64
 62
-7
  6
CONTINUOUS
  0
LAYER
  2
58
 70
64
 62
7
  6
CONTINUOUS
  0
LAYER
  2
59
 70
64
 62
-7
  6
CONTINUOUS
  0
LAYER
  2
60
 70
64
 62
-7
  6
CONTINUOUS
  0
LAYER
  2
61
 70
64
 62
7
  6
CONTINUOUS
  0
LAYER
  2
62
 70
64
 62
7
  6
CONTINUOUS
  0
LAYER
  2
63
 70
64
 62
7
  6
CONTINUOUS
  0
LAYER
  2
64
 70
64
 62
7
  6
CONTINUOUS
  0
LAYER
  2
65
 70
64
 62
7
  6
CONTINUOUS
  0
LAYER
  2
66
 70
64
 62
7
  6
CONTINUOUS
  0
LAYER
  2
67
 70
64
 62
7
  6
CONTINUOUS
  0
LAYER
  2
68
 70
64
 62
7
  6
CONTINUOUS
  0
LAYER
  2
69
 70
64
 62
7
  6
CONTINUOUS
  0
LAYER
  2
70
 70
64
 62
7
  6
CONTINUOUS
  0
LAYER
  2
71
 70
64
 62
7
  6
CONTINUOUS
  0
LAYER
  2
72
 70
64
 62
7
  6
CONTINUOUS
  0
LAYER
  2
73
 70
64
 62
7
  6
CONTINUOUS
  0
LAYER
  2
74
 70
64
 62
7
  6
CONTINUOUS
  0
LAYER
  2
75
 70
64
 62
7
  6
CONTINUOUS
  0
LAYER
  2
76
 70
64
 62
7
  6
CONTINUOUS
  0
LAYER
  2
77
 70
64
 62
7
  6
CONTINUOUS
  0
LAYER
  2
78
 70
64
 62
7
  6
CONTINUOUS
  0
LAYER
  2
79
 70
64
 62
7
  6
CONTINUOUS
  0
LAYER
  2
80
 70
64
 62
7
  6
CONTINUOUS
  0
LAYER
  2
81
 70
64
 62
7
  6
CONTINUOUS
  0
LAYER
  2
82
 70
64
 62
7
  6
CONTINUOUS
  0
LAYER
  2
83
 70
64
 62
7
  6
CONTINUOUS
  0
LAYER
  2
84
 70
64
 62
7
  6
CONTINUOUS
  0
LAYER
  2
85
 70
64
 62
7
  6
CONTINUOUS
  0
LAYER
  2
86
 70
64
 62
7
  6
CONTINUOUS
  0
LAYER
  2
87
 70
64
 62
7
  6
CONTINUOUS
  0
LAYER
  2
88
 70
64
 62
7
  6
CONTINUOUS
  0
LAYER
  2
89
 70
64
 62
7
  6
CONTINUOUS
  0
LAYER
  2
90
 70
64
 62
7
  6
CONTINUOUS
  0
LAYER
  2
91
 70
64
 62
7
  6
CONTINUOUS
  0
LAYER
  2
92
 70
64
 62
7
  6
CONTINUOUS
  0
LAYER
  2
93
 70
64
 62
7
  6
CONTINUOUS
  0
LAYER
  2
94
 70
64
 62
7
  6
CONTINUOUS
  0
LAYER
  2
95
 70
64
 62
7
  6
CONTINUOUS
  0
LAYER
  2
96
 70
64
 62
7
  6
CONTINUOUS
  0
LAYER
  2
97
 70
64
 62
7
  6
CONTINUOUS
  0
LAYER
  2
98
 70
64
 62
7
  6
CONTINUOUS
  0
LAYER
  2
99
 70
64
 62
7
  6
CONTINUOUS
  0
LAYER
  2
100
 70
64
 62
7
  6
CONTINUOUS
  0
LAYER
  2
101
 70
64
 62
7
  6
CONTINUOUS
  0
LAYER
  2
102
 70
64
 62
7
  6
CONTINUOUS
  0
LAYER
  2
103
 70
64
 62
7
  6
CONTINUOUS
  0
LAYER
  2
104
 70
64
 62
7
  6
CONTINUOUS
  0
LAYER
  2
105
 70
64
 62
7
  6
CONTINUOUS
  0
LAYER
  2
106
 70
64
 62
7
  6
CONTINUOUS
  0
LAYER
  2
107
 70
64
 62
7
  6
CONTINUOUS
  0
LAYER
  2
108
 70
64
 62
7
  6
CONTINUOUS
  0
LAYER
  2
109
 70
64
 62
7
  6
CONTINUOUS
  0
LAYER
  2
110
 70
64
 62
7
  6
CONTINUOUS
  0
LAYER
  2
111
 70
64
 62
7
  6
CONTINUOUS
  0
LAYER
  2
112
 70
64
 62
7
  6
CONTINUOUS
  0
LAYER
  2
113
 70
64
 62
7
  6
CONTINUOUS
  0
LAYER
  2
114
 70
64
 62
7
  6
CONTINUOUS
  0
LAYER
  2
115
 70
64
 62
7
  6
CONTINUOUS
  0
LAYER
  2
116
 70
64
 62
7
  6
CONTINUOUS
  0
LAYER
  2
117
 70
64
 62
7
  6
CONTINUOUS
  0
LAYER
  2
118
 70
64
 62
7
  6
CONTINUOUS
  0
LAYER
  2
119
 70
64
 62
7
  6
CONTINUOUS
  0
LAYER
  2
120
 70
64
 62
7
  6
CONTINUOUS
  0
LAYER
  2
121
 70
64
 62
7
  6
CONTINUOUS
  0
LAYER
  2
122
 70
64
 62
7
  6
CONTINUOUS
  0
LAYER
  2
123
 70
64
 62
7
  6
CONTINUOUS
  0
LAYER
  2
124
 70
64
 62
7
  6
CONTINUOUS
  0
LAYER
  2
125
 70
64
 62
7
  6
CONTINUOUS
  0
LAYER
  2
126
 70
64
 62
7
  6
CONTINUOUS
  0
LAYER
  2
127
 70
64
 62
7
  6
CONTINUOUS
  0
LAYER
  2
128
 70
64
 62
7
  6
CONTINUOUS
  0
LAYER
  2
129
 70
64
 62
7
  6
CONTINUOUS
  0
LAYER
  2
130
 70
64
 62
7
  6
CONTINUOUS
  0
LAYER
  2
131
 70
64
 62
7
  6
CONTINUOUS
  0
LAYER
  2
132
 70
64
 62
7
  6
CONTINUOUS
  0
LAYER
  2
133
 70
64
 62
7
  6
CONTINUOUS
  0
LAYER
  2
134
 70
64
 62
7
  6
CONTINUOUS
  0
LAYER
  2
135
 70
64
 62
7
  6
CONTINUOUS
  0
LAYER
  2
136
 70
64
 62
7
  6
CONTINUOUS
  0
LAYER
  2
137
 70
64
 62
7
  6
CONTINUOUS
  0
LAYER
  2
138
 70
64
 62
7
  6
CONTINUOUS
  0
LAYER
  2
139
 70
64
 62
7
  6
CONTINUOUS
  0
LAYER
  2
140
 70
64
 62
7
  6
CONTINUOUS
  0
LAYER
  2
141
 70
64
 62
7
  6
CONTINUOUS
  0
LAYER
  2
142
 70
64
 62
7
  6
CONTINUOUS
  0
LAYER
  2
143
 70
64
 62
7
  6
CONTINUOUS
  0
LAYER
  2
144
 70
64
 62
7
  6
CONTINUOUS
  0
LAYER
  2
145
 70
64
 62
7
  6
CONTINUOUS
  0
LAYER
  2
146
 70
64
 62
7
  6
CONTINUOUS
  0
LAYER
  2
147
 70
64
 62
7
  6
CONTINUOUS
  0
LAYER
  2
148
 70
64
 62
7
  6
CONTINUOUS
  0
LAYER
  2
149
 70
64
 62
7
  6
CONTINUOUS
  0
LAYER
  2
150
 70
64
 62
7
  6
CONTINUOUS
  0
LAYER
  2
151
 70
64
 62
7
  6
CONTINUOUS
  0
LAYER
  2
152
 70
64
 62
7
  6
CONTINUOUS
  0
LAYER
  2
153
 70
64
 62
7
  6
CONTINUOUS
  0
LAYER
  2
154
 70
64
 62
7
  6
CONTINUOUS
  0
LAYER
  2
155
 70
64
 62
-7
  6
CONTINUOUS
  0
LAYER
  2
156
 70
64
 62
-7
  6
CONTINUOUS
  0
LAYER
  2
157
 70
64
 62
-7
  6
CONTINUOUS
  0
LAYER
  2
158
 70
64
 62
-7
  6
CONTINUOUS
  0
LAYER
  2
159
 70
64
 62
-7
  6
CONTINUOUS
  0
LAYER
  2
160
 70
64
 62
-7
  6
CONTINUOUS
  0
LAYER
  2
161
 70
64
 62
-7
  6
CONTINUOUS
  0
LAYER
  2
162
 70
64
 62
-7
  6
CONTINUOUS
  0
LAYER
  2
163
 70
64
 62
-7
  6
CONTINUOUS
  0
LAYER
  2
164
 70
64
 62
7
  6
CONTINUOUS
  0
LAYER
  2
165
 70
64
 62
7
  6
CONTINUOUS
  0
LAYER
  2
166
 70
64
 62
7
  6
CONTINUOUS
  0
LAYER
  2
167
 70
64
 62
7
  6
CONTINUOUS
  0
LAYER
  2
168
 70
64
 62
7
  6
CONTINUOUS
  0
LAYER
  2
169
 70
64
 62
7
  6
CONTINUOUS
  0
LAYER
  2
170
 70
64
 62
7
  6
CONTINUOUS
  0
LAYER
  2
171
 70
64
 62
7
  6
CONTINUOUS
  0
LAYER
  2
172
 70
64
 62
7
  6
CONTINUOUS
  0
LAYER
  2
173
 70
64
 62
7
  6
CONTINUOUS
  0
LAYER
  2
174
 70
64
 62
7
  6
CONTINUOUS
  0
LAYER
  2
175
 70
64
 62
7
  6
CONTINUOUS
  0
LAYER
  2
176
 70
64
 62
7
  6
CONTINUOUS
  0
LAYER
  2
177
 70
64
 62
7
  6
CONTINUOUS
  0
LAYER
  2
178
 70
64
 62
7
  6
CONTINUOUS
  0
LAYER
  2
179
 70
64
 62
7
  6
CONTINUOUS
  0
LAYER
  2
180
 70
64
 62
7
  6
CONTINUOUS
  0
LAYER
  2
181
 70
64
 62
7
  6
CONTINUOUS
  0
LAYER
  2
182
 70
64
 62
7
  6
CONTINUOUS
  0
LAYER
  2
183
 70
64
 62
7
  6
CONTINUOUS
  0
LAYER
  2
184
 70
64
 62
7
  6
CONTINUOUS
  0
LAYER
  2
185
 70
64
 62
7
  6
CONTINUOUS
  0
LAYER
  2
186
 70
64
 62
7
  6
CONTINUOUS
  0
LAYER
  2
187
 70
64
 62
7
  6
CONTINUOUS
  0
LAYER
  2
188
 70
64
 62
7
  6
CONTINUOUS
  0
LAYER
  2
189
 70
64
 62
7
  6
CONTINUOUS
  0
LAYER
  2
190
 70
64
 62
7
  6
CONTINUOUS
  0
LAYER
  2
191
 70
64
 62
7
  6
CONTINUOUS
  0
LAYER
  2
192
 70
64
 62
7
  6
CONTINUOUS
  0
LAYER
  2
193
 70
64
 62
7
  6
CONTINUOUS
  0
LAYER
  2
194
 70
64
 62
7
  6
CONTINUOUS
  0
LAYER
  2
195
 70
64
 62
7
  6
CONTINUOUS
  0
LAYER
  2
196
 70
64
 62
7
  6
CONTINUOUS
  0
LAYER
  2
197
 70
64
 62
7
  6
CONTINUOUS
  0
LAYER
  2
198
 70
64
 62
7
  6
CONTINUOUS
  0
LAYER
  2
199
 70
64
 62
7
  6
CONTINUOUS
  0
ENDTAB
  0
ENDSEC
  0
SECTION
  2
BLOCKS
  0
BLOCK
  8
0
  2
a39_e
 70
 0
 10
0.0
 20
0.0
 30
0.0
  0
SOLID
  8
0
 62
255
  6
CONTINUOUS
 10
77.500000
 20
137.500000
 11
77.500000
 21
-2.500000
 12
-2.500000
 22
137.500000
 13
-2.500000
 23
-2.500000
  0
POLYLINE
  8
0
 62
7
  6
CONTINUOUS
 70
1
 66
1
  0
VERTEX
 10
77.500000
 20
137.500000
 30
0.000000
  8
0
 62
7
  6
CONTINUOUS
  0
VERTEX
 10
77.500000
 20
-2.500000
 30
0.000000
  8
0
 62
7
  6
CONTINUOUS
  0
VERTEX
 10
-2.500000
 20
-2.500000
 30
0.000000
  8
0
 62
7
  6
CONTINUOUS
  0
VERTEX
 10
-2.500000
 20
137.500000
 30
0.000000
  8
0
 62
7
  6
CONTINUOUS
  0
SEQEND
  0
POLYLINE
  8
0
 62
7
  6
CONTINUOUS
 70
1
 66
1
  0
VERTEX
 10
75.500000
 20
135.500000
 30
0.000000
  8
0
 62
7
  6
CONTINUOUS
  0
VERTEX
 10
75.500000
 20
-0.500000
 30
0.000000
  8
0
 62
7
  6
CONTINUOUS
  0
VERTEX
 10
-0.500000
 20
-0.500000
 30
0.000000
  8
0
 62
7
  6
CONTINUOUS
  0
VERTEX
 10
-0.500000
 20
135.500000
 30
0.000000
  8
0
 62
7
  6
CONTINUOUS
  0
SEQEND
  0
ENDBLK
  0
BLOCK
  8
0
  2
zb43
 70
 0
 10
0.0
 20
0.0
 30
0.0
  0
SOLID
  8
0
 62
255
  6
CONTINUOUS
 10
11.000000
 20
0.400000
 11
11.000000
 21
0.000000
 12
-11.000000
 22
0.400000
 13
-11.000000
 23
0.000000
  0
POLYLINE
  8
0
 62
7
  6
CONTINUOUS
 70
1
 66
1
  0
VERTEX
 10
11.000000
 20
0.400000
 30
0.000000
  8
0
 62
7
  6
CONTINUOUS
  0
VERTEX
 10
11.000000
 20
0.000000
 30
0.000000
  8
0
 62
7
  6
CONTINUOUS
  0
VERTEX
 10
-11.000000
 20
0.000000
 30
0.000000
  8
0
 62
7
  6
CONTINUOUS
  0
VERTEX
 10
-11.000000
 20
0.400000
 30
0.000000
  8
0
 62
7
  6
CONTINUOUS
  0
SEQEND
  0
ENDBLK
  0
BLOCK
  8
1
  2
135128
 70
 0
 10
0.0
 20
0.0
 30
0.0
  0
LINE
  8
1
 62
7
  6
CONTINUOUS
 10
1.000000
 20
132.900000
 11
1.000000
 21
132.400000
  0
LINE
  8
1
 62
7
  6
CONTINUOUS
 10
1.000000
 20
129.500000
 11
1.000000
 21
130.000000
  0
LINE
  8
1
 62
7
  6
CONTINUOUS
 10
1.400000
 20
131.200000
 11
0.500000
 21
131.200000
  0
CIRCLE
  8
1
 62
7
  6
CONTINUOUS
 10
1.000000
 20
131.200000
 30
0.0
 40
0.700000
  0
LINE
  8
1
 62
7
  6
CONTINUOUS
 10
24.000000
 20
132.900000
 11
24.000000
 21
132.400000
  0
LINE
  8
1
 62
7
  6
CONTINUOUS
 10
24.000000
 20
129.500000
 11
24.000000
 21
130.000000
  0
LINE
  8
1
 62
7
  6
CONTINUOUS
 10
23.600000
 20
131.200000
 11
24.500000
 21
131.200000
  0
CIRCLE
  8
1
 62
7
  6
CONTINUOUS
 10
24.000000
 20
131.200000
 30
0.0
 40
0.700000
  0
LINE
  8
1
 62
7
  6
CONTINUOUS
 10
24.000000
 20
132.900000
 11
24.000000
 21
132.400000
  0
LINE
  8
1
 62
7
  6
CONTINUOUS
 10
24.000000
 20
129.500000
 11
24.000000
 21
130.000000
  0
LINE
  8
1
 62
7
  6
CONTINUOUS
 10
23.600000
 20
131.200000
 11
24.500000
 21
131.200000
  0
CIRCLE
  8
1
 62
7
  6
CONTINUOUS
 10
24.000000
 20
131.200000
 30
0.0
 40
0.700000
  0
LINE
  8
1
 62
7
  6
CONTINUOUS
 10
1.000000
 20
132.900000
 11
1.000000
 21
132.400000
  0
LINE
  8
1
 62
7
  6
CONTINUOUS
 10
1.000000
 20
129.500000
 11
1.000000
 21
130.000000
  0
LINE
  8
1
 62
7
  6
CONTINUOUS
 10
1.400000
 20
131.200000
 11
0.500000
 21
131.200000
  0
CIRCLE
  8
1
 62
7
  6
CONTINUOUS
 10
1.000000
 20
131.200000
 30
0.0
 40
0.700000
  0
SOLID
  8
1
 62
255
  6
CONTINUOUS
 10
24.800000
 20
0.200000
 11
24.800000
 21
29.800000
 12
0.200000
 22
0.200000
 13
0.200000
 23
29.800000
  0
POLYLINE
  8
1
 62
7
  6
CONTINUOUS
 70
1
 66
1
  0
VERTEX
 10
24.800000
 20
0.200000
 30
0.000000
  8
1
 62
7
  6
CONTINUOUS
  0
VERTEX
 10
24.800000
 20
29.800000
 30
0.000000
  8
1
 62
7
  6
CONTINUOUS
  0
VERTEX
 10
0.200000
 20
29.800000
 30
0.000000
  8
1
 62
7
  6
CONTINUOUS
  0
VERTEX
 10
0.200000
 20
0.200000
 30
0.000000
  8
1
 62
7
  6
CONTINUOUS
  0
SEQEND
  0
LINE
  8
1
 62
7
  6
CONTINUOUS
 10
1.000000
 20
27.900000
 11
1.000000
 21
27.400000
  0
LINE
  8
1
 62
7
  6
CONTINUOUS
 10
1.000000
 20
24.500000
 11
1.000000
 21
25.000000
  0
LINE
  8
1
 62
7
  6
CONTINUOUS
 10
1.400000
 20
26.200000
 11
0.500000
 21
26.200000
  0
CIRCLE
  8
1
 62
7
  6
CONTINUOUS
 10
1.000000
 20
26.200000
 30
0.0
 40
0.700000
  0
LINE
  8
1
 62
7
  6
CONTINUOUS
 10
24.000000
 20
27.900000
 11
24.000000
 21
27.400000
  0
LINE
  8
1
 62
7
  6
CONTINUOUS
 10
24.000000
 20
24.500000
 11
24.000000
 21
25.000000
  0
LINE
  8
1
 62
7
  6
CONTINUOUS
 10
23.600000
 20
26.200000
 11
24.500000
 21
26.200000
  0
CIRCLE
  8
1
 62
7
  6
CONTINUOUS
 10
24.000000
 20
26.200000
 30
0.0
 40
0.700000
  0
LINE
  8
1
 62
7
  6
CONTINUOUS
 10
24.000000
 20
2.100000
 11
24.000000
 21
2.600000
  0
LINE
  8
1
 62
7
  6
CONTINUOUS
 10
24.000000
 20
5.500000
 11
24.000000
 21
5.000000
  0
LINE
  8
1
 62
7
  6
CONTINUOUS
 10
23.600000
 20
3.800000
 11
24.500000
 21
3.800000
  0
CIRCLE
  8
1
 62
7
  6
CONTINUOUS
 10
24.000000
 20
3.800000
 30
0.0
 40
0.700000
  0
LINE
  8
1
 62
7
  6
CONTINUOUS
 10
1.000000
 20
2.100000
 11
1.000000
 21
2.600000
  0
LINE
  8
1
 62
7
  6
CONTINUOUS
 10
1.000000
 20
5.500000
 11
1.000000
 21
5.000000
  0
LINE
  8
1
 62
7
  6
CONTINUOUS
 10
1.400000
 20
3.800000
 11
0.500000
 21
3.800000
  0
CIRCLE
  8
1
 62
7
  6
CONTINUOUS
 10
1.000000
 20
3.800000
 30
0.0
 40
0.700000
  0
POLYLINE
  8
1
 62
7
  6
CONTINUOUS
 70
1
 66
1
  0
VERTEX
 10
24.800000
 20
21.800000
 30
0.000000
  8
1
 62
7
  6
CONTINUOUS
  0
VERTEX
 10
24.800000
 20
13.200000
 30
0.000000
  8
1
 62
7
  6
CONTINUOUS
  0
VERTEX
 10
0.200000
 20
13.200000
 30
0.000000
  8
1
 62
7
  6
CONTINUOUS
  0
VERTEX
 10
0.200000
 20
21.800000
 30
0.000000
  8
1
 62
7
  6
CONTINUOUS
  0
SEQEND
  0
CIRCLE
  8
1
 62
7
  6
CONTINUOUS
 10
1.000000
 20
19.800000
 30
0.0
 40
0.300000
  0
CIRCLE
  8
1
 62
7
  6
CONTINUOUS
 10
1.000000
 20
21.000000
 30
0.0
 40
0.300000
  0
CIRCLE
  8
1
 62
7
  6
CONTINUOUS
 10
1.000000
 20
20.400000
 30
0.0
 40
0.500000
  0
CIRCLE
  8
1
 62
7
  6
CONTINUOUS
 10
1.000000
 20
17.300000
 30
0.0
 40
0.300000
  0
CIRCLE
  8
1
 62
7
  6
CONTINUOUS
 10
1.000000
 20
18.500000
 30
0.0
 40
0.300000
  0
CIRCLE
  8
1
 62
7
  6
CONTINUOUS
 10
1.000000
 20
17.900000
 30
0.0
 40
0.500000
  0
CIRCLE
  8
1
 62
7
  6
CONTINUOUS
 10
1.000000
 20
14.800000
 30
0.0
 40
0.300000
  0
CIRCLE
  8
1
 62
7
  6
CONTINUOUS
 10
1.000000
 20
16.000000
 30
0.0
 40
0.300000
  0
CIRCLE
  8
1
 62
7
  6
CONTINUOUS
 10
1.000000
 20
15.400000
 30
0.0
 40
0.500000
  0
CIRCLE
  8
1
 62
7
  6
CONTINUOUS
 10
1.000000
 20
13.600000
 30
0.0
 40
0.300000
  0
CIRCLE
  8
1
 62
7
  6
CONTINUOUS
 10
24.000000
 20
19.800000
 30
0.0
 40
0.300000
  0
CIRCLE
  8
1
 62
7
  6
CONTINUOUS
 10
24.000000
 20
21.000000
 30
0.0
 40
0.300000
  0
CIRCLE
  8
1
 62
7
  6
CONTINUOUS
 10
24.000000
 20
20.400000
 30
0.0
 40
0.500000
  0
CIRCLE
  8
1
 62
7
  6
CONTINUOUS
 10
24.000000
 20
17.300000
 30
0.0
 40
0.300000
  0
CIRCLE
  8
1
 62
7
  6
CONTINUOUS
 10
24.000000
 20
18.500000
 30
0.0
 40
0.300000
  0
CIRCLE
  8
1
 62
7
  6
CONTINUOUS
 10
24.000000
 20
17.900000
 30
0.0
 40
0.500000
  0
CIRCLE
  8
1
 62
7
  6
CONTINUOUS
 10
24.000000
 20
14.800000
 30
0.0
 40
0.300000
  0
CIRCLE
  8
1
 62
7
  6
CONTINUOUS
 10
24.000000
 20
16.000000
 30
0.0
 40
0.300000
  0
CIRCLE
  8
1
 62
7
  6
CONTINUOUS
 10
24.000000
 20
15.400000
 30
0.0
 40
0.500000
  0
CIRCLE
  8
1
 62
7
  6
CONTINUOUS
 10
24.000000
 20
13.600000
 30
0.0
 40
0.300000
  0
CIRCLE
  8
1
 62
7
  6
CONTINUOUS
 10
1.000000
 20
19.800000
 30
0.0
 40
0.300000
  0
CIRCLE
  8
1
 62
7
  6
CONTINUOUS
 10
1.000000
 20
21.000000
 30
0.0
 40
0.300000
  0
CIRCLE
  8
1
 62
7
  6
CONTINUOUS
 10
1.000000
 20
20.400000
 30
0.0
 40
0.500000
  0
CIRCLE
  8
1
 62
7
  6
CONTINUOUS
 10
1.000000
 20
17.300000
 30
0.0
 40
0.300000
  0
CIRCLE
  8
1
 62
7
  6
CONTINUOUS
 10
1.000000
 20
18.500000
 30
0.0
 40
0.300000
  0
CIRCLE
  8
1
 62
7
  6
CONTINUOUS
 10
1.000000
 20
17.900000
 30
0.0
 40
0.500000
  0
CIRCLE
  8
1
 62
7
  6
CONTINUOUS
 10
1.000000
 20
14.800000
 30
0.0
 40
0.300000
  0
CIRCLE
  8
1
 62
7
  6
CONTINUOUS
 10
1.000000
 20
16.000000
 30
0.0
 40
0.300000
  0
CIRCLE
  8
1
 62
7
  6
CONTINUOUS
 10
1.000000
 20
15.400000
 30
0.0
 40
0.500000
  0
CIRCLE
  8
1
 62
7
  6
CONTINUOUS
 10
1.000000
 20
13.600000
 30
0.0
 40
0.300000
  0
POLYLINE
  8
1
 62
7
  6
CONTINUOUS
 70
1
 66
1
  0
VERTEX
 10
0.200000
 20
4.100000
 30
0.000000
  8
1
 62
7
  6
CONTINUOUS
  0
VERTEX
 10
0.200000
 20
12.700000
 30
0.000000
  8
1
 62
7
  6
CONTINUOUS
  0
VERTEX
 10
24.800000
 20
12.700000
 30
0.000000
  8
1
 62
7
  6
CONTINUOUS
  0
VERTEX
 10
24.800000
 20
4.100000
 30
0.000000
  8
1
 62
7
  6
CONTINUOUS
  0
SEQEND
  0
CIRCLE
  8
1
 62
7
  6
CONTINUOUS
 10
24.000000
 20
6.100000
 30
0.0
 40
0.300000
  0
CIRCLE
  8
1
 62
7
  6
CONTINUOUS
 10
24.000000
 20
4.900000
 30
0.0
 40
0.300000
  0
CIRCLE
  8
1
 62
7
  6
CONTINUOUS
 10
24.000000
 20
5.500000
 30
0.0
 40
0.500000
  0
CIRCLE
  8
1
 62
7
  6
CONTINUOUS
 10
24.000000
 20
8.600000
 30
0.0
 40
0.300000
  0
CIRCLE
  8
1
 62
7
  6
CONTINUOUS
 10
24.000000
 20
7.400000
 30
0.0
 40
0.300000
  0
CIRCLE
  8
1
 62
7
  6
CONTINUOUS
 10
24.000000
 20
8.000000
 30
0.0
 40
0.500000
  0
CIRCLE
  8
1
 62
7
  6
CONTINUOUS
 10
24.000000
 20
11.100000
 30
0.0
 40
0.300000
  0
CIRCLE
  8
1
 62
7
  6
CONTINUOUS
 10
24.000000
 20
9.900000
 30
0.0
 40
0.300000
  0
CIRCLE
  8
1
 62
7
  6
CONTINUOUS
 10
24.000000
 20
10.500000
 30
0.0
 40
0.500000
  0
CIRCLE
  8
1
 62
7
  6
CONTINUOUS
 10
24.000000
 20
12.300000
 30
0.0
 40
0.300000
  0
CIRCLE
  8
1
 62
7
  6
CONTINUOUS
 10
1.000000
 20
6.100000
 30
0.0
 40
0.300000
  0
CIRCLE
  8
1
 62
7
  6
CONTINUOUS
 10
1.000000
 20
4.900000
 30
0.0
 40
0.300000
  0
CIRCLE
  8
1
 62
7
  6
CONTINUOUS
 10
1.000000
 20
5.500000
 30
0.0
 40
0.500000
  0
CIRCLE
  8
1
 62
7
  6
CONTINUOUS
 10
1.000000
 20
8.600000
 30
0.0
 40
0.300000
  0
CIRCLE
  8
1
 62
7
  6
CONTINUOUS
 10
1.000000
 20
7.400000
 30
0.0
 40
0.300000
  0
CIRCLE
  8
1
 62
7
  6
CONTINUOUS
 10
1.000000
 20
8.000000
 30
0.0
 40
0.500000
  0
CIRCLE
  8
1
 62
7
  6
CONTINUOUS
 10
1.000000
 20
11.100000
 30
0.0
 40
0.300000
  0
CIRCLE
  8
1
 62
7
  6
CONTINUOUS
 10
1.000000
 20
9.900000
 30
0.0
 40
0.300000
  0
CIRCLE
  8
1
 62
7
  6
CONTINUOUS
 10
1.000000
 20
10.500000
 30
0.0
 40
0.500000
  0
CIRCLE
  8
1
 62
7
  6
CONTINUOUS
 10
1.000000
 20
12.300000
 30
0.0
 40
0.300000
  0
CIRCLE
  8
1
 62
7
  6
CONTINUOUS
 10
24.000000
 20
6.100000
 30
0.0
 40
0.300000
  0
CIRCLE
  8
1
 62
7
  6
CONTINUOUS
 10
24.000000
 20
4.900000
 30
0.0
 40
0.300000
  0
CIRCLE
  8
1
 62
7
  6
CONTINUOUS
 10
24.000000
 20
5.500000
 30
0.0
 40
0.500000
  0
CIRCLE
  8
1
 62
7
  6
CONTINUOUS
 10
24.000000
 20
8.600000
 30
0.0
 40
0.300000
  0
CIRCLE
  8
1
 62
7
  6
CONTINUOUS
 10
24.000000
 20
7.400000
 30
0.0
 40
0.300000
  0
CIRCLE
  8
1
 62
7
  6
CONTINUOUS
 10
24.000000
 20
8.000000
 30
0.0
 40
0.500000
  0
CIRCLE
  8
1
 62
7
  6
CONTINUOUS
 10
24.000000
 20
11.100000
 30
0.0
 40
0.300000
  0
CIRCLE
  8
1
 62
7
  6
CONTINUOUS
 10
24.000000
 20
9.900000
 30
0.0
 40
0.300000
  0
CIRCLE
  8
1
 62
7
  6
CONTINUOUS
 10
24.000000
 20
10.500000
 30
0.0
 40
0.500000
  0
CIRCLE
  8
1
 62
7
  6
CONTINUOUS
 10
24.000000
 20
12.300000
 30
0.0
 40
0.300000
  0
TEXT
  8
1
 62
7
  6
CONTINUOUS
 10
12.500000
 20
11.833333
 40
5.000000
  1
APZ
 50
0.000000
 51
0.000000
 72
1
 73
0
 11
12.500000
 21
11.833333
  0
LINE
  8
1
 62
7
  6
CONTINUOUS
 10
24.000000
 20
2.100000
 11
24.000000
 21
2.600000
  0
LINE
  8
1
 62
7
  6
CONTINUOUS
 10
24.000000
 20
5.500000
 11
24.000000
 21
5.000000
  0
LINE
  8
1
 62
7
  6
CONTINUOUS
 10
23.600000
 20
3.800000
 11
24.500000
 21
3.800000
  0
CIRCLE
  8
1
 62
7
  6
CONTINUOUS
 10
24.000000
 20
3.800000
 30
0.0
 40
0.700000
  0
LINE
  8
1
 62
7
  6
CONTINUOUS
 10
1.000000
 20
2.100000
 11
1.000000
 21
2.600000
  0
LINE
  8
1
 62
7
  6
CONTINUOUS
 10
1.000000
 20
5.500000
 11
1.000000
 21
5.000000
  0
LINE
  8
1
 62
7
  6
CONTINUOUS
 10
1.400000
 20
3.800000
 11
0.500000
 21
3.800000
  0
CIRCLE
  8
1
 62
7
  6
CONTINUOUS
 10
1.000000
 20
3.800000
 30
0.0
 40
0.700000
  0
POLYLINE
  8
1
 62
7
  6
L014100020032000000
 70
0
 66
1
  0
VERTEX
 10
0.400000
 20
22.400000
  8
1
 62
7
  6
L014100020032000000
  0
VERTEX
 10
24.600000
 20
22.400000
  8
1
 62
7
  6
L014100020032000000
  0
SEQEND
  0
POLYLINE
  8
1
 62
7
  6
L014100020032000000
 70
0
 66
1
  0
VERTEX
 10
0.400000
 20
24.900000
  8
1
 62
7
  6
L014100020032000000
  0
VERTEX
 10
24.600000
 20
24.900000
  8
1
 62
7
  6
L014100020032000000
  0
SEQEND
  0
POLYLINE
  8
1
 62
7
  6
L014100020032000000
 70
1
 66
1
  0
VERTEX
 10
24.600000
 20
21.900000
 30
0.000000
  8
1
 62
7
  6
L014100020032000000
  0
VERTEX
 10
24.600000
 20
25.400000
 30
0.000000
  8
1
 62
7
  6
L014100020032000000
  0
VERTEX
 10
0.400000
 20
25.400000
 30
0.000000
  8
1
 62
7
  6
L014100020032000000
  0
VERTEX
 10
0.400000
 20
21.900000
 30
0.000000
  8
1
 62
7
  6
L014100020032000000
  0
SEQEND
  0
SOLID
  8
1
 62
255
  6
CONTINUOUS
 10
24.800000
 20
30.200000
 11
24.800000
 21
59.800000
 12
0.200000
 22
30.200000
 13
0.200000
 23
59.800000
  0
POLYLINE
  8
1
 62
7
  6
CONTINUOUS
 70
1
 66
1
  0
VERTEX
 10
24.800000
 20
30.200000
 30
0.000000
  8
1
 62
7
  6
CONTINUOUS
  0
VERTEX
 10
24.800000
 20
59.800000
 30
0.000000
  8
1
 62
7
  6
CONTINUOUS
  0
VERTEX
 10
0.200000
 20
59.800000
 30
0.000000
  8
1
 62
7
  6
CONTINUOUS
  0
VERTEX
 10
0.200000
 20
30.200000
 30
0.000000
  8
1
 62
7
  6
CONTINUOUS
  0
SEQEND
  0
LINE
  8
1
 62
7
  6
CONTINUOUS
 10
24.000000
 20
32.100000
 11
24.000000
 21
32.600000
  0
LINE
  8
1
 62
7
  6
CONTINUOUS
 10
24.000000
 20
35.500000
 11
24.000000
 21
35.000000
  0
LINE
  8
1
 62
7
  6
CONTINUOUS
 10
23.600000
 20
33.800000
 11
24.500000
 21
33.800000
  0
CIRCLE
  8
1
 62
7
  6
CONTINUOUS
 10
24.000000
 20
33.800000
 30
0.0
 40
0.700000
  0
LINE
  8
1
 62
7
  6
CONTINUOUS
 10
1.000000
 20
32.100000
 11
1.000000
 21
32.600000
  0
LINE
  8
1
 62
7
  6
CONTINUOUS
 10
1.000000
 20
35.500000
 11
1.000000
 21
35.000000
  0
LINE
  8
1
 62
7
  6
CONTINUOUS
 10
1.400000
 20
33.800000
 11
0.500000
 21
33.800000
  0
CIRCLE
  8
1
 62
7
  6
CONTINUOUS
 10
1.000000
 20
33.800000
 30
0.0
 40
0.700000
  0
POLYLINE
  8
1
 62
7
  6
CONTINUOUS
 70
1
 66
1
  0
VERTEX
 10
23.300000
 20
39.800000
 30
0.000000
  8
1
 62
7
  6
CONTINUOUS
  0
VERTEX
 10
23.300000
 20
35.200000
 30
0.000000
  8
1
 62
7
  6
CONTINUOUS
  0
VERTEX
 10
1.700000
 20
35.200000
 30
0.000000
  8
1
 62
7
  6
CONTINUOUS
  0
VERTEX
 10
1.700000
 20
39.800000
 30
0.000000
  8
1
 62
7
  6
CONTINUOUS
  0
SEQEND
  0
POLYLINE
  8
1
 62
7
  6
CONTINUOUS
 70
0
 66
1
  0
VERTEX
 10
3.500000
 20
35.200000
  8
1
 62
7
  6
CONTINUOUS
  0
VERTEX
 10
3.500000
 20
36.300000
  8
1
 62
7
  6
CONTINUOUS
  0
SEQEND
  0
POLYLINE
  8
1
 62
7
  6
CONTINUOUS
 70
0
 66
1
  0
VERTEX
 10
5.300000
 20
35.200000
  8
1
 62
7
  6
CONTINUOUS
  0
VERTEX
 10
5.300000
 20
36.300000
  8
1
 62
7
  6
CONTINUOUS
  0
VERTEX
 10
5.300000
 20
36.300000
  8
1
 62
7
  6
CONTINUOUS
  0
SEQEND
  0
POLYLINE
  8
1
 62
7
  6
CONTINUOUS
 70
0
 66
1
  0
VERTEX
 10
7.100000
 20
35.200000
  8
1
 62
7
  6
CONTINUOUS
  0
VERTEX
 10
7.100000
 20
36.300000
  8
1
 62
7
  6
CONTINUOUS
  0
SEQEND
  0
POLYLINE
  8
1
 62
7
  6
CONTINUOUS
 70
0
 66
1
  0
VERTEX
 10
8.900000
 20
35.200000
  8
1
 62
7
  6
CONTINUOUS
  0
VERTEX
 10
8.900000
 20
36.300000
  8
1
 62
7
  6
CONTINUOUS
  0
SEQEND
  0
POLYLINE
  8
1
 62
7
  6
CONTINUOUS
 70
0
 66
1
  0
VERTEX
 10
10.700000
 20
35.200000
  8
1
 62
7
  6
CONTINUOUS
  0
VERTEX
 10
10.700000
 20
36.300000
  8
1
 62
7
  6
CONTINUOUS
  0
SEQEND
  0
POLYLINE
  8
1
 62
7
  6
CONTINUOUS
 70
0
 66
1
  0
VERTEX
 10
12.500000
 20
35.200000
  8
1
 62
7
  6
CONTINUOUS
  0
VERTEX
 10
12.500000
 20
36.300000
  8
1
 62
7
  6
CONTINUOUS
  0
SEQEND
  0
POLYLINE
  8
1
 62
7
  6
CONTINUOUS
 70
0
 66
1
  0
VERTEX
 10
14.300000
 20
35.200000
  8
1
 62
7
  6
CONTINUOUS
  0
VERTEX
 10
14.300000
 20
36.300000
  8
1
 62
7
  6
CONTINUOUS
  0
SEQEND
  0
POLYLINE
  8
1
 62
7
  6
CONTINUOUS
 70
0
 66
1
  0
VERTEX
 10
16.100000
 20
35.200000
  8
1
 62
7
  6
CONTINUOUS
  0
VERTEX
 10
16.100000
 20
36.300000
  8
1
 62
7
  6
CONTINUOUS
  0
SEQEND
  0
POLYLINE
  8
1
 62
7
  6
CONTINUOUS
 70
0
 66
1
  0
VERTEX
 10
17.900000
 20
35.200000
  8
1
 62
7
  6
CONTINUOUS
  0
VERTEX
 10
17.900000
 20
36.300000
  8
1
 62
7
  6
CONTINUOUS
  0
SEQEND
  0
POLYLINE
  8
1
 62
7
  6
CONTINUOUS
 70
0
 66
1
  0
VERTEX
 10
19.700000
 20
35.200000
  8
1
 62
7
  6
CONTINUOUS
  0
VERTEX
 10
19.700000
 20
36.300000
  8
1
 62
7
  6
CONTINUOUS
  0
SEQEND
  0
POLYLINE
  8
1
 62
7
  6
CONTINUOUS
 70
0
 66
1
  0
VERTEX
 10
21.500000
 20
35.200000
  8
1
 62
7
  6
CONTINUOUS
  0
VERTEX
 10
21.500000
 20
36.300000
  8
1
 62
7
  6
CONTINUOUS
  0
SEQEND
  0
LINE
  8
1
 62
7
  6
CONTINUOUS
 10
1.000000
 20
57.900000
 11
1.000000
 21
57.400000
  0
LINE
  8
1
 62
7
  6
CONTINUOUS
 10
1.000000
 20
54.500000
 11
1.000000
 21
55.000000
  0
LINE
  8
1
 62
7
  6
CONTINUOUS
 10
1.400000
 20
56.200000
 11
0.500000
 21
56.200000
  0
CIRCLE
  8
1
 62
7
  6
CONTINUOUS
 10
1.000000
 20
56.200000
 30
0.0
 40
0.700000
  0
LINE
  8
1
 62
7
  6
CONTINUOUS
 10
24.000000
 20
57.900000
 11
24.000000
 21
57.400000
  0
LINE
  8
1
 62
7
  6
CONTINUOUS
 10
24.000000
 20
54.500000
 11
24.000000
 21
55.000000
  0
LINE
  8
1
 62
7
  6
CONTINUOUS
 10
23.600000
 20
56.200000
 11
24.500000
 21
56.200000
  0
CIRCLE
  8
1
 62
7
  6
CONTINUOUS
 10
24.000000
 20
56.200000
 30
0.0
 40
0.700000
  0
POLYLINE
  8
1
 62
7
  6
CONTINUOUS
 70
1
 66
1
  0
VERTEX
 10
23.300000
 20
52.300000
 30
0.000000
  8
1
 62
7
  6
CONTINUOUS
  0
VERTEX
 10
23.300000
 20
47.700000
 30
0.000000
  8
1
 62
7
  6
CONTINUOUS
  0
VERTEX
 10
1.700000
 20
47.700000
 30
0.000000
  8
1
 62
7
  6
CONTINUOUS
  0
VERTEX
 10
1.700000
 20
52.300000
 30
0.000000
  8
1
 62
7
  6
CONTINUOUS
  0
SEQEND
  0
POLYLINE
  8
1
 62
7
  6
CONTINUOUS
 70
0
 66
1
  0
VERTEX
 10
3.500000
 20
47.700000
  8
1
 62
7
  6
CONTINUOUS
  0
VERTEX
 10
3.500000
 20
48.800000
  8
1
 62
7
  6
CONTINUOUS
  0
SEQEND
  0
POLYLINE
  8
1
 62
7
  6
CONTINUOUS
 70
0
 66
1
  0
VERTEX
 10
5.300000
 20
47.700000
  8
1
 62
7
  6
CONTINUOUS
  0
VERTEX
 10
5.300000
 20
48.800000
  8
1
 62
7
  6
CONTINUOUS
  0
VERTEX
 10
5.300000
 20
48.800000
  8
1
 62
7
  6
CONTINUOUS
  0
SEQEND
  0
POLYLINE
  8
1
 62
7
  6
CONTINUOUS
 70
0
 66
1
  0
VERTEX
 10
7.100000
 20
47.700000
  8
1
 62
7
  6
CONTINUOUS
  0
VERTEX
 10
7.100000
 20
48.800000
  8
1
 62
7
  6
CONTINUOUS
  0
SEQEND
  0
POLYLINE
  8
1
 62
7
  6
CONTINUOUS
 70
0
 66
1
  0
VERTEX
 10
8.900000
 20
47.700000
  8
1
 62
7
  6
CONTINUOUS
  0
VERTEX
 10
8.900000
 20
48.800000
  8
1
 62
7
  6
CONTINUOUS
  0
SEQEND
  0
POLYLINE
  8
1
 62
7
  6
CONTINUOUS
 70
0
 66
1
  0
VERTEX
 10
10.700000
 20
47.700000
  8
1
 62
7
  6
CONTINUOUS
  0
VERTEX
 10
10.700000
 20
48.800000
  8
1
 62
7
  6
CONTINUOUS
  0
SEQEND
  0
POLYLINE
  8
1
 62
7
  6
CONTINUOUS
 70
0
 66
1
  0
VERTEX
 10
12.500000
 20
47.700000
  8
1
 62
7
  6
CONTINUOUS
  0
VERTEX
 10
12.500000
 20
48.800000
  8
1
 62
7
  6
CONTINUOUS
  0
SEQEND
  0
POLYLINE
  8
1
 62
7
  6
CONTINUOUS
 70
0
 66
1
  0
VERTEX
 10
14.300000
 20
47.700000
  8
1
 62
7
  6
CONTINUOUS
  0
VERTEX
 10
14.300000
 20
48.800000
  8
1
 62
7
  6
CONTINUOUS
  0
SEQEND
  0
POLYLINE
  8
1
 62
7
  6
CONTINUOUS
 70
0
 66
1
  0
VERTEX
 10
16.100000
 20
47.700000
  8
1
 62
7
  6
CONTINUOUS
  0
VERTEX
 10
16.100000
 20
48.800000
  8
1
 62
7
  6
CONTINUOUS
  0
SEQEND
  0
POLYLINE
  8
1
 62
7
  6
CONTINUOUS
 70
0
 66
1
  0
VERTEX
 10
17.900000
 20
47.700000
  8
1
 62
7
  6
CONTINUOUS
  0
VERTEX
 10
17.900000
 20
48.800000
  8
1
 62
7
  6
CONTINUOUS
  0
SEQEND
  0
POLYLINE
  8
1
 62
7
  6
CONTINUOUS
 70
0
 66
1
  0
VERTEX
 10
19.700000
 20
47.700000
  8
1
 62
7
  6
CONTINUOUS
  0
VERTEX
 10
19.700000
 20
48.800000
  8
1
 62
7
  6
CONTINUOUS
  0
SEQEND
  0
POLYLINE
  8
1
 62
7
  6
CONTINUOUS
 70
0
 66
1
  0
VERTEX
 10
21.500000
 20
47.700000
  8
1
 62
7
  6
CONTINUOUS
  0
VERTEX
 10
21.500000
 20
48.800000
  8
1
 62
7
  6
CONTINUOUS
  0
SEQEND
  0
SOLID
  8
1
 62
255
  6
CONTINUOUS
 10
24.800000
 20
60.200000
 11
24.800000
 21
134.800000
 12
0.200000
 22
60.200000
 13
0.200000
 23
134.800000
  0
POLYLINE
  8
1
 62
7
  6
CONTINUOUS
 70
1
 66
1
  0
VERTEX
 10
24.800000
 20
60.200000
 30
0.000000
  8
1
 62
7
  6
CONTINUOUS
  0
VERTEX
 10
24.800000
 20
134.800000
 30
0.000000
  8
1
 62
7
  6
CONTINUOUS
  0
VERTEX
 10
0.200000
 20
134.800000
 30
0.000000
  8
1
 62
7
  6
CONTINUOUS
  0
VERTEX
 10
0.200000
 20
60.200000
 30
0.000000
  8
1
 62
7
  6
CONTINUOUS
  0
SEQEND
  0
POLYLINE
  8
1
 62
7
  6
CONTINUOUS
 70
1
 66
1
  0
VERTEX
 10
23.300000
 20
122.300000
 30
0.000000
  8
1
 62
7
  6
CONTINUOUS
  0
VERTEX
 10
23.300000
 20
117.700000
 30
0.000000
  8
1
 62
7
  6
CONTINUOUS
  0
VERTEX
 10
1.700000
 20
117.700000
 30
0.000000
  8
1
 62
7
  6
CONTINUOUS
  0
VERTEX
 10
1.700000
 20
122.300000
 30
0.000000
  8
1
 62
7
  6
CONTINUOUS
  0
SEQEND
  0
POLYLINE
  8
1
 62
7
  6
CONTINUOUS
 70
0
 66
1
  0
VERTEX
 10
3.500000
 20
117.700000
  8
1
 62
7
  6
CONTINUOUS
  0
VERTEX
 10
3.500000
 20
118.800000
  8
1
 62
7
  6
CONTINUOUS
  0
SEQEND
  0
POLYLINE
  8
1
 62
7
  6
CONTINUOUS
 70
0
 66
1
  0
VERTEX
 10
5.300000
 20
117.700000
  8
1
 62
7
  6
CONTINUOUS
  0
VERTEX
 10
5.300000
 20
118.800000
  8
1
 62
7
  6
CONTINUOUS
  0
VERTEX
 10
5.300000
 20
118.800000
  8
1
 62
7
  6
CONTINUOUS
  0
SEQEND
  0
POLYLINE
  8
1
 62
7
  6
CONTINUOUS
 70
0
 66
1
  0
VERTEX
 10
7.100000
 20
117.700000
  8
1
 62
7
  6
CONTINUOUS
  0
VERTEX
 10
7.100000
 20
118.800000
  8
1
 62
7
  6
CONTINUOUS
  0
SEQEND
  0
POLYLINE
  8
1
 62
7
  6
CONTINUOUS
 70
0
 66
1
  0
VERTEX
 10
8.900000
 20
117.700000
  8
1
 62
7
  6
CONTINUOUS
  0
VERTEX
 10
8.900000
 20
118.800000
  8
1
 62
7
  6
CONTINUOUS
  0
SEQEND
  0
POLYLINE
  8
1
 62
7
  6
CONTINUOUS
 70
0
 66
1
  0
VERTEX
 10
10.700000
 20
117.700000
  8
1
 62
7
  6
CONTINUOUS
  0
VERTEX
 10
10.700000
 20
118.800000
  8
1
 62
7
  6
CONTINUOUS
  0
SEQEND
  0
POLYLINE
  8
1
 62
7
  6
CONTINUOUS
 70
0
 66
1
  0
VERTEX
 10
12.500000
 20
117.700000
  8
1
 62
7
  6
CONTINUOUS
  0
VERTEX
 10
12.500000
 20
118.800000
  8
1
 62
7
  6
CONTINUOUS
  0
SEQEND
  0
POLYLINE
  8
1
 62
7
  6
CONTINUOUS
 70
0
 66
1
  0
VERTEX
 10
14.300000
 20
117.700000
  8
1
 62
7
  6
CONTINUOUS
  0
VERTEX
 10
14.300000
 20
118.800000
  8
1
 62
7
  6
CONTINUOUS
  0
SEQEND
  0
POLYLINE
  8
1
 62
7
  6
CONTINUOUS
 70
0
 66
1
  0
VERTEX
 10
16.100000
 20
117.700000
  8
1
 62
7
  6
CONTINUOUS
  0
VERTEX
 10
16.100000
 20
118.800000
  8
1
 62
7
  6
CONTINUOUS
  0
SEQEND
  0
POLYLINE
  8
1
 62
7
  6
CONTINUOUS
 70
0
 66
1
  0
VERTEX
 10
17.900000
 20
117.700000
  8
1
 62
7
  6
CONTINUOUS
  0
VERTEX
 10
17.900000
 20
118.800000
  8
1
 62
7
  6
CONTINUOUS
  0
SEQEND
  0
POLYLINE
  8
1
 62
7
  6
CONTINUOUS
 70
0
 66
1
  0
VERTEX
 10
19.700000
 20
117.700000
  8
1
 62
7
  6
CONTINUOUS
  0
VERTEX
 10
19.700000
 20
118.800000
  8
1
 62
7
  6
CONTINUOUS
  0
SEQEND
  0
POLYLINE
  8
1
 62
7
  6
CONTINUOUS
 70
0
 66
1
  0
VERTEX
 10
21.500000
 20
117.700000
  8
1
 62
7
  6
CONTINUOUS
  0
VERTEX
 10
21.500000
 20
118.800000
  8
1
 62
7
  6
CONTINUOUS
  0
SEQEND
  0
LINE
  8
1
 62
7
  6
CONTINUOUS
 10
24.000000
 20
62.100000
 11
24.000000
 21
62.600000
  0
LINE
  8
1
 62
7
  6
CONTINUOUS
 10
24.000000
 20
65.500000
 11
24.000000
 21
65.000000
  0
LINE
  8
1
 62
7
  6
CONTINUOUS
 10
23.600000
 20
63.800000
 11
24.500000
 21
63.800000
  0
CIRCLE
  8
1
 62
7
  6
CONTINUOUS
 10
24.000000
 20
63.800000
 30
0.0
 40
0.700000
  0
LINE
  8
1
 62
7
  6
CONTINUOUS
 10
1.000000
 20
62.100000
 11
1.000000
 21
62.600000
  0
LINE
  8
1
 62
7
  6
CONTINUOUS
 10
1.000000
 20
65.500000
 11
1.000000
 21
65.000000
  0
LINE
  8
1
 62
7
  6
CONTINUOUS
 10
1.400000
 20
63.800000
 11
0.500000
 21
63.800000
  0
CIRCLE
  8
1
 62
7
  6
CONTINUOUS
 10
1.000000
 20
63.800000
 30
0.0
 40
0.700000
  0
POLYLINE
  8
1
 62
7
  6
CONTINUOUS
 70
1
 66
1
  0
VERTEX
 10
23.300000
 20
97.300000
 30
0.000000
  8
1
 62
7
  6
CONTINUOUS
  0
VERTEX
 10
23.300000
 20
92.700000
 30
0.000000
  8
1
 62
7
  6
CONTINUOUS
  0
VERTEX
 10
1.700000
 20
92.700000
 30
0.000000
  8
1
 62
7
  6
CONTINUOUS
  0
VERTEX
 10
1.700000
 20
97.300000
 30
0.000000
  8
1
 62
7
  6
CONTINUOUS
  0
SEQEND
  0
POLYLINE
  8
1
 62
7
  6
CONTINUOUS
 70
1
 66
1
  0
VERTEX
 10
23.300000
 20
72.300000
 30
0.000000
  8
1
 62
7
  6
CONTINUOUS
  0
VERTEX
 10
23.300000
 20
67.700000
 30
0.000000
  8
1
 62
7
  6
CONTINUOUS
  0
VERTEX
 10
1.700000
 20
67.700000
 30
0.000000
  8
1
 62
7
  6
CONTINUOUS
  0
VERTEX
 10
1.700000
 20
72.300000
 30
0.000000
  8
1
 62
7
  6
CONTINUOUS
  0
SEQEND
  0
POLYLINE
  8
1
 62
7
  6
CONTINUOUS
 70
0
 66
1
  0
VERTEX
 10
3.500000
 20
67.700000
  8
1
 62
7
  6
CONTINUOUS
  0
VERTEX
 10
3.500000
 20
68.800000
  8
1
 62
7
  6
CONTINUOUS
  0
SEQEND
  0
POLYLINE
  8
1
 62
7
  6
CONTINUOUS
 70
0
 66
1
  0
VERTEX
 10
5.300000
 20
67.700000
  8
1
 62
7
  6
CONTINUOUS
  0
VERTEX
 10
5.300000
 20
68.800000
  8
1
 62
7
  6
CONTINUOUS
  0
VERTEX
 10
5.300000
 20
68.800000
  8
1
 62
7
  6
CONTINUOUS
  0
SEQEND
  0
POLYLINE
  8
1
 62
7
  6
CONTINUOUS
 70
0
 66
1
  0
VERTEX
 10
7.100000
 20
67.700000
  8
1
 62
7
  6
CONTINUOUS
  0
VERTEX
 10
7.100000
 20
68.800000
  8
1
 62
7
  6
CONTINUOUS
  0
SEQEND
  0
POLYLINE
  8
1
 62
7
  6
CONTINUOUS
 70
0
 66
1
  0
VERTEX
 10
8.900000
 20
67.700000
  8
1
 62
7
  6
CONTINUOUS
  0
VERTEX
 10
8.900000
 20
68.800000
  8
1
 62
7
  6
CONTINUOUS
  0
SEQEND
  0
POLYLINE
  8
1
 62
7
  6
CONTINUOUS
 70
0
 66
1
  0
VERTEX
 10
10.700000
 20
67.700000
  8
1
 62
7
  6
CONTINUOUS
  0
VERTEX
 10
10.700000
 20
68.800000
  8
1
 62
7
  6
CONTINUOUS
  0
SEQEND
  0
POLYLINE
  8
1
 62
7
  6
CONTINUOUS
 70
0
 66
1
  0
VERTEX
 10
12.500000
 20
67.700000
  8
1
 62
7
  6
CONTINUOUS
  0
VERTEX
 10
12.500000
 20
68.800000
  8
1
 62
7
  6
CONTINUOUS
  0
SEQEND
  0
POLYLINE
  8
1
 62
7
  6
CONTINUOUS
 70
0
 66
1
  0
VERTEX
 10
14.300000
 20
67.700000
  8
1
 62
7
  6
CONTINUOUS
  0
VERTEX
 10
14.300000
 20
68.800000
  8
1
 62
7
  6
CONTINUOUS
  0
SEQEND
  0
POLYLINE
  8
1
 62
7
  6
CONTINUOUS
 70
0
 66
1
  0
VERTEX
 10
16.100000
 20
67.700000
  8
1
 62
7
  6
CONTINUOUS
  0
VERTEX
 10
16.100000
 20
68.800000
  8
1
 62
7
  6
CONTINUOUS
  0
SEQEND
  0
POLYLINE
  8
1
 62
7
  6
CONTINUOUS
 70
0
 66
1
  0
VERTEX
 10
17.900000
 20
67.700000
  8
1
 62
7
  6
CONTINUOUS
  0
VERTEX
 10
17.900000
 20
68.800000
  8
1
 62
7
  6
CONTINUOUS
  0
SEQEND
  0
POLYLINE
  8
1
 62
7
  6
CONTINUOUS
 70
0
 66
1
  0
VERTEX
 10
19.700000
 20
67.700000
  8
1
 62
7
  6
CONTINUOUS
  0
VERTEX
 10
19.700000
 20
68.800000
  8
1
 62
7
  6
CONTINUOUS
  0
SEQEND
  0
POLYLINE
  8
1
 62
7
  6
CONTINUOUS
 70
0
 66
1
  0
VERTEX
 10
21.500000
 20
67.700000
  8
1
 62
7
  6
CONTINUOUS
  0
VERTEX
 10
21.500000
 20
68.800000
  8
1
 62
7
  6
CONTINUOUS
  0
SEQEND
  0
POLYLINE
  8
1
 62
7
  6
CONTINUOUS
 70
1
 66
1
  0
VERTEX
 10
23.300000
 20
84.800000
 30
0.000000
  8
1
 62
7
  6
CONTINUOUS
  0
VERTEX
 10
23.300000
 20
80.200000
 30
0.000000
  8
1
 62
7
  6
CONTINUOUS
  0
VERTEX
 10
1.700000
 20
80.200000
 30
0.000000
  8
1
 62
7
  6
CONTINUOUS
  0
VERTEX
 10
1.700000
 20
84.800000
 30
0.000000
  8
1
 62
7
  6
CONTINUOUS
  0
SEQEND
  0
POLYLINE
  8
1
 62
7
  6
CONTINUOUS
 70
0
 66
1
  0
VERTEX
 10
3.500000
 20
80.200000
  8
1
 62
7
  6
CONTINUOUS
  0
VERTEX
 10
3.500000
 20
81.300000
  8
1
 62
7
  6
CONTINUOUS
  0
SEQEND
  0
POLYLINE
  8
1
 62
7
  6
CONTINUOUS
 70
0
 66
1
  0
VERTEX
 10
5.300000
 20
80.200000
  8
1
 62
7
  6
CONTINUOUS
  0
VERTEX
 10
5.300000
 20
81.300000
  8
1
 62
7
  6
CONTINUOUS
  0
VERTEX
 10
5.300000
 20
81.300000
  8
1
 62
7
  6
CONTINUOUS
  0
SEQEND
  0
POLYLINE
  8
1
 62
7
  6
CONTINUOUS
 70
0
 66
1
  0
VERTEX
 10
7.100000
 20
80.200000
  8
1
 62
7
  6
CONTINUOUS
  0
VERTEX
 10
7.100000
 20
81.300000
  8
1
 62
7
  6
CONTINUOUS
  0
SEQEND
  0
POLYLINE
  8
1
 62
7
  6
CONTINUOUS
 70
0
 66
1
  0
VERTEX
 10
8.900000
 20
80.200000
  8
1
 62
7
  6
CONTINUOUS
  0
VERTEX
 10
8.900000
 20
81.300000
  8
1
 62
7
  6
CONTINUOUS
  0
SEQEND
  0
POLYLINE
  8
1
 62
7
  6
CONTINUOUS
 70
0
 66
1
  0
VERTEX
 10
10.700000
 20
80.200000
  8
1
 62
7
  6
CONTINUOUS
  0
VERTEX
 10
10.700000
 20
81.300000
  8
1
 62
7
  6
CONTINUOUS
  0
SEQEND
  0
POLYLINE
  8
1
 62
7
  6
CONTINUOUS
 70
0
 66
1
  0
VERTEX
 10
12.500000
 20
80.200000
  8
1
 62
7
  6
CONTINUOUS
  0
VERTEX
 10
12.500000
 20
81.300000
  8
1
 62
7
  6
CONTINUOUS
  0
SEQEND
  0
POLYLINE
  8
1
 62
7
  6
CONTINUOUS
 70
0
 66
1
  0
VERTEX
 10
14.300000
 20
80.200000
  8
1
 62
7
  6
CONTINUOUS
  0
VERTEX
 10
14.300000
 20
81.300000
  8
1
 62
7
  6
CONTINUOUS
  0
SEQEND
  0
POLYLINE
  8
1
 62
7
  6
CONTINUOUS
 70
0
 66
1
  0
VERTEX
 10
16.100000
 20
80.200000
  8
1
 62
7
  6
CONTINUOUS
  0
VERTEX
 10
16.100000
 20
81.300000
  8
1
 62
7
  6
CONTINUOUS
  0
SEQEND
  0
POLYLINE
  8
1
 62
7
  6
CONTINUOUS
 70
0
 66
1
  0
VERTEX
 10
17.900000
 20
80.200000
  8
1
 62
7
  6
CONTINUOUS
  0
VERTEX
 10
17.900000
 20
81.300000
  8
1
 62
7
  6
CONTINUOUS
  0
SEQEND
  0
POLYLINE
  8
1
 62
7
  6
CONTINUOUS
 70
0
 66
1
  0
VERTEX
 10
19.700000
 20
80.200000
  8
1
 62
7
  6
CONTINUOUS
  0
VERTEX
 10
19.700000
 20
81.300000
  8
1
 62
7
  6
CONTINUOUS
  0
SEQEND
  0
POLYLINE
  8
1
 62
7
  6
CONTINUOUS
 70
0
 66
1
  0
VERTEX
 10
21.500000
 20
80.200000
  8
1
 62
7
  6
CONTINUOUS
  0
VERTEX
 10
21.500000
 20
81.300000
  8
1
 62
7
  6
CONTINUOUS
  0
SEQEND
  0
POLYLINE
  8
1
 62
7
  6
CONTINUOUS
 70
1
 66
1
  0
VERTEX
 10
23.300000
 20
109.800000
 30
0.000000
  8
1
 62
7
  6
CONTINUOUS
  0
VERTEX
 10
23.300000
 20
105.200000
 30
0.000000
  8
1
 62
7
  6
CONTINUOUS
  0
VERTEX
 10
1.700000
 20
105.200000
 30
0.000000
  8
1
 62
7
  6
CONTINUOUS
  0
VERTEX
 10
1.700000
 20
109.800000
 30
0.000000
  8
1
 62
7
  6
CONTINUOUS
  0
SEQEND
  0
POLYLINE
  8
1
 62
7
  6
CONTINUOUS
 70
0
 66
1
  0
VERTEX
 10
3.500000
 20
105.200000
  8
1
 62
7
  6
CONTINUOUS
  0
VERTEX
 10
3.500000
 20
106.300000
  8
1
 62
7
  6
CONTINUOUS
  0
SEQEND
  0
POLYLINE
  8
1
 62
7
  6
CONTINUOUS
 70
0
 66
1
  0
VERTEX
 10
5.300000
 20
105.200000
  8
1
 62
7
  6
CONTINUOUS
  0
VERTEX
 10
5.300000
 20
106.300000
  8
1
 62
7
  6
CONTINUOUS
  0
VERTEX
 10
5.300000
 20
106.300000
  8
1
 62
7
  6
CONTINUOUS
  0
SEQEND
  0
POLYLINE
  8
1
 62
7
  6
CONTINUOUS
 70
0
 66
1
  0
VERTEX
 10
7.100000
 20
105.200000
  8
1
 62
7
  6
CONTINUOUS
  0
VERTEX
 10
7.100000
 20
106.300000
  8
1
 62
7
  6
CONTINUOUS
  0
SEQEND
  0
POLYLINE
  8
1
 62
7
  6
CONTINUOUS
 70
0
 66
1
  0
VERTEX
 10
8.900000
 20
105.200000
  8
1
 62
7
  6
CONTINUOUS
  0
VERTEX
 10
8.900000
 20
106.300000
  8
1
 62
7
  6
CONTINUOUS
  0
SEQEND
  0
POLYLINE
  8
1
 62
7
  6
CONTINUOUS
 70
0
 66
1
  0
VERTEX
 10
10.700000
 20
105.200000
  8
1
 62
7
  6
CONTINUOUS
  0
VERTEX
 10
10.700000
 20
106.300000
  8
1
 62
7
  6
CONTINUOUS
  0
SEQEND
  0
POLYLINE
  8
1
 62
7
  6
CONTINUOUS
 70
0
 66
1
  0
VERTEX
 10
12.500000
 20
105.200000
  8
1
 62
7
  6
CONTINUOUS
  0
VERTEX
 10
12.500000
 20
106.300000
  8
1
 62
7
  6
CONTINUOUS
  0
SEQEND
  0
POLYLINE
  8
1
 62
7
  6
CONTINUOUS
 70
0
 66
1
  0
VERTEX
 10
14.300000
 20
105.200000
  8
1
 62
7
  6
CONTINUOUS
  0
VERTEX
 10
14.300000
 20
106.300000
  8
1
 62
7
  6
CONTINUOUS
  0
SEQEND
  0
POLYLINE
  8
1
 62
7
  6
CONTINUOUS
 70
0
 66
1
  0
VERTEX
 10
16.100000
 20
105.200000
  8
1
 62
7
  6
CONTINUOUS
  0
VERTEX
 10
16.100000
 20
106.300000
  8
1
 62
7
  6
CONTINUOUS
  0
SEQEND
  0
POLYLINE
  8
1
 62
7
  6
CONTINUOUS
 70
0
 66
1
  0
VERTEX
 10
17.900000
 20
105.200000
  8
1
 62
7
  6
CONTINUOUS
  0
VERTEX
 10
17.900000
 20
106.300000
  8
1
 62
7
  6
CONTINUOUS
  0
SEQEND
  0
POLYLINE
  8
1
 62
7
  6
CONTINUOUS
 70
0
 66
1
  0
VERTEX
 10
19.700000
 20
105.200000
  8
1
 62
7
  6
CONTINUOUS
  0
VERTEX
 10
19.700000
 20
106.300000
  8
1
 62
7
  6
CONTINUOUS
  0
SEQEND
  0
POLYLINE
  8
1
 62
7
  6
CONTINUOUS
 70
0
 66
1
  0
VERTEX
 10
21.500000
 20
105.200000
  8
1
 62
7
  6
CONTINUOUS
  0
VERTEX
 10
21.500000
 20
106.300000
  8
1
 62
7
  6
CONTINUOUS
  0
SEQEND
  0
POLYLINE
  8
1
 62
7
  6
CONTINUOUS
 70
0
 66
1
  0
VERTEX
 10
3.500000
 20
92.700000
  8
1
 62
7
  6
CONTINUOUS
  0
VERTEX
 10
3.500000
 20
93.800000
  8
1
 62
7
  6
CONTINUOUS
  0
SEQEND
  0
POLYLINE
  8
1
 62
7
  6
CONTINUOUS
 70
0
 66
1
  0
VERTEX
 10
5.300000
 20
92.700000
  8
1
 62
7
  6
CONTINUOUS
  0
VERTEX
 10
5.300000
 20
93.800000
  8
1
 62
7
  6
CONTINUOUS
  0
VERTEX
 10
5.300000
 20
93.800000
  8
1
 62
7
  6
CONTINUOUS
  0
SEQEND
  0
POLYLINE
  8
1
 62
7
  6
CONTINUOUS
 70
0
 66
1
  0
VERTEX
 10
7.100000
 20
92.700000
  8
1
 62
7
  6
CONTINUOUS
  0
VERTEX
 10
7.100000
 20
93.800000
  8
1
 62
7
  6
CONTINUOUS
  0
SEQEND
  0
POLYLINE
  8
1
 62
7
  6
CONTINUOUS
 70
0
 66
1
  0
VERTEX
 10
8.900000
 20
92.700000
  8
1
 62
7
  6
CONTINUOUS
  0
VERTEX
 10
8.900000
 20
93.800000
  8
1
 62
7
  6
CONTINUOUS
  0
SEQEND
  0
POLYLINE
  8
1
 62
7
  6
CONTINUOUS
 70
0
 66
1
  0
VERTEX
 10
10.700000
 20
92.700000
  8
1
 62
7
  6
CONTINUOUS
  0
VERTEX
 10
10.700000
 20
93.800000
  8
1
 62
7
  6
CONTINUOUS
  0
SEQEND
  0
POLYLINE
  8
1
 62
7
  6
CONTINUOUS
 70
0
 66
1
  0
VERTEX
 10
12.500000
 20
92.700000
  8
1
 62
7
  6
CONTINUOUS
  0
VERTEX
 10
12.500000
 20
93.800000
  8
1
 62
7
  6
CONTINUOUS
  0
SEQEND
  0
POLYLINE
  8
1
 62
7
  6
CONTINUOUS
 70
0
 66
1
  0
VERTEX
 10
14.300000
 20
92.700000
  8
1
 62
7
  6
CONTINUOUS
  0
VERTEX
 10
14.300000
 20
93.800000
  8
1
 62
7
  6
CONTINUOUS
  0
SEQEND
  0
POLYLINE
  8
1
 62
7
  6
CONTINUOUS
 70
0
 66
1
  0
VERTEX
 10
16.100000
 20
92.700000
  8
1
 62
7
  6
CONTINUOUS
  0
VERTEX
 10
16.100000
 20
93.800000
  8
1
 62
7
  6
CONTINUOUS
  0
SEQEND
  0
POLYLINE
  8
1
 62
7
  6
CONTINUOUS
 70
0
 66
1
  0
VERTEX
 10
17.900000
 20
92.700000
  8
1
 62
7
  6
CONTINUOUS
  0
VERTEX
 10
17.900000
 20
93.800000
  8
1
 62
7
  6
CONTINUOUS
  0
SEQEND
  0
POLYLINE
  8
1
 62
7
  6
CONTINUOUS
 70
0
 66
1
  0
VERTEX
 10
19.700000
 20
92.700000
  8
1
 62
7
  6
CONTINUOUS
  0
VERTEX
 10
19.700000
 20
93.800000
  8
1
 62
7
  6
CONTINUOUS
  0
SEQEND
  0
POLYLINE
  8
1
 62
7
  6
CONTINUOUS
 70
0
 66
1
  0
VERTEX
 10
21.500000
 20
92.700000
  8
1
 62
7
  6
CONTINUOUS
  0
VERTEX
 10
21.500000
 20
93.800000
  8
1
 62
7
  6
CONTINUOUS
  0
SEQEND
  0
LINE
  8
1
 62
7
  6
CONTINUOUS
 10
1.000000
 20
132.900000
 11
1.000000
 21
132.400000
  0
LINE
  8
1
 62
7
  6
CONTINUOUS
 10
1.000000
 20
129.500000
 11
1.000000
 21
130.000000
  0
LINE
  8
1
 62
7
  6
CONTINUOUS
 10
1.400000
 20
131.200000
 11
0.500000
 21
131.200000
  0
CIRCLE
  8
1
 62
7
  6
CONTINUOUS
 10
1.000000
 20
131.200000
 30
0.0
 40
0.700000
  0
LINE
  8
1
 62
7
  6
CONTINUOUS
 10
1.000000
 20
132.900000
 11
1.000000
 21
132.400000
  0
LINE
  8
1
 62
7
  6
CONTINUOUS
 10
1.000000
 20
129.500000
 11
1.000000
 21
130.000000
  0
LINE
  8
1
 62
7
  6
CONTINUOUS
 10
1.400000
 20
131.200000
 11
0.500000
 21
131.200000
  0
CIRCLE
  8
1
 62
7
  6
CONTINUOUS
 10
1.000000
 20
131.200000
 30
0.0
 40
0.700000
  0
LINE
  8
1
 62
7
  6
CONTINUOUS
 10
24.000000
 20
132.900000
 11
24.000000
 21
132.400000
  0
LINE
  8
1
 62
7
  6
CONTINUOUS
 10
23.600000
 20
131.200000
 11
24.500000
 21
131.200000
  0
CIRCLE
  8
1
 62
7
  6
CONTINUOUS
 10
24.000000
 20
131.200000
 30
0.0
 40
0.700000
  0
LINE
  8
1
 62
7
  6
CONTINUOUS
 10
24.000000
 20
132.900000
 11
24.000000
 21
132.400000
  0
LINE
  8
1
 62
7
  6
CONTINUOUS
 10
23.600000
 20
131.200000
 11
24.500000
 21
131.200000
  0
CIRCLE
  8
1
 62
7
  6
CONTINUOUS
 10
24.000000
 20
131.200000
 30
0.0
 40
0.700000
  0
LINE
  8
1
 62
7
  6
CONTINUOUS
 10
24.000000
 20
129.500000
 11
24.000000
 21
130.000000
  0
SOLID
  8
38
 62
7
  6
CONTINUOUS
 10
13.300000
 20
128.300000
 11
13.300000
 21
131.300000
 12
2.300000
 22
128.300000
 13
2.300000
 23
131.300000
  0
POLYLINE
  8
38
 62
7
  6
CONTINUOUS
 70
1
 66
1
  0
VERTEX
 10
13.300000
 20
128.300000
 30
0.000000
  8
38
 62
7
  6
CONTINUOUS
  0
VERTEX
 10
13.300000
 20
131.300000
 30
0.000000
  8
38
 62
7
  6
CONTINUOUS
  0
VERTEX
 10
2.300000
 20
131.300000
 30
0.000000
  8
38
 62
7
  6
CONTINUOUS
  0
VERTEX
 10
2.300000
 20
128.300000
 30
0.000000
  8
38
 62
7
  6
CONTINUOUS
  0
SEQEND
  0
SOLID
  8
38
 62
255
  6
CONTINUOUS
 10
24.500000
 20
133.500000
 11
24.500000
 21
134.500000
 12
0.500000
 22
133.500000
 13
0.500000
 23
134.500000
  0
POLYLINE
  8
38
 62
7
  6
CONTINUOUS
 70
1
 66
1
  0
VERTEX
 10
24.500000
 20
133.500000
 30
0.000000
  8
38
 62
7
  6
CONTINUOUS
  0
VERTEX
 10
24.500000
 20
134.500000
 30
0.000000
  8
38
 62
7
  6
CONTINUOUS
  0
VERTEX
 10
0.500000
 20
134.500000
 30
0.000000
  8
38
 62
7
  6
CONTINUOUS
  0
VERTEX
 10
0.500000
 20
133.500000
 30
0.000000
  8
38
 62
7
  6
CONTINUOUS
  0
SEQEND
  0
SOLID
  8
38
 62
7
  6
CONTINUOUS
 10
13.200000
 20
130.500000
 11
13.200000
 21
133.500000
 12
8.600000
 22
130.500000
 13
8.600000
 23
133.500000
  0
POLYLINE
  8
38
 62
7
  6
CONTINUOUS
 70
1
 66
1
  0
VERTEX
 10
13.200000
 20
130.500000
 30
0.000000
  8
38
 62
7
  6
CONTINUOUS
  0
VERTEX
 10
13.200000
 20
133.500000
 30
0.000000
  8
38
 62
7
  6
CONTINUOUS
  0
VERTEX
 10
8.600000
 20
133.500000
 30
0.000000
  8
38
 62
7
  6
CONTINUOUS
  0
VERTEX
 10
8.600000
 20
130.500000
 30
0.000000
  8
38
 62
7
  6
CONTINUOUS
  0
SEQEND
  0
SOLID
  8
38
 62
7
  6
CONTINUOUS
 10
8.500000
 20
130.500000
 11
8.500000
 21
133.500000
 12
2.300000
 22
130.500000
 13
2.300000
 23
133.500000
  0
POLYLINE
  8
38
 62
7
  6
CONTINUOUS
 70
1
 66
1
  0
VERTEX
 10
8.500000
 20
130.500000
 30
0.000000
  8
38
 62
7
  6
CONTINUOUS
  0
VERTEX
 10
8.500000
 20
133.500000
 30
0.000000
  8
38
 62
7
  6
CONTINUOUS
  0
VERTEX
 10
2.300000
 20
133.500000
 30
0.000000
  8
38
 62
7
  6
CONTINUOUS
  0
VERTEX
 10
2.300000
 20
130.500000
 30
0.000000
  8
38
 62
7
  6
CONTINUOUS
  0
SEQEND
  0
SOLID
  8
38
 62
7
  6
CONTINUOUS
 10
22.700000
 20
128.300000
 11
22.700000
 21
131.300000
 12
13.300000
 22
128.300000
 13
13.300000
 23
131.300000
  0
POLYLINE
  8
38
 62
7
  6
CONTINUOUS
 70
1
 66
1
  0
VERTEX
 10
22.700000
 20
128.300000
 30
0.000000
  8
38
 62
7
  6
CONTINUOUS
  0
VERTEX
 10
22.700000
 20
131.300000
 30
0.000000
  8
38
 62
7
  6
CONTINUOUS
  0
VERTEX
 10
13.300000
 20
131.300000
 30
0.000000
  8
38
 62
7
  6
CONTINUOUS
  0
VERTEX
 10
13.300000
 20
128.300000
 30
0.000000
  8
38
 62
7
  6
CONTINUOUS
  0
SEQEND
  0
SOLID
  8
38
 62
7
  6
CONTINUOUS
 10
17.900000
 20
130.500000
 11
17.900000
 21
133.500000
 12
13.300000
 22
130.500000
 13
13.300000
 23
133.500000
  0
POLYLINE
  8
38
 62
7
  6
CONTINUOUS
 70
1
 66
1
  0
VERTEX
 10
17.900000
 20
130.500000
 30
0.000000
  8
38
 62
7
  6
CONTINUOUS
  0
VERTEX
 10
17.900000
 20
133.500000
 30
0.000000
  8
38
 62
7
  6
CONTINUOUS
  0
VERTEX
 10
13.300000
 20
133.500000
 30
0.000000
  8
38
 62
7
  6
CONTINUOUS
  0
VERTEX
 10
13.300000
 20
130.500000
 30
0.000000
  8
38
 62
7
  6
CONTINUOUS
  0
SEQEND
  0
SOLID
  8
38
 62
7
  6
CONTINUOUS
 10
22.600000
 20
130.500000
 11
22.600000
 21
133.500000
 12
18.000000
 22
130.500000
 13
18.000000
 23
133.500000
  0
POLYLINE
  8
38
 62
7
  6
CONTINUOUS
 70
1
 66
1
  0
VERTEX
 10
22.600000
 20
130.500000
 30
0.000000
  8
38
 62
7
  6
CONTINUOUS
  0
VERTEX
 10
22.600000
 20
133.500000
 30
0.000000
  8
38
 62
7
  6
CONTINUOUS
  0
VERTEX
 10
18.000000
 20
133.500000
 30
0.000000
  8
38
 62
7
  6
CONTINUOUS
  0
VERTEX
 10
18.000000
 20
130.500000
 30
0.000000
  8
38
 62
7
  6
CONTINUOUS
  0
SEQEND
  0
SOLID
  8
38
 62
7
  6
CONTINUOUS
 10
20.300000
 20
118.500000
 11
20.300000
 21
121.500000
 12
23.300000
 22
118.500000
 13
23.300000
 23
121.500000
  0
POLYLINE
  8
38
 62
7
  6
CONTINUOUS
 70
1
 66
1
  0
VERTEX
 10
20.300000
 20
118.500000
 30
0.000000
  8
38
 62
7
  6
CONTINUOUS
  0
VERTEX
 10
20.300000
 20
121.500000
 30
0.000000
  8
38
 62
7
  6
CONTINUOUS
  0
VERTEX
 10
23.300000
 20
121.500000
 30
0.000000
  8
38
 62
7
  6
CONTINUOUS
  0
VERTEX
 10
23.300000
 20
118.500000
 30
0.000000
  8
38
 62
7
  6
CONTINUOUS
  0
SEQEND
  0
POLYLINE
  8
2
 62
7
  6
L014100020032000000
 70
1
 66
1
  0
VERTEX
 10
22.900000
 20
130.500000
 30
0.000000
  8
2
 62
7
  6
L014100020032000000
  0
VERTEX
 10
22.900000
 20
134.500000
 30
0.000000
  8
2
 62
7
  6
L014100020032000000
  0
VERTEX
 10
2.100000
 20
134.500000
 30
0.000000
  8
2
 62
7
  6
L014100020032000000
  0
VERTEX
 10
2.100000
 20
130.500000
 30
0.000000
  8
2
 62
7
  6
L014100020032000000
  0
SEQEND
  0
POLYLINE
  8
2
 62
7
  6
L014100020032000000
 70
1
 66
1
  0
VERTEX
 10
22.900000
 20
128.300000
 30
0.000000
  8
2
 62
7
  6
L014100020032000000
  0
VERTEX
 10
22.900000
 20
134.500000
 30
0.000000
  8
2
 62
7
  6
L014100020032000000
  0
VERTEX
 10
2.100000
 20
134.500000
 30
0.000000
  8
2
 62
7
  6
L014100020032000000
  0
VERTEX
 10
2.100000
 20
128.300000
 30
0.000000
  8
2
 62
7
  6
L014100020032000000
  0
SEQEND
  0
LINE
  8
160
 62
1
  6
L0141000400320000FF
 10
1.000000
 20
134.000000
 11
1.000000
 21
31.000000
  0
LINE
  8
160
 62
1
  6
L0141000400320000FF
 10
1.000000
 20
134.000000
 11
1.000000
 21
61.000000
  0
LINE
  8
161
 62
4
  6
L000000060000FFFF00
 10
24.000000
 20
29.000000
 11
1.000000
 21
29.000000
  0
LINE
  8
161
 62
4
  6
L000000060000FFFF00
 10
24.000000
 20
1.000000
 11
24.000000
 21
29.000000
  0
LINE
  8
161
 62
4
  6
L000000060000FFFF00
 10
1.000000
 20
1.000000
 11
1.000000
 21
29.000000
  0
SOLID
  8
161
 62
3
  6
CONTINUOUS
 10
13.300000
 20
128.300000
 11
13.300000
 21
131.300000
 12
2.300000
 22
128.300000
 13
2.300000
 23
131.300000
  0
POLYLINE
  8
161
 62
7
  6
CONTINUOUS
 70
1
 66
1
  0
VERTEX
 10
13.300000
 20
128.300000
 30
0.000000
  8
161
 62
7
  6
CONTINUOUS
  0
VERTEX
 10
13.300000
 20
131.300000
 30
0.000000
  8
161
 62
7
  6
CONTINUOUS
  0
VERTEX
 10
2.300000
 20
131.300000
 30
0.000000
  8
161
 62
7
  6
CONTINUOUS
  0
VERTEX
 10
2.300000
 20
128.300000
 30
0.000000
  8
161
 62
7
  6
CONTINUOUS
  0
SEQEND
  0
SOLID
  8
161
 62
5
  6
CONTINUOUS
 10
13.200000
 20
130.500000
 11
13.200000
 21
133.500000
 12
8.600000
 22
130.500000
 13
8.600000
 23
133.500000
  0
POLYLINE
  8
161
 62
7
  6
CONTINUOUS
 70
1
 66
1
  0
VERTEX
 10
13.200000
 20
130.500000
 30
0.000000
  8
161
 62
7
  6
CONTINUOUS
  0
VERTEX
 10
13.200000
 20
133.500000
 30
0.000000
  8
161
 62
7
  6
CONTINUOUS
  0
VERTEX
 10
8.600000
 20
133.500000
 30
0.000000
  8
161
 62
7
  6
CONTINUOUS
  0
VERTEX
 10
8.600000
 20
130.500000
 30
0.000000
  8
161
 62
7
  6
CONTINUOUS
  0
SEQEND
  0
SOLID
  8
161
 62
5
  6
CONTINUOUS
 10
8.500000
 20
130.500000
 11
8.500000
 21
133.500000
 12
2.300000
 22
130.500000
 13
2.300000
 23
133.500000
  0
POLYLINE
  8
161
 62
7
  6
CONTINUOUS
 70
1
 66
1
  0
VERTEX
 10
8.500000
 20
130.500000
 30
0.000000
  8
161
 62
7
  6
CONTINUOUS
  0
VERTEX
 10
8.500000
 20
133.500000
 30
0.000000
  8
161
 62
7
  6
CONTINUOUS
  0
VERTEX
 10
2.300000
 20
133.500000
 30
0.000000
  8
161
 62
7
  6
CONTINUOUS
  0
VERTEX
 10
2.300000
 20
130.500000
 30
0.000000
  8
161
 62
7
  6
CONTINUOUS
  0
SEQEND
  0
TEXT
  8
161
 62
255
  6
L000000020000FFFFFF
 10
10.900000
 20
131.566667
 40
1.300000
  1
8+2
 50
0.000000
 51
0.000000
 72
1
 73
0
 11
10.900000
 21
131.566667
  0
TEXT
  8
161
 62
255
  6
L000000020000FFFFFF
 10
5.400000
 20
131.566667
 40
1.300000
  1
11+3
 50
0.000000
 51
0.000000
 72
1
 73
0
 11
5.400000
 21
131.566667
  0
SOLID
  8
161
 62
3
  6
CONTINUOUS
 10
22.700000
 20
128.300000
 11
22.700000
 21
131.300000
 12
13.300000
 22
128.300000
 13
13.300000
 23
131.300000
  0
POLYLINE
  8
161
 62
7
  6
CONTINUOUS
 70
1
 66
1
  0
VERTEX
 10
22.700000
 20
128.300000
 30
0.000000
  8
161
 62
7
  6
CONTINUOUS
  0
VERTEX
 10
22.700000
 20
131.300000
 30
0.000000
  8
161
 62
7
  6
CONTINUOUS
  0
VERTEX
 10
13.300000
 20
131.300000
 30
0.000000
  8
161
 62
7
  6
CONTINUOUS
  0
VERTEX
 10
13.300000
 20
128.300000
 30
0.000000
  8
161
 62
7
  6
CONTINUOUS
  0
SEQEND
  0
SOLID
  8
161
 62
5
  6
CONTINUOUS
 10
17.900000
 20
130.500000
 11
17.900000
 21
133.500000
 12
13.300000
 22
130.500000
 13
13.300000
 23
133.500000
  0
POLYLINE
  8
161
 62
7
  6
CONTINUOUS
 70
1
 66
1
  0
VERTEX
 10
17.900000
 20
130.500000
 30
0.000000
  8
161
 62
7
  6
CONTINUOUS
  0
VERTEX
 10
17.900000
 20
133.500000
 30
0.000000
  8
161
 62
7
  6
CONTINUOUS
  0
VERTEX
 10
13.300000
 20
133.500000
 30
0.000000
  8
161
 62
7
  6
CONTINUOUS
  0
VERTEX
 10
13.300000
 20
130.500000
 30
0.000000
  8
161
 62
7
  6
CONTINUOUS
  0
SEQEND
  0
TEXT
  8
161
 62
255
  6
L000000020000FFFFFF
 10
15.600000
 20
131.566667
 40
1.300000
  1
8+2
 50
0.000000
 51
0.000000
 72
1
 73
0
 11
15.600000
 21
131.566667
  0
SOLID
  8
161
 62
5
  6
CONTINUOUS
 10
22.600000
 20
130.500000
 11
22.600000
 21
133.500000
 12
18.000000
 22
130.500000
 13
18.000000
 23
133.500000
  0
POLYLINE
  8
161
 62
7
  6
CONTINUOUS
 70
1
 66
1
  0
VERTEX
 10
22.600000
 20
130.500000
 30
0.000000
  8
161
 62
7
  6
CONTINUOUS
  0
VERTEX
 10
22.600000
 20
133.500000
 30
0.000000
  8
161
 62
7
  6
CONTINUOUS
  0
VERTEX
 10
18.000000
 20
133.500000
 30
0.000000
  8
161
 62
7
  6
CONTINUOUS
  0
VERTEX
 10
18.000000
 20
130.500000
 30
0.000000
  8
161
 62
7
  6
CONTINUOUS
  0
SEQEND
  0
TEXT
  8
161
 62
255
  6
L000000020000FFFFFF
 10
20.300000
 20
131.566667
 40
1.300000
  1
8+2
 50
0.000000
 51
0.000000
 72
1
 73
0
 11
20.300000
 21
131.566667
  0
SOLID
  8
161
 62
7
  6
CONTINUOUS
 10
15.300000
 20
129.300000
 11
15.300000
 21
128.300000
 12
11.300000
 22
129.300000
 13
11.300000
 23
128.300000
  0
POLYLINE
  8
161
 62
7
  6
CONTINUOUS
 70
1
 66
1
  0
VERTEX
 10
15.300000
 20
129.300000
 30
0.000000
  8
161
 62
7
  6
CONTINUOUS
  0
VERTEX
 10
15.300000
 20
128.300000
 30
0.000000
  8
161
 62
7
  6
CONTINUOUS
  0
VERTEX
 10
11.300000
 20
128.300000
 30
0.000000
  8
161
 62
7
  6
CONTINUOUS
  0
VERTEX
 10
11.300000
 20
129.300000
 30
0.000000
  8
161
 62
7
  6
CONTINUOUS
  0
SEQEND
  0
SOLID
  8
161
 62
255
  6
CONTINUOUS
 10
13.000000
 20
4.600000
 11
13.000000
 21
5.600000
 12
12.000000
 22
4.600000
 13
12.000000
 23
5.600000
  0
POLYLINE
  8
161
 62
7
  6
CONTINUOUS
 70
1
 66
1
  0
VERTEX
 10
13.000000
 20
4.600000
 30
0.000000
  8
161
 62
7
  6
CONTINUOUS
  0
VERTEX
 10
13.000000
 20
5.600000
 30
0.000000
  8
161
 62
7
  6
CONTINUOUS
  0
VERTEX
 10
12.000000
 20
5.600000
 30
0.000000
  8
161
 62
7
  6
CONTINUOUS
  0
VERTEX
 10
12.000000
 20
4.600000
 30
0.000000
  8
161
 62
7
  6
CONTINUOUS
  0
SEQEND
  0
SOLID
  8
161
 62
255
  6
CONTINUOUS
 10
19.000000
 20
4.600000
 11
19.000000
 21
5.600000
 12
18.000000
 22
4.600000
 13
18.000000
 23
5.600000
  0
POLYLINE
  8
161
 62
7
  6
CONTINUOUS
 70
1
 66
1
  0
VERTEX
 10
19.000000
 20
4.600000
 30
0.000000
  8
161
 62
7
  6
CONTINUOUS
  0
VERTEX
 10
19.000000
 20
5.600000
 30
0.000000
  8
161
 62
7
  6
CONTINUOUS
  0
VERTEX
 10
18.000000
 20
5.600000
 30
0.000000
  8
161
 62
7
  6
CONTINUOUS
  0
VERTEX
 10
18.000000
 20
4.600000
 30
0.000000
  8
161
 62
7
  6
CONTINUOUS
  0
SEQEND
  0
SOLID
  8
161
 62
255
  6
CONTINUOUS
 10
7.000000
 20
4.600000
 11
7.000000
 21
5.600000
 12
6.000000
 22
4.600000
 13
6.000000
 23
5.600000
  0
POLYLINE
  8
161
 62
7
  6
CONTINUOUS
 70
1
 66
1
  0
VERTEX
 10
7.000000
 20
4.600000
 30
0.000000
  8
161
 62
7
  6
CONTINUOUS
  0
VERTEX
 10
7.000000
 20
5.600000
 30
0.000000
  8
161
 62
7
  6
CONTINUOUS
  0
VERTEX
 10
6.000000
 20
5.600000
 30
0.000000
  8
161
 62
7
  6
CONTINUOUS
  0
VERTEX
 10
6.000000
 20
4.600000
 30
0.000000
  8
161
 62
7
  6
CONTINUOUS
  0
SEQEND
  0
SOLID
  8
161
 62
255
  6
CONTINUOUS
 10
7.000000
 20
20.300000
 11
7.000000
 21
21.300000
 12
6.000000
 22
20.300000
 13
6.000000
 23
21.300000
  0
POLYLINE
  8
161
 62
7
  6
CONTINUOUS
 70
1
 66
1
  0
VERTEX
 10
7.000000
 20
20.300000
 30
0.000000
  8
161
 62
7
  6
CONTINUOUS
  0
VERTEX
 10
7.000000
 20
21.300000
 30
0.000000
  8
161
 62
7
  6
CONTINUOUS
  0
VERTEX
 10
6.000000
 20
21.300000
 30
0.000000
  8
161
 62
7
  6
CONTINUOUS
  0
VERTEX
 10
6.000000
 20
20.300000
 30
0.000000
  8
161
 62
7
  6
CONTINUOUS
  0
SEQEND
  0
SOLID
  8
161
 62
255
  6
CONTINUOUS
 10
13.000000
 20
20.300000
 11
13.000000
 21
21.300000
 12
12.000000
 22
20.300000
 13
12.000000
 23
21.300000
  0
POLYLINE
  8
161
 62
7
  6
CONTINUOUS
 70
1
 66
1
  0
VERTEX
 10
13.000000
 20
20.300000
 30
0.000000
  8
161
 62
7
  6
CONTINUOUS
  0
VERTEX
 10
13.000000
 20
21.300000
 30
0.000000
  8
161
 62
7
  6
CONTINUOUS
  0
VERTEX
 10
12.000000
 20
21.300000
 30
0.000000
  8
161
 62
7
  6
CONTINUOUS
  0
VERTEX
 10
12.000000
 20
20.300000
 30
0.000000
  8
161
 62
7
  6
CONTINUOUS
  0
SEQEND
  0
SOLID
  8
161
 62
255
  6
CONTINUOUS
 10
19.000000
 20
20.300000
 11
19.000000
 21
21.300000
 12
18.000000
 22
20.300000
 13
18.000000
 23
21.300000
  0
POLYLINE
  8
161
 62
7
  6
CONTINUOUS
 70
1
 66
1
  0
VERTEX
 10
19.000000
 20
20.300000
 30
0.000000
  8
161
 62
7
  6
CONTINUOUS
  0
VERTEX
 10
19.000000
 20
21.300000
 30
0.000000
  8
161
 62
7
  6
CONTINUOUS
  0
VERTEX
 10
18.000000
 20
21.300000
 30
0.000000
  8
161
 62
7
  6
CONTINUOUS
  0
VERTEX
 10
18.000000
 20
20.300000
 30
0.000000
  8
161
 62
7
  6
CONTINUOUS
  0
SEQEND
  0
SOLID
  8
161
 62
255
  6
CONTINUOUS
 10
7.000000
 20
49.400000
 11
7.000000
 21
50.400000
 12
6.000000
 22
49.400000
 13
6.000000
 23
50.400000
  0
POLYLINE
  8
161
 62
7
  6
CONTINUOUS
 70
1
 66
1
  0
VERTEX
 10
7.000000
 20
49.400000
 30
0.000000
  8
161
 62
7
  6
CONTINUOUS
  0
VERTEX
 10
7.000000
 20
50.400000
 30
0.000000
  8
161
 62
7
  6
CONTINUOUS
  0
VERTEX
 10
6.000000
 20
50.400000
 30
0.000000
  8
161
 62
7
  6
CONTINUOUS
  0
VERTEX
 10
6.000000
 20
49.400000
 30
0.000000
  8
161
 62
7
  6
CONTINUOUS
  0
SEQEND
  0
SOLID
  8
161
 62
255
  6
CONTINUOUS
 10
13.000000
 20
49.400000
 11
13.000000
 21
50.400000
 12
12.000000
 22
49.400000
 13
12.000000
 23
50.400000
  0
POLYLINE
  8
161
 62
7
  6
CONTINUOUS
 70
1
 66
1
  0
VERTEX
 10
13.000000
 20
49.400000
 30
0.000000
  8
161
 62
7
  6
CONTINUOUS
  0
VERTEX
 10
13.000000
 20
50.400000
 30
0.000000
  8
161
 62
7
  6
CONTINUOUS
  0
VERTEX
 10
12.000000
 20
50.400000
 30
0.000000
  8
161
 62
7
  6
CONTINUOUS
  0
VERTEX
 10
12.000000
 20
49.400000
 30
0.000000
  8
161
 62
7
  6
CONTINUOUS
  0
SEQEND
  0
SOLID
  8
161
 62
255
  6
CONTINUOUS
 10
19.000000
 20
49.400000
 11
19.000000
 21
50.400000
 12
18.000000
 22
49.400000
 13
18.000000
 23
50.400000
  0
POLYLINE
  8
161
 62
7
  6
CONTINUOUS
 70
1
 66
1
  0
VERTEX
 10
19.000000
 20
49.400000
 30
0.000000
  8
161
 62
7
  6
CONTINUOUS
  0
VERTEX
 10
19.000000
 20
50.400000
 30
0.000000
  8
161
 62
7
  6
CONTINUOUS
  0
VERTEX
 10
18.000000
 20
50.400000
 30
0.000000
  8
161
 62
7
  6
CONTINUOUS
  0
VERTEX
 10
18.000000
 20
49.400000
 30
0.000000
  8
161
 62
7
  6
CONTINUOUS
  0
SEQEND
  0
SOLID
  8
161
 62
255
  6
CONTINUOUS
 10
7.000000
 20
36.900000
 11
7.000000
 21
37.900000
 12
6.000000
 22
36.900000
 13
6.000000
 23
37.900000
  0
POLYLINE
  8
161
 62
7
  6
CONTINUOUS
 70
1
 66
1
  0
VERTEX
 10
7.000000
 20
36.900000
 30
0.000000
  8
161
 62
7
  6
CONTINUOUS
  0
VERTEX
 10
7.000000
 20
37.900000
 30
0.000000
  8
161
 62
7
  6
CONTINUOUS
  0
VERTEX
 10
6.000000
 20
37.900000
 30
0.000000
  8
161
 62
7
  6
CONTINUOUS
  0
VERTEX
 10
6.000000
 20
36.900000
 30
0.000000
  8
161
 62
7
  6
CONTINUOUS
  0
SEQEND
  0
SOLID
  8
161
 62
255
  6
CONTINUOUS
 10
13.000000
 20
36.900000
 11
13.000000
 21
37.900000
 12
12.000000
 22
36.900000
 13
12.000000
 23
37.900000
  0
POLYLINE
  8
161
 62
7
  6
CONTINUOUS
 70
1
 66
1
  0
VERTEX
 10
13.000000
 20
36.900000
 30
0.000000
  8
161
 62
7
  6
CONTINUOUS
  0
VERTEX
 10
13.000000
 20
37.900000
 30
0.000000
  8
161
 62
7
  6
CONTINUOUS
  0
VERTEX
 10
12.000000
 20
37.900000
 30
0.000000
  8
161
 62
7
  6
CONTINUOUS
  0
VERTEX
 10
12.000000
 20
36.900000
 30
0.000000
  8
161
 62
7
  6
CONTINUOUS
  0
SEQEND
  0
SOLID
  8
161
 62
255
  6
CONTINUOUS
 10
19.000000
 20
36.900000
 11
19.000000
 21
37.900000
 12
18.000000
 22
36.900000
 13
18.000000
 23
37.900000
  0
POLYLINE
  8
161
 62
7
  6
CONTINUOUS
 70
1
 66
1
  0
VERTEX
 10
19.000000
 20
36.900000
 30
0.000000
  8
161
 62
7
  6
CONTINUOUS
  0
VERTEX
 10
19.000000
 20
37.900000
 30
0.000000
  8
161
 62
7
  6
CONTINUOUS
  0
VERTEX
 10
18.000000
 20
37.900000
 30
0.000000
  8
161
 62
7
  6
CONTINUOUS
  0
VERTEX
 10
18.000000
 20
36.900000
 30
0.000000
  8
161
 62
7
  6
CONTINUOUS
  0
SEQEND
  0
TEXT
  8
161
 62
255
  6
L000000020000FFFFFF
 10
7.800000
 20
129.366667
 40
1.300000
  1
20+6
 50
0.000000
 51
0.000000
 72
1
 73
0
 11
7.800000
 21
129.366667
  0
TEXT
  8
161
 62
255
  6
L000000020000FFFFFF
 10
18.000000
 20
129.366667
 40
1.300000
  1
17+5
 50
0.000000
 51
0.000000
 72
1
 73
0
 11
18.000000
 21
129.366667
  0
SOLID
  8
161
 62
255
  6
CONTINUOUS
 10
7.000000
 20
119.400000
 11
7.000000
 21
120.400000
 12
6.000000
 22
119.400000
 13
6.000000
 23
120.400000
  0
POLYLINE
  8
161
 62
7
  6
CONTINUOUS
 70
1
 66
1
  0
VERTEX
 10
7.000000
 20
119.400000
 30
0.000000
  8
161
 62
7
  6
CONTINUOUS
  0
VERTEX
 10
7.000000
 20
120.400000
 30
0.000000
  8
161
 62
7
  6
CONTINUOUS
  0
VERTEX
 10
6.000000
 20
120.400000
 30
0.000000
  8
161
 62
7
  6
CONTINUOUS
  0
VERTEX
 10
6.000000
 20
119.400000
 30
0.000000
  8
161
 62
7
  6
CONTINUOUS
  0
SEQEND
  0
SOLID
  8
161
 62
255
  6
CONTINUOUS
 10
13.000000
 20
119.400000
 11
13.000000
 21
120.400000
 12
12.000000
 22
119.400000
 13
12.000000
 23
120.400000
  0
POLYLINE
  8
161
 62
7
  6
CONTINUOUS
 70
1
 66
1
  0
VERTEX
 10
13.000000
 20
119.400000
 30
0.000000
  8
161
 62
7
  6
CONTINUOUS
  0
VERTEX
 10
13.000000
 20
120.400000
 30
0.000000
  8
161
 62
7
  6
CONTINUOUS
  0
VERTEX
 10
12.000000
 20
120.400000
 30
0.000000
  8
161
 62
7
  6
CONTINUOUS
  0
VERTEX
 10
12.000000
 20
119.400000
 30
0.000000
  8
161
 62
7
  6
CONTINUOUS
  0
SEQEND
  0
SOLID
  8
161
 62
5
  6
CONTINUOUS
 10
20.300000
 20
118.500000
 11
20.300000
 21
121.500000
 12
23.300000
 22
118.500000
 13
23.300000
 23
121.500000
  0
POLYLINE
  8
161
 62
7
  6
CONTINUOUS
 70
1
 66
1
  0
VERTEX
 10
20.300000
 20
118.500000
 30
0.000000
  8
161
 62
7
  6
CONTINUOUS
  0
VERTEX
 10
20.300000
 20
121.500000
 30
0.000000
  8
161
 62
7
  6
CONTINUOUS
  0
VERTEX
 10
23.300000
 20
121.500000
 30
0.000000
  8
161
 62
7
  6
CONTINUOUS
  0
VERTEX
 10
23.300000
 20
118.500000
 30
0.000000
  8
161
 62
7
  6
CONTINUOUS
  0
SEQEND
  0
TEXT
  8
161
 62
255
  6
L000000020000FFFFFF
 10
21.366667
 20
120.000000
 40
1.300000
  1
5+1
 50
-90.000000
 51
0.000000
 72
1
 73
0
 11
21.366667
 21
120.000000
  0
SOLID
  8
161
 62
255
  6
CONTINUOUS
 10
19.000000
 20
119.400000
 11
19.000000
 21
120.400000
 12
18.000000
 22
119.400000
 13
18.000000
 23
120.400000
  0
POLYLINE
  8
161
 62
7
  6
CONTINUOUS
 70
1
 66
1
  0
VERTEX
 10
19.000000
 20
119.400000
 30
0.000000
  8
161
 62
7
  6
CONTINUOUS
  0
VERTEX
 10
19.000000
 20
120.400000
 30
0.000000
  8
161
 62
7
  6
CONTINUOUS
  0
VERTEX
 10
18.000000
 20
120.400000
 30
0.000000
  8
161
 62
7
  6
CONTINUOUS
  0
VERTEX
 10
18.000000
 20
119.400000
 30
0.000000
  8
161
 62
7
  6
CONTINUOUS
  0
SEQEND
  0
SOLID
  8
161
 62
255
  6
CONTINUOUS
 10
7.000000
 20
69.400000
 11
7.000000
 21
70.400000
 12
6.000000
 22
69.400000
 13
6.000000
 23
70.400000
  0
POLYLINE
  8
161
 62
7
  6
CONTINUOUS
 70
1
 66
1
  0
VERTEX
 10
7.000000
 20
69.400000
 30
0.000000
  8
161
 62
7
  6
CONTINUOUS
  0
VERTEX
 10
7.000000
 20
70.400000
 30
0.000000
  8
161
 62
7
  6
CONTINUOUS
  0
VERTEX
 10
6.000000
 20
70.400000
 30
0.000000
  8
161
 62
7
  6
CONTINUOUS
  0
VERTEX
 10
6.000000
 20
69.400000
 30
0.000000
  8
161
 62
7
  6
CONTINUOUS
  0
SEQEND
  0
SOLID
  8
161
 62
255
  6
CONTINUOUS
 10
13.000000
 20
69.400000
 11
13.000000
 21
70.400000
 12
12.000000
 22
69.400000
 13
12.000000
 23
70.400000
  0
POLYLINE
  8
161
 62
7
  6
CONTINUOUS
 70
1
 66
1
  0
VERTEX
 10
13.000000
 20
69.400000
 30
0.000000
  8
161
 62
7
  6
CONTINUOUS
  0
VERTEX
 10
13.000000
 20
70.400000
 30
0.000000
  8
161
 62
7
  6
CONTINUOUS
  0
VERTEX
 10
12.000000
 20
70.400000
 30
0.000000
  8
161
 62
7
  6
CONTINUOUS
  0
VERTEX
 10
12.000000
 20
69.400000
 30
0.000000
  8
161
 62
7
  6
CONTINUOUS
  0
SEQEND
  0
SOLID
  8
161
 62
255
  6
CONTINUOUS
 10
19.000000
 20
69.400000
 11
19.000000
 21
70.400000
 12
18.000000
 22
69.400000
 13
18.000000
 23
70.400000
  0
POLYLINE
  8
161
 62
7
  6
CONTINUOUS
 70
1
 66
1
  0
VERTEX
 10
19.000000
 20
69.400000
 30
0.000000
  8
161
 62
7
  6
CONTINUOUS
  0
VERTEX
 10
19.000000
 20
70.400000
 30
0.000000
  8
161
 62
7
  6
CONTINUOUS
  0
VERTEX
 10
18.000000
 20
70.400000
 30
0.000000
  8
161
 62
7
  6
CONTINUOUS
  0
VERTEX
 10
18.000000
 20
69.400000
 30
0.000000
  8
161
 62
7
  6
CONTINUOUS
  0
SEQEND
  0
SOLID
  8
161
 62
255
  6
CONTINUOUS
 10
7.000000
 20
81.900000
 11
7.000000
 21
82.900000
 12
6.000000
 22
81.900000
 13
6.000000
 23
82.900000
  0
POLYLINE
  8
161
 62
7
  6
CONTINUOUS
 70
1
 66
1
  0
VERTEX
 10
7.000000
 20
81.900000
 30
0.000000
  8
161
 62
7
  6
CONTINUOUS
  0
VERTEX
 10
7.000000
 20
82.900000
 30
0.000000
  8
161
 62
7
  6
CONTINUOUS
  0
VERTEX
 10
6.000000
 20
82.900000
 30
0.000000
  8
161
 62
7
  6
CONTINUOUS
  0
VERTEX
 10
6.000000
 20
81.900000
 30
0.000000
  8
161
 62
7
  6
CONTINUOUS
  0
SEQEND
  0
SOLID
  8
161
 62
255
  6
CONTINUOUS
 10
13.000000
 20
81.900000
 11
13.000000
 21
82.900000
 12
12.000000
 22
81.900000
 13
12.000000
 23
82.900000
  0
POLYLINE
  8
161
 62
7
  6
CONTINUOUS
 70
1
 66
1
  0
VERTEX
 10
13.000000
 20
81.900000
 30
0.000000
  8
161
 62
7
  6
CONTINUOUS
  0
VERTEX
 10
13.000000
 20
82.900000
 30
0.000000
  8
161
 62
7
  6
CONTINUOUS
  0
VERTEX
 10
12.000000
 20
82.900000
 30
0.000000
  8
161
 62
7
  6
CONTINUOUS
  0
VERTEX
 10
12.000000
 20
81.900000
 30
0.000000
  8
161
 62
7
  6
CONTINUOUS
  0
SEQEND
  0
SOLID
  8
161
 62
255
  6
CONTINUOUS
 10
19.000000
 20
81.900000
 11
19.000000
 21
82.900000
 12
18.000000
 22
81.900000
 13
18.000000
 23
82.900000
  0
POLYLINE
  8
161
 62
7
  6
CONTINUOUS
 70
1
 66
1
  0
VERTEX
 10
19.000000
 20
81.900000
 30
0.000000
  8
161
 62
7
  6
CONTINUOUS
  0
VERTEX
 10
19.000000
 20
82.900000
 30
0.000000
  8
161
 62
7
  6
CONTINUOUS
  0
VERTEX
 10
18.000000
 20
82.900000
 30
0.000000
  8
161
 62
7
  6
CONTINUOUS
  0
VERTEX
 10
18.000000
 20
81.900000
 30
0.000000
  8
161
 62
7
  6
CONTINUOUS
  0
SEQEND
  0
SOLID
  8
161
 62
255
  6
CONTINUOUS
 10
7.000000
 20
94.400000
 11
7.000000
 21
95.400000
 12
6.000000
 22
94.400000
 13
6.000000
 23
95.400000
  0
POLYLINE
  8
161
 62
7
  6
CONTINUOUS
 70
1
 66
1
  0
VERTEX
 10
7.000000
 20
94.400000
 30
0.000000
  8
161
 62
7
  6
CONTINUOUS
  0
VERTEX
 10
7.000000
 20
95.400000
 30
0.000000
  8
161
 62
7
  6
CONTINUOUS
  0
VERTEX
 10
6.000000
 20
95.400000
 30
0.000000
  8
161
 62
7
  6
CONTINUOUS
  0
VERTEX
 10
6.000000
 20
94.400000
 30
0.000000
  8
161
 62
7
  6
CONTINUOUS
  0
SEQEND
  0
SOLID
  8
161
 62
255
  6
CONTINUOUS
 10
13.000000
 20
94.400000
 11
13.000000
 21
95.400000
 12
12.000000
 22
94.400000
 13
12.000000
 23
95.400000
  0
POLYLINE
  8
161
 62
7
  6
CONTINUOUS
 70
1
 66
1
  0
VERTEX
 10
13.000000
 20
94.400000
 30
0.000000
  8
161
 62
7
  6
CONTINUOUS
  0
VERTEX
 10
13.000000
 20
95.400000
 30
0.000000
  8
161
 62
7
  6
CONTINUOUS
  0
VERTEX
 10
12.000000
 20
95.400000
 30
0.000000
  8
161
 62
7
  6
CONTINUOUS
  0
VERTEX
 10
12.000000
 20
94.400000
 30
0.000000
  8
161
 62
7
  6
CONTINUOUS
  0
SEQEND
  0
SOLID
  8
161
 62
255
  6
CONTINUOUS
 10
19.000000
 20
94.400000
 11
19.000000
 21
95.400000
 12
18.000000
 22
94.400000
 13
18.000000
 23
95.400000
  0
POLYLINE
  8
161
 62
7
  6
CONTINUOUS
 70
1
 66
1
  0
VERTEX
 10
19.000000
 20
94.400000
 30
0.000000
  8
161
 62
7
  6
CONTINUOUS
  0
VERTEX
 10
19.000000
 20
95.400000
 30
0.000000
  8
161
 62
7
  6
CONTINUOUS
  0
VERTEX
 10
18.000000
 20
95.400000
 30
0.000000
  8
161
 62
7
  6
CONTINUOUS
  0
VERTEX
 10
18.000000
 20
94.400000
 30
0.000000
  8
161
 62
7
  6
CONTINUOUS
  0
SEQEND
  0
SOLID
  8
161
 62
255
  6
CONTINUOUS
 10
7.000000
 20
106.900000
 11
7.000000
 21
107.900000
 12
6.000000
 22
106.900000
 13
6.000000
 23
107.900000
  0
POLYLINE
  8
161
 62
7
  6
CONTINUOUS
 70
1
 66
1
  0
VERTEX
 10
7.000000
 20
106.900000
 30
0.000000
  8
161
 62
7
  6
CONTINUOUS
  0
VERTEX
 10
7.000000
 20
107.900000
 30
0.000000
  8
161
 62
7
  6
CONTINUOUS
  0
VERTEX
 10
6.000000
 20
107.900000
 30
0.000000
  8
161
 62
7
  6
CONTINUOUS
  0
VERTEX
 10
6.000000
 20
106.900000
 30
0.000000
  8
161
 62
7
  6
CONTINUOUS
  0
SEQEND
  0
SOLID
  8
161
 62
255
  6
CONTINUOUS
 10
13.000000
 20
106.900000
 11
13.000000
 21
107.900000
 12
12.000000
 22
106.900000
 13
12.000000
 23
107.900000
  0
POLYLINE
  8
161
 62
7
  6
CONTINUOUS
 70
1
 66
1
  0
VERTEX
 10
13.000000
 20
106.900000
 30
0.000000
  8
161
 62
7
  6
CONTINUOUS
  0
VERTEX
 10
13.000000
 20
107.900000
 30
0.000000
  8
161
 62
7
  6
CONTINUOUS
  0
VERTEX
 10
12.000000
 20
107.900000
 30
0.000000
  8
161
 62
7
  6
CONTINUOUS
  0
VERTEX
 10
12.000000
 20
106.900000
 30
0.000000
  8
161
 62
7
  6
CONTINUOUS
  0
SEQEND
  0
SOLID
  8
161
 62
255
  6
CONTINUOUS
 10
19.000000
 20
106.900000
 11
19.000000
 21
107.900000
 12
18.000000
 22
106.900000
 13
18.000000
 23
107.900000
  0
POLYLINE
  8
161
 62
7
  6
CONTINUOUS
 70
1
 66
1
  0
VERTEX
 10
19.000000
 20
106.900000
 30
0.000000
  8
161
 62
7
  6
CONTINUOUS
  0
VERTEX
 10
19.000000
 20
107.900000
 30
0.000000
  8
161
 62
7
  6
CONTINUOUS
  0
VERTEX
 10
18.000000
 20
107.900000
 30
0.000000
  8
161
 62
7
  6
CONTINUOUS
  0
VERTEX
 10
18.000000
 20
106.900000
 30
0.000000
  8
161
 62
7
  6
CONTINUOUS
  0
SEQEND
  0
ENDBLK
  0
BLOCK
  8
1
  2
135109
 70
 0
 10
0.0
 20
0.0
 30
0.0
  0
SOLID
  8
31
 62
255
  6
L000000020000FFFFFF
 10
26.700000
 20
5.700000
 11
26.700000
 21
28.200000
 12
23.300000
 22
5.700000
 13
23.300000
 23
28.200000
  0
POLYLINE
  8
31
 62
255
  6
L000000020000FFFFFF
 70
1
 66
1
  0
VERTEX
 10
26.700000
 20
5.700000
 30
0.000000
  8
31
 62
255
  6
L000000020000FFFFFF
  0
VERTEX
 10
26.700000
 20
28.200000
 30
0.000000
  8
31
 62
255
  6
L000000020000FFFFFF
  0
VERTEX
 10
23.300000
 20
28.200000
 30
0.000000
  8
31
 62
255
  6
L000000020000FFFFFF
  0
VERTEX
 10
23.300000
 20
5.700000
 30
0.000000
  8
31
 62
255
  6
L000000020000FFFFFF
  0
SEQEND
  0
LINE
  8
31
 62
7
  6
L014100020032000000
 10
23.300000
 20
28.200000
 11
26.700000
 21
28.200000
  0
LINE
  8
31
 62
7
  6
L014100020032000000
 10
26.700000
 20
28.200000
 11
26.700000
 21
5.700000
  0
LINE
  8
31
 62
7
  6
L014100020032000000
 10
23.300000
 20
28.200000
 11
23.300000
 21
5.700000
  0
LINE
  8
31
 62
7
  6
L014100020032000000
 10
23.300000
 20
5.700000
 11
26.700000
 21
5.700000
  0
SOLID
  8
31
 62
255
  6
L000000020000FFFFFF
 10
1.700000
 20
5.700000
 11
1.700000
 21
28.200000
 12
0.600000
 22
5.700000
 13
0.600000
 23
28.200000
  0
POLYLINE
  8
31
 62
255
  6
L000000020000FFFFFF
 70
1
 66
1
  0
VERTEX
 10
1.700000
 20
5.700000
 30
0.000000
  8
31
 62
255
  6
L000000020000FFFFFF
  0
VERTEX
 10
1.700000
 20
28.200000
 30
0.000000
  8
31
 62
255
  6
L000000020000FFFFFF
  0
VERTEX
 10
0.600000
 20
28.200000
 30
0.000000
  8
31
 62
255
  6
L000000020000FFFFFF
  0
VERTEX
 10
0.600000
 20
5.700000
 30
0.000000
  8
31
 62
255
  6
L000000020000FFFFFF
  0
SEQEND
  0
LINE
  8
31
 62
7
  6
CONTINUOUS
 10
0.700000
 20
28.200000
 11
1.700000
 21
28.200000
  0
SOLID
  8
31
 62
255
  6
L000000020000FFFFFF
 10
1.700000
 20
5.700000
 11
1.700000
 21
28.200000
 12
0.700000
 22
5.700000
 13
0.700000
 23
28.200000
  0
POLYLINE
  8
31
 62
255
  6
L000000020000FFFFFF
 70
1
 66
1
  0
VERTEX
 10
1.700000
 20
5.700000
 30
0.000000
  8
31
 62
255
  6
L000000020000FFFFFF
  0
VERTEX
 10
1.700000
 20
28.200000
 30
0.000000
  8
31
 62
255
  6
L000000020000FFFFFF
  0
VERTEX
 10
0.700000
 20
28.200000
 30
0.000000
  8
31
 62
255
  6
L000000020000FFFFFF
  0
VERTEX
 10
0.700000
 20
5.700000
 30
0.000000
  8
31
 62
255
  6
L000000020000FFFFFF
  0
SEQEND
  0
LINE
  8
31
 62
7
  6
CONTINUOUS
 10
0.700000
 20
5.700000
 11
1.700000
 21
5.700000
  0
LINE
  8
31
 62
7
  6
L014100020032000000
 10
0.700000
 20
28.200000
 11
0.700000
 21
5.700000
  0
SOLID
  8
31
 62
255
  6
L000000020000FFFFFF
 10
49.300000
 20
5.700000
 11
49.300000
 21
28.200000
 12
48.300000
 22
5.700000
 13
48.300000
 23
28.200000
  0
POLYLINE
  8
31
 62
255
  6
L000000020000FFFFFF
 70
1
 66
1
  0
VERTEX
 10
49.300000
 20
5.700000
 30
0.000000
  8
31
 62
255
  6
L000000020000FFFFFF
  0
VERTEX
 10
49.300000
 20
28.200000
 30
0.000000
  8
31
 62
255
  6
L000000020000FFFFFF
  0
VERTEX
 10
48.300000
 20
28.200000
 30
0.000000
  8
31
 62
255
  6
L000000020000FFFFFF
  0
VERTEX
 10
48.300000
 20
5.700000
 30
0.000000
  8
31
 62
255
  6
L000000020000FFFFFF
  0
SEQEND
  0
LINE
  8
31
 62
7
  6
CONTINUOUS
 10
48.300000
 20
28.200000
 11
49.300000
 21
28.200000
  0
LINE
  8
31
 62
7
  6
L014100020032000000
 10
49.300000
 20
28.200000
 11
49.300000
 21
5.700000
  0
LINE
  8
31
 62
7
  6
L014100020032000000
 10
48.300000
 20
28.200000
 11
48.300000
 21
5.700000
  0
LINE
  8
31
 62
7
  6
CONTINUOUS
 10
48.300000
 20
5.700000
 11
49.300000
 21
5.700000
  0
SOLID
  8
1
 62
255
  6
CONTINUOUS
 10
49.800000
 20
0.200000
 11
49.800000
 21
134.800000
 12
0.200000
 22
0.200000
 13
0.200000
 23
134.800000
  0
POLYLINE
  8
1
 62
7
  6
CONTINUOUS
 70
1
 66
1
  0
VERTEX
 10
49.800000
 20
0.200000
 30
0.000000
  8
1
 62
7
  6
CONTINUOUS
  0
VERTEX
 10
49.800000
 20
134.800000
 30
0.000000
  8
1
 62
7
  6
CONTINUOUS
  0
VERTEX
 10
0.200000
 20
134.800000
 30
0.000000
  8
1
 62
7
  6
CONTINUOUS
  0
VERTEX
 10
0.200000
 20
0.200000
 30
0.000000
  8
1
 62
7
  6
CONTINUOUS
  0
SEQEND
  0
POLYLINE
  8
1
 62
7
  6
CONTINUOUS
 70
0
 66
1
  0
VERTEX
 10
0.200000
 20
105.000000
  8
1
 62
7
  6
CONTINUOUS
  0
VERTEX
 10
25.000000
 20
105.000000
  8
1
 62
7
  6
CONTINUOUS
  0
SEQEND
  0
POLYLINE
  8
1
 62
7
  6
CONTINUOUS
 70
1
 66
1
  0
VERTEX
 10
19.000000
 20
38.000000
 30
0.000000
  8
1
 62
7
  6
CONTINUOUS
  0
VERTEX
 10
19.000000
 20
34.000000
 30
0.000000
  8
1
 62
7
  6
CONTINUOUS
  0
VERTEX
 10
6.000000
 20
34.000000
 30
0.000000
  8
1
 62
7
  6
CONTINUOUS
  0
VERTEX
 10
6.000000
 20
38.000000
 30
0.000000
  8
1
 62
7
  6
CONTINUOUS
  0
SEQEND
  0
POLYLINE
  8
1
 62
7
  6
CONTINUOUS
 70
1
 66
1
  0
VERTEX
 10
16.500000
 20
35.400000
 30
0.000000
  8
1
 62
7
  6
CONTINUOUS
  0
VERTEX
 10
16.500000
 20
38.000000
 30
0.000000
  8
1
 62
7
  6
CONTINUOUS
  0
VERTEX
 10
8.500000
 20
38.000000
 30
0.000000
  8
1
 62
7
  6
CONTINUOUS
  0
VERTEX
 10
8.500000
 20
35.400000
 30
0.000000
  8
1
 62
7
  6
CONTINUOUS
  0
SEQEND
  0
POLYLINE
  8
1
 62
7
  6
CONTINUOUS
 70
1
 66
1
  0
VERTEX
 10
19.000000
 20
73.000000
 30
0.000000
  8
1
 62
7
  6
CONTINUOUS
  0
VERTEX
 10
19.000000
 20
69.000000
 30
0.000000
  8
1
 62
7
  6
CONTINUOUS
  0
VERTEX
 10
6.000000
 20
69.000000
 30
0.000000
  8
1
 62
7
  6
CONTINUOUS
  0
VERTEX
 10
6.000000
 20
73.000000
 30
0.000000
  8
1
 62
7
  6
CONTINUOUS
  0
SEQEND
  0
POLYLINE
  8
1
 62
7
  6
CONTINUOUS
 70
1
 66
1
  0
VERTEX
 10
16.500000
 20
70.400000
 30
0.000000
  8
1
 62
7
  6
CONTINUOUS
  0
VERTEX
 10
16.500000
 20
73.000000
 30
0.000000
  8
1
 62
7
  6
CONTINUOUS
  0
VERTEX
 10
8.500000
 20
73.000000
 30
0.000000
  8
1
 62
7
  6
CONTINUOUS
  0
VERTEX
 10
8.500000
 20
70.400000
 30
0.000000
  8
1
 62
7
  6
CONTINUOUS
  0
SEQEND
  0
POLYLINE
  8
1
 62
7
  6
CONTINUOUS
 70
0
 66
1
  0
VERTEX
 10
0.200000
 20
30.000000
  8
1
 62
7
  6
CONTINUOUS
  0
VERTEX
 10
25.000000
 20
30.000000
  8
1
 62
7
  6
CONTINUOUS
  0
SEQEND
  0
POLYLINE
  8
1
 62
7
  6
CONTINUOUS
 70
1
 66
1
  0
VERTEX
 10
23.300000
 20
127.200000
 30
0.000000
  8
1
 62
7
  6
CONTINUOUS
  0
VERTEX
 10
23.300000
 20
122.600000
 30
0.000000
  8
1
 62
7
  6
CONTINUOUS
  0
VERTEX
 10
1.700000
 20
122.600000
 30
0.000000
  8
1
 62
7
  6
CONTINUOUS
  0
VERTEX
 10
1.700000
 20
127.200000
 30
0.000000
  8
1
 62
7
  6
CONTINUOUS
  0
SEQEND
  0
POLYLINE
  8
1
 62
7
  6
CONTINUOUS
 70
0
 66
1
  0
VERTEX
 10
3.500000
 20
122.600000
  8
1
 62
7
  6
CONTINUOUS
  0
VERTEX
 10
3.500000
 20
123.700000
  8
1
 62
7
  6
CONTINUOUS
  0
SEQEND
  0
POLYLINE
  8
1
 62
7
  6
CONTINUOUS
 70
0
 66
1
  0
VERTEX
 10
5.300000
 20
122.600000
  8
1
 62
7
  6
CONTINUOUS
  0
VERTEX
 10
5.300000
 20
123.700000
  8
1
 62
7
  6
CONTINUOUS
  0
VERTEX
 10
5.300000
 20
123.700000
  8
1
 62
7
  6
CONTINUOUS
  0
SEQEND
  0
POLYLINE
  8
1
 62
7
  6
CONTINUOUS
 70
0
 66
1
  0
VERTEX
 10
7.100000
 20
122.600000
  8
1
 62
7
  6
CONTINUOUS
  0
VERTEX
 10
7.100000
 20
123.700000
  8
1
 62
7
  6
CONTINUOUS
  0
SEQEND
  0
POLYLINE
  8
1
 62
7
  6
CONTINUOUS
 70
0
 66
1
  0
VERTEX
 10
8.900000
 20
122.600000
  8
1
 62
7
  6
CONTINUOUS
  0
VERTEX
 10
8.900000
 20
123.700000
  8
1
 62
7
  6
CONTINUOUS
  0
SEQEND
  0
POLYLINE
  8
1
 62
7
  6
CONTINUOUS
 70
0
 66
1
  0
VERTEX
 10
10.700000
 20
122.600000
  8
1
 62
7
  6
CONTINUOUS
  0
VERTEX
 10
10.700000
 20
123.700000
  8
1
 62
7
  6
CONTINUOUS
  0
SEQEND
  0
POLYLINE
  8
1
 62
7
  6
CONTINUOUS
 70
0
 66
1
  0
VERTEX
 10
12.500000
 20
122.600000
  8
1
 62
7
  6
CONTINUOUS
  0
VERTEX
 10
12.500000
 20
123.700000
  8
1
 62
7
  6
CONTINUOUS
  0
SEQEND
  0
POLYLINE
  8
1
 62
7
  6
CONTINUOUS
 70
0
 66
1
  0
VERTEX
 10
14.300000
 20
122.600000
  8
1
 62
7
  6
CONTINUOUS
  0
VERTEX
 10
14.300000
 20
123.700000
  8
1
 62
7
  6
CONTINUOUS
  0
SEQEND
  0
POLYLINE
  8
1
 62
7
  6
CONTINUOUS
 70
0
 66
1
  0
VERTEX
 10
16.100000
 20
122.600000
  8
1
 62
7
  6
CONTINUOUS
  0
VERTEX
 10
16.100000
 20
123.700000
  8
1
 62
7
  6
CONTINUOUS
  0
SEQEND
  0
POLYLINE
  8
1
 62
7
  6
CONTINUOUS
 70
0
 66
1
  0
VERTEX
 10
17.900000
 20
122.600000
  8
1
 62
7
  6
CONTINUOUS
  0
VERTEX
 10
17.900000
 20
123.700000
  8
1
 62
7
  6
CONTINUOUS
  0
SEQEND
  0
POLYLINE
  8
1
 62
7
  6
CONTINUOUS
 70
0
 66
1
  0
VERTEX
 10
19.700000
 20
122.600000
  8
1
 62
7
  6
CONTINUOUS
  0
VERTEX
 10
19.700000
 20
123.700000
  8
1
 62
7
  6
CONTINUOUS
  0
SEQEND
  0
POLYLINE
  8
1
 62
7
  6
CONTINUOUS
 70
0
 66
1
  0
VERTEX
 10
21.500000
 20
122.600000
  8
1
 62
7
  6
CONTINUOUS
  0
VERTEX
 10
21.500000
 20
123.700000
  8
1
 62
7
  6
CONTINUOUS
  0
SEQEND
  0
POLYLINE
  8
1
 62
7
  6
L014100020032000000
 70
1
 66
1
  0
VERTEX
 10
23.300000
 20
114.700000
 30
0.000000
  8
1
 62
7
  6
L014100020032000000
  0
VERTEX
 10
23.300000
 20
110.100000
 30
0.000000
  8
1
 62
7
  6
L014100020032000000
  0
VERTEX
 10
1.700000
 20
110.100000
 30
0.000000
  8
1
 62
7
  6
L014100020032000000
  0
VERTEX
 10
1.700000
 20
114.700000
 30
0.000000
  8
1
 62
7
  6
L014100020032000000
  0
SEQEND
  0
POLYLINE
  8
1
 62
7
  6
CONTINUOUS
 70
0
 66
1
  0
VERTEX
 10
11.500000
 20
80.000000
  8
1
 62
7
  6
CONTINUOUS
  0
VERTEX
 10
11.500000
 20
103.000000
  8
1
 62
7
  6
CONTINUOUS
  0
VERTEX
 10
13.500000
 20
103.000000
  8
1
 62
7
  6
CONTINUOUS
  0
VERTEX
 10
13.500000
 20
80.000000
  8
1
 62
7
  6
CONTINUOUS
  0
SEQEND
  0
POLYLINE
  8
1
 62
7
  6
CONTINUOUS
 70
0
 66
1
  0
VERTEX
 10
11.500000
 20
76.800000
  8
1
 62
7
  6
CONTINUOUS
  0
VERTEX
 10
11.500000
 20
73.000000
  8
1
 62
7
  6
CONTINUOUS
  0
SEQEND
  0
POLYLINE
  8
1
 62
7
  6
CONTINUOUS
 70
0
 66
1
  0
VERTEX
 10
13.500000
 20
76.800000
  8
1
 62
7
  6
CONTINUOUS
  0
VERTEX
 10
13.500000
 20
73.000000
  8
1
 62
7
  6
CONTINUOUS
  0
SEQEND
  0
POLYLINE
  8
1
 62
7
  6
CONTINUOUS
 70
1
 66
1
  0
VERTEX
 10
23.400000
 20
80.000000
 30
0.000000
  8
1
 62
7
  6
CONTINUOUS
  0
VERTEX
 10
23.400000
 20
76.800000
 30
0.000000
  8
1
 62
7
  6
CONTINUOUS
  0
VERTEX
 10
1.600000
 20
76.800000
 30
0.000000
  8
1
 62
7
  6
CONTINUOUS
  0
VERTEX
 10
1.600000
 20
80.000000
 30
0.000000
  8
1
 62
7
  6
CONTINUOUS
  0
SEQEND
  0
CIRCLE
  8
1
 62
7
  6
CONTINUOUS
 10
12.500000
 20
79.100000
 30
0.0
 40
0.500000
  0
CIRCLE
  8
1
 62
7
  6
CONTINUOUS
 10
10.500000
 20
79.100000
 30
0.0
 40
0.500000
  0
CIRCLE
  8
1
 62
7
  6
CONTINUOUS
 10
2.400000
 20
79.100000
 30
0.0
 40
0.300000
  0
SOLID
  8
1
 62
7
  6
CONTINUOUS
 10
10.500000
 20
78.800000
 11
10.500000
 21
79.400000
 12
2.400000
 22
78.800000
 13
2.400000
 23
79.400000
  0
POLYLINE
  8
1
 62
7
  6
CONTINUOUS
 70
1
 66
1
  0
VERTEX
 10
10.500000
 20
78.800000
 30
0.000000
  8
1
 62
7
  6
CONTINUOUS
  0
VERTEX
 10
10.500000
 20
79.400000
 30
0.000000
  8
1
 62
7
  6
CONTINUOUS
  0
VERTEX
 10
2.400000
 20
79.400000
 30
0.000000
  8
1
 62
7
  6
CONTINUOUS
  0
VERTEX
 10
2.400000
 20
78.800000
 30
0.000000
  8
1
 62
7
  6
CONTINUOUS
  0
SEQEND
  0
CIRCLE
  8
1
 62
7
  6
CONTINUOUS
 10
10.500000
 20
77.600000
 30
0.0
 40
0.500000
  0
CIRCLE
  8
1
 62
7
  6
CONTINUOUS
 10
2.400000
 20
77.600000
 30
0.0
 40
0.300000
  0
SOLID
  8
1
 62
7
  6
CONTINUOUS
 10
10.500000
 20
77.300000
 11
10.500000
 21
77.900000
 12
2.400000
 22
77.300000
 13
2.400000
 23
77.900000
  0
POLYLINE
  8
1
 62
7
  6
CONTINUOUS
 70
1
 66
1
  0
VERTEX
 10
10.500000
 20
77.300000
 30
0.000000
  8
1
 62
7
  6
CONTINUOUS
  0
VERTEX
 10
10.500000
 20
77.900000
 30
0.000000
  8
1
 62
7
  6
CONTINUOUS
  0
VERTEX
 10
2.400000
 20
77.900000
 30
0.000000
  8
1
 62
7
  6
CONTINUOUS
  0
VERTEX
 10
2.400000
 20
77.300000
 30
0.000000
  8
1
 62
7
  6
CONTINUOUS
  0
SEQEND
  0
CIRCLE
  8
1
 62
7
  6
CONTINUOUS
 10
14.500000
 20
79.100000
 30
0.0
 40
0.500000
  0
CIRCLE
  8
1
 62
7
  6
CONTINUOUS
 10
22.600000
 20
79.100000
 30
0.0
 40
0.300000
  0
SOLID
  8
1
 62
7
  6
CONTINUOUS
 10
14.500000
 20
78.800000
 11
14.500000
 21
79.400000
 12
22.600000
 22
78.800000
 13
22.600000
 23
79.400000
  0
POLYLINE
  8
1
 62
7
  6
CONTINUOUS
 70
1
 66
1
  0
VERTEX
 10
14.500000
 20
78.800000
 30
0.000000
  8
1
 62
7
  6
CONTINUOUS
  0
VERTEX
 10
14.500000
 20
79.400000
 30
0.000000
  8
1
 62
7
  6
CONTINUOUS
  0
VERTEX
 10
22.600000
 20
79.400000
 30
0.000000
  8
1
 62
7
  6
CONTINUOUS
  0
VERTEX
 10
22.600000
 20
78.800000
 30
0.000000
  8
1
 62
7
  6
CONTINUOUS
  0
SEQEND
  0
CIRCLE
  8
1
 62
7
  6
CONTINUOUS
 10
14.500000
 20
77.600000
 30
0.0
 40
0.500000
  0
CIRCLE
  8
1
 62
7
  6
CONTINUOUS
 10
22.600000
 20
77.600000
 30
0.0
 40
0.300000
  0
SOLID
  8
1
 62
7
  6
CONTINUOUS
 10
14.500000
 20
77.300000
 11
14.500000
 21
77.900000
 12
22.600000
 22
77.300000
 13
22.600000
 23
77.900000
  0
POLYLINE
  8
1
 62
7
  6
CONTINUOUS
 70
1
 66
1
  0
VERTEX
 10
14.500000
 20
77.300000
 30
0.000000
  8
1
 62
7
  6
CONTINUOUS
  0
VERTEX
 10
14.500000
 20
77.900000
 30
0.000000
  8
1
 62
7
  6
CONTINUOUS
  0
VERTEX
 10
22.600000
 20
77.900000
 30
0.000000
  8
1
 62
7
  6
CONTINUOUS
  0
VERTEX
 10
22.600000
 20
77.300000
 30
0.000000
  8
1
 62
7
  6
CONTINUOUS
  0
SEQEND
  0
CIRCLE
  8
1
 62
7
  6
CONTINUOUS
 10
12.500000
 20
79.100000
 30
0.0
 40
0.500000
  0
CIRCLE
  8
1
 62
7
  6
CONTINUOUS
 10
12.500000
 20
84.600000
 30
0.0
 40
0.400000
  0
SOLID
  8
1
 62
7
  6
CONTINUOUS
 10
12.200000
 20
80.000000
 11
12.200000
 21
83.300000
 12
12.800000
 22
80.000000
 13
12.800000
 23
83.300000
  0
POLYLINE
  8
1
 62
7
  6
CONTINUOUS
 70
1
 66
1
  0
VERTEX
 10
12.200000
 20
80.000000
 30
0.000000
  8
1
 62
7
  6
CONTINUOUS
  0
VERTEX
 10
12.200000
 20
83.300000
 30
0.000000
  8
1
 62
7
  6
CONTINUOUS
  0
VERTEX
 10
12.800000
 20
83.300000
 30
0.000000
  8
1
 62
7
  6
CONTINUOUS
  0
VERTEX
 10
12.800000
 20
80.000000
 30
0.000000
  8
1
 62
7
  6
CONTINUOUS
  0
SEQEND
  0
SOLID
  8
1
 62
7
  6
CONTINUOUS
 10
12.200000
 20
87.200000
 11
12.200000
 21
101.800000
 12
12.800000
 22
87.200000
 13
12.800000
 23
101.800000
  0
POLYLINE
  8
1
 62
7
  6
CONTINUOUS
 70
1
 66
1
  0
VERTEX
 10
12.200000
 20
87.200000
 30
0.000000
  8
1
 62
7
  6
CONTINUOUS
  0
VERTEX
 10
12.200000
 20
101.800000
 30
0.000000
  8
1
 62
7
  6
CONTINUOUS
  0
VERTEX
 10
12.800000
 20
101.800000
 30
0.000000
  8
1
 62
7
  6
CONTINUOUS
  0
VERTEX
 10
12.800000
 20
87.200000
 30
0.000000
  8
1
 62
7
  6
CONTINUOUS
  0
SEQEND
  0
CIRCLE
  8
1
 62
7
  6
CONTINUOUS
 10
12.500000
 20
87.100000
 30
0.0
 40
0.500000
  0
CIRCLE
  8
1
 62
7
  6
CONTINUOUS
 10
12.500000
 20
101.800000
 30
0.0
 40
0.300000
  0
CIRCLE
  8
1
 62
7
  6
CONTINUOUS
 10
12.500000
 20
83.300000
 30
0.0
 40
0.300000
  0
CIRCLE
  8
1
 62
7
  6
CONTINUOUS
 10
12.500000
 20
74.500000
 30
0.0
 40
0.300000
  0
SOLID
  8
1
 62
7
  6
CONTINUOUS
 10
12.200000
 20
74.500000
 11
12.200000
 21
76.800000
 12
12.800000
 22
74.500000
 13
12.800000
 23
76.800000
  0
POLYLINE
  8
1
 62
7
  6
CONTINUOUS
 70
1
 66
1
  0
VERTEX
 10
12.200000
 20
74.500000
 30
0.000000
  8
1
 62
7
  6
CONTINUOUS
  0
VERTEX
 10
12.200000
 20
76.800000
 30
0.000000
  8
1
 62
7
  6
CONTINUOUS
  0
VERTEX
 10
12.800000
 20
76.800000
 30
0.000000
  8
1
 62
7
  6
CONTINUOUS
  0
VERTEX
 10
12.800000
 20
74.500000
 30
0.000000
  8
1
 62
7
  6
CONTINUOUS
  0
SEQEND
  0
POLYLINE
  8
1
 62
7
  6
CONTINUOUS
 70
0
 66
1
  0
VERTEX
 10
11.500000
 20
45.000000
  8
1
 62
7
  6
CONTINUOUS
  0
VERTEX
 10
11.500000
 20
68.000000
  8
1
 62
7
  6
CONTINUOUS
  0
VERTEX
 10
13.500000
 20
68.000000
  8
1
 62
7
  6
CONTINUOUS
  0
VERTEX
 10
13.500000
 20
45.000000
  8
1
 62
7
  6
CONTINUOUS
  0
SEQEND
  0
POLYLINE
  8
1
 62
7
  6
CONTINUOUS
 70
0
 66
1
  0
VERTEX
 10
11.500000
 20
41.800000
  8
1
 62
7
  6
CONTINUOUS
  0
VERTEX
 10
11.500000
 20
38.000000
  8
1
 62
7
  6
CONTINUOUS
  0
SEQEND
  0
POLYLINE
  8
1
 62
7
  6
CONTINUOUS
 70
0
 66
1
  0
VERTEX
 10
13.500000
 20
41.800000
  8
1
 62
7
  6
CONTINUOUS
  0
VERTEX
 10
13.500000
 20
38.000000
  8
1
 62
7
  6
CONTINUOUS
  0
SEQEND
  0
POLYLINE
  8
1
 62
7
  6
CONTINUOUS
 70
1
 66
1
  0
VERTEX
 10
23.400000
 20
45.000000
 30
0.000000
  8
1
 62
7
  6
CONTINUOUS
  0
VERTEX
 10
23.400000
 20
41.800000
 30
0.000000
  8
1
 62
7
  6
CONTINUOUS
  0
VERTEX
 10
1.600000
 20
41.800000
 30
0.000000
  8
1
 62
7
  6
CONTINUOUS
  0
VERTEX
 10
1.600000
 20
45.000000
 30
0.000000
  8
1
 62
7
  6
CONTINUOUS
  0
SEQEND
  0
CIRCLE
  8
1
 62
7
  6
CONTINUOUS
 10
12.500000
 20
44.100000
 30
0.0
 40
0.500000
  0
CIRCLE
  8
1
 62
7
  6
CONTINUOUS
 10
10.500000
 20
44.100000
 30
0.0
 40
0.500000
  0
CIRCLE
  8
1
 62
7
  6
CONTINUOUS
 10
2.400000
 20
44.100000
 30
0.0
 40
0.300000
  0
SOLID
  8
1
 62
7
  6
CONTINUOUS
 10
10.500000
 20
43.800000
 11
10.500000
 21
44.400000
 12
2.400000
 22
43.800000
 13
2.400000
 23
44.400000
  0
POLYLINE
  8
1
 62
7
  6
CONTINUOUS
 70
1
 66
1
  0
VERTEX
 10
10.500000
 20
43.800000
 30
0.000000
  8
1
 62
7
  6
CONTINUOUS
  0
VERTEX
 10
10.500000
 20
44.400000
 30
0.000000
  8
1
 62
7
  6
CONTINUOUS
  0
VERTEX
 10
2.400000
 20
44.400000
 30
0.000000
  8
1
 62
7
  6
CONTINUOUS
  0
VERTEX
 10
2.400000
 20
43.800000
 30
0.000000
  8
1
 62
7
  6
CONTINUOUS
  0
SEQEND
  0
CIRCLE
  8
1
 62
7
  6
CONTINUOUS
 10
10.500000
 20
42.600000
 30
0.0
 40
0.500000
  0
CIRCLE
  8
1
 62
7
  6
CONTINUOUS
 10
2.400000
 20
42.600000
 30
0.0
 40
0.300000
  0
SOLID
  8
1
 62
7
  6
CONTINUOUS
 10
10.500000
 20
42.300000
 11
10.500000
 21
42.900000
 12
2.400000
 22
42.300000
 13
2.400000
 23
42.900000
  0
POLYLINE
  8
1
 62
7
  6
CONTINUOUS
 70
1
 66
1
  0
VERTEX
 10
10.500000
 20
42.300000
 30
0.000000
  8
1
 62
7
  6
CONTINUOUS
  0
VERTEX
 10
10.500000
 20
42.900000
 30
0.000000
  8
1
 62
7
  6
CONTINUOUS
  0
VERTEX
 10
2.400000
 20
42.900000
 30
0.000000
  8
1
 62
7
  6
CONTINUOUS
  0
VERTEX
 10
2.400000
 20
42.300000
 30
0.000000
  8
1
 62
7
  6
CONTINUOUS
  0
SEQEND
  0
CIRCLE
  8
1
 62
7
  6
CONTINUOUS
 10
14.500000
 20
44.100000
 30
0.0
 40
0.500000
  0
CIRCLE
  8
1
 62
7
  6
CONTINUOUS
 10
22.600000
 20
44.100000
 30
0.0
 40
0.300000
  0
SOLID
  8
1
 62
7
  6
CONTINUOUS
 10
14.500000
 20
43.800000
 11
14.500000
 21
44.400000
 12
22.600000
 22
43.800000
 13
22.600000
 23
44.400000
  0
POLYLINE
  8
1
 62
7
  6
CONTINUOUS
 70
1
 66
1
  0
VERTEX
 10
14.500000
 20
43.800000
 30
0.000000
  8
1
 62
7
  6
CONTINUOUS
  0
VERTEX
 10
14.500000
 20
44.400000
 30
0.000000
  8
1
 62
7
  6
CONTINUOUS
  0
VERTEX
 10
22.600000
 20
44.400000
 30
0.000000
  8
1
 62
7
  6
CONTINUOUS
  0
VERTEX
 10
22.600000
 20
43.800000
 30
0.000000
  8
1
 62
7
  6
CONTINUOUS
  0
SEQEND
  0
CIRCLE
  8
1
 62
7
  6
CONTINUOUS
 10
14.500000
 20
42.600000
 30
0.0
 40
0.500000
  0
CIRCLE
  8
1
 62
7
  6
CONTINUOUS
 10
22.600000
 20
42.600000
 30
0.0
 40
0.300000
  0
SOLID
  8
1
 62
7
  6
CONTINUOUS
 10
14.500000
 20
42.300000
 11
14.500000
 21
42.900000
 12
22.600000
 22
42.300000
 13
22.600000
 23
42.900000
  0
POLYLINE
  8
1
 62
7
  6
CONTINUOUS
 70
1
 66
1
  0
VERTEX
 10
14.500000
 20
42.300000
 30
0.000000
  8
1
 62
7
  6
CONTINUOUS
  0
VERTEX
 10
14.500000
 20
42.900000
 30
0.000000
  8
1
 62
7
  6
CONTINUOUS
  0
VERTEX
 10
22.600000
 20
42.900000
 30
0.000000
  8
1
 62
7
  6
CONTINUOUS
  0
VERTEX
 10
22.600000
 20
42.300000
 30
0.000000
  8
1
 62
7
  6
CONTINUOUS
  0
SEQEND
  0
CIRCLE
  8
1
 62
7
  6
CONTINUOUS
 10
12.500000
 20
44.100000
 30
0.0
 40
0.500000
  0
CIRCLE
  8
1
 62
7
  6
CONTINUOUS
 10
12.500000
 20
49.600000
 30
0.0
 40
0.400000
  0
SOLID
  8
1
 62
7
  6
CONTINUOUS
 10
12.200000
 20
45.000000
 11
12.200000
 21
48.300000
 12
12.800000
 22
45.000000
 13
12.800000
 23
48.300000
  0
POLYLINE
  8
1
 62
7
  6
CONTINUOUS
 70
1
 66
1
  0
VERTEX
 10
12.200000
 20
45.000000
 30
0.000000
  8
1
 62
7
  6
CONTINUOUS
  0
VERTEX
 10
12.200000
 20
48.300000
 30
0.000000
  8
1
 62
7
  6
CONTINUOUS
  0
VERTEX
 10
12.800000
 20
48.300000
 30
0.000000
  8
1
 62
7
  6
CONTINUOUS
  0
VERTEX
 10
12.800000
 20
45.000000
 30
0.000000
  8
1
 62
7
  6
CONTINUOUS
  0
SEQEND
  0
SOLID
  8
1
 62
7
  6
CONTINUOUS
 10
12.200000
 20
52.200000
 11
12.200000
 21
66.800000
 12
12.800000
 22
52.200000
 13
12.800000
 23
66.800000
  0
POLYLINE
  8
1
 62
7
  6
CONTINUOUS
 70
1
 66
1
  0
VERTEX
 10
12.200000
 20
52.200000
 30
0.000000
  8
1
 62
7
  6
CONTINUOUS
  0
VERTEX
 10
12.200000
 20
66.800000
 30
0.000000
  8
1
 62
7
  6
CONTINUOUS
  0
VERTEX
 10
12.800000
 20
66.800000
 30
0.000000
  8
1
 62
7
  6
CONTINUOUS
  0
VERTEX
 10
12.800000
 20
52.200000
 30
0.000000
  8
1
 62
7
  6
CONTINUOUS
  0
SEQEND
  0
CIRCLE
  8
1
 62
7
  6
CONTINUOUS
 10
12.500000
 20
52.100000
 30
0.0
 40
0.500000
  0
CIRCLE
  8
1
 62
7
  6
CONTINUOUS
 10
12.500000
 20
66.800000
 30
0.0
 40
0.300000
  0
CIRCLE
  8
1
 62
7
  6
CONTINUOUS
 10
12.500000
 20
48.300000
 30
0.0
 40
0.300000
  0
CIRCLE
  8
1
 62
7
  6
CONTINUOUS
 10
12.500000
 20
39.500000
 30
0.0
 40
0.300000
  0
SOLID
  8
1
 62
7
  6
CONTINUOUS
 10
12.200000
 20
39.500000
 11
12.200000
 21
41.800000
 12
12.800000
 22
39.500000
 13
12.800000
 23
41.800000
  0
POLYLINE
  8
1
 62
7
  6
CONTINUOUS
 70
1
 66
1
  0
VERTEX
 10
12.200000
 20
39.500000
 30
0.000000
  8
1
 62
7
  6
CONTINUOUS
  0
VERTEX
 10
12.200000
 20
41.800000
 30
0.000000
  8
1
 62
7
  6
CONTINUOUS
  0
VERTEX
 10
12.800000
 20
41.800000
 30
0.000000
  8
1
 62
7
  6
CONTINUOUS
  0
VERTEX
 10
12.800000
 20
39.500000
 30
0.000000
  8
1
 62
7
  6
CONTINUOUS
  0
SEQEND
  0
CIRCLE
  8
1
 62
7
  6
CONTINUOUS
 10
12.500000
 20
106.000000
 30
0.0
 40
0.700000
  0
POLYLINE
  8
1
 62
7
  6
CONTINUOUS
 70
0
 66
1
  0
VERTEX
 10
25.000000
 20
0.300000
  8
1
 62
7
  6
CONTINUOUS
  0
VERTEX
 10
25.000000
 20
134.800000
  8
1
 62
7
  6
CONTINUOUS
  0
SEQEND
  0
POLYLINE
  8
1
 62
7
  6
CONTINUOUS
 70
0
 66
1
  0
VERTEX
 10
25.000000
 20
75.000000
  8
1
 62
7
  6
CONTINUOUS
  0
VERTEX
 10
49.800000
 20
75.000000
  8
1
 62
7
  6
CONTINUOUS
  0
SEQEND
  0
LINE
  8
1
 62
7
  6
CONTINUOUS
 10
49.000000
 20
77.100000
 11
49.000000
 21
77.600000
  0
LINE
  8
1
 62
7
  6
CONTINUOUS
 10
49.000000
 20
80.500000
 11
49.000000
 21
80.000000
  0
LINE
  8
1
 62
7
  6
CONTINUOUS
 10
48.600000
 20
78.800000
 11
49.500000
 21
78.800000
  0
CIRCLE
  8
1
 62
7
  6
CONTINUOUS
 10
49.000000
 20
78.800000
 30
0.0
 40
0.700000
  0
LINE
  8
1
 62
7
  6
CONTINUOUS
 10
26.000000
 20
77.100000
 11
26.000000
 21
77.600000
  0
LINE
  8
1
 62
7
  6
CONTINUOUS
 10
26.000000
 20
80.500000
 11
26.000000
 21
80.000000
  0
LINE
  8
1
 62
7
  6
CONTINUOUS
 10
26.400000
 20
78.800000
 11
25.500000
 21
78.800000
  0
CIRCLE
  8
1
 62
7
  6
CONTINUOUS
 10
26.000000
 20
78.800000
 30
0.0
 40
0.700000
  0
LINE
  8
1
 62
7
  6
CONTINUOUS
 10
49.000000
 20
99.500000
 11
49.000000
 21
100.000000
  0
LINE
  8
1
 62
7
  6
CONTINUOUS
 10
48.600000
 20
101.200000
 11
49.500000
 21
101.200000
  0
LINE
  8
1
 62
7
  6
CONTINUOUS
 10
49.000000
 20
102.900000
 11
49.000000
 21
102.400000
  0
CIRCLE
  8
1
 62
7
  6
CONTINUOUS
 10
49.000000
 20
101.200000
 30
0.0
 40
0.700000
  0
LINE
  8
1
 62
7
  6
CONTINUOUS
 10
26.000000
 20
99.500000
 11
26.000000
 21
100.000000
  0
LINE
  8
1
 62
7
  6
CONTINUOUS
 10
26.000000
 20
102.900000
 11
26.000000
 21
102.400000
  0
LINE
  8
1
 62
7
  6
CONTINUOUS
 10
26.400000
 20
101.200000
 11
25.500000
 21
101.200000
  0
CIRCLE
  8
1
 62
7
  6
CONTINUOUS
 10
26.000000
 20
101.200000
 30
0.0
 40
0.700000
  0
POLYLINE
  8
1
 62
7
  6
CONTINUOUS
 70
0
 66
1
  0
VERTEX
 10
28.500000
 20
122.700000
  8
1
 62
7
  6
CONTINUOUS
  0
VERTEX
 10
28.500000
 20
123.800000
  8
1
 62
7
  6
CONTINUOUS
  0
SEQEND
  0
POLYLINE
  8
1
 62
7
  6
CONTINUOUS
 70
1
 66
1
  0
VERTEX
 10
48.300000
 20
127.300000
 30
0.000000
  8
1
 62
7
  6
CONTINUOUS
  0
VERTEX
 10
48.300000
 20
122.700000
 30
0.000000
  8
1
 62
7
  6
CONTINUOUS
  0
VERTEX
 10
26.700000
 20
122.700000
 30
0.000000
  8
1
 62
7
  6
CONTINUOUS
  0
VERTEX
 10
26.700000
 20
127.300000
 30
0.000000
  8
1
 62
7
  6
CONTINUOUS
  0
SEQEND
  0
POLYLINE
  8
1
 62
7
  6
CONTINUOUS
 70
0
 66
1
  0
VERTEX
 10
30.300000
 20
122.700000
  8
1
 62
7
  6
CONTINUOUS
  0
VERTEX
 10
30.300000
 20
123.800000
  8
1
 62
7
  6
CONTINUOUS
  0
VERTEX
 10
30.300000
 20
123.800000
  8
1
 62
7
  6
CONTINUOUS
  0
SEQEND
  0
POLYLINE
  8
1
 62
7
  6
CONTINUOUS
 70
0
 66
1
  0
VERTEX
 10
32.100000
 20
122.700000
  8
1
 62
7
  6
CONTINUOUS
  0
VERTEX
 10
32.100000
 20
123.800000
  8
1
 62
7
  6
CONTINUOUS
  0
SEQEND
  0
POLYLINE
  8
1
 62
7
  6
CONTINUOUS
 70
0
 66
1
  0
VERTEX
 10
33.900000
 20
122.700000
  8
1
 62
7
  6
CONTINUOUS
  0
VERTEX
 10
33.900000
 20
123.800000
  8
1
 62
7
  6
CONTINUOUS
  0
SEQEND
  0
POLYLINE
  8
1
 62
7
  6
CONTINUOUS
 70
0
 66
1
  0
VERTEX
 10
35.700000
 20
122.700000
  8
1
 62
7
  6
CONTINUOUS
  0
VERTEX
 10
35.700000
 20
123.800000
  8
1
 62
7
  6
CONTINUOUS
  0
SEQEND
  0
POLYLINE
  8
1
 62
7
  6
CONTINUOUS
 70
0
 66
1
  0
VERTEX
 10
37.500000
 20
122.700000
  8
1
 62
7
  6
CONTINUOUS
  0
VERTEX
 10
37.500000
 20
123.800000
  8
1
 62
7
  6
CONTINUOUS
  0
SEQEND
  0
POLYLINE
  8
1
 62
7
  6
CONTINUOUS
 70
0
 66
1
  0
VERTEX
 10
39.300000
 20
122.700000
  8
1
 62
7
  6
CONTINUOUS
  0
VERTEX
 10
39.300000
 20
123.800000
  8
1
 62
7
  6
CONTINUOUS
  0
SEQEND
  0
POLYLINE
  8
1
 62
7
  6
CONTINUOUS
 70
0
 66
1
  0
VERTEX
 10
41.100000
 20
122.700000
  8
1
 62
7
  6
CONTINUOUS
  0
VERTEX
 10
41.100000
 20
123.800000
  8
1
 62
7
  6
CONTINUOUS
  0
SEQEND
  0
POLYLINE
  8
1
 62
7
  6
CONTINUOUS
 70
0
 66
1
  0
VERTEX
 10
42.900000
 20
122.700000
  8
1
 62
7
  6
CONTINUOUS
  0
VERTEX
 10
42.900000
 20
123.800000
  8
1
 62
7
  6
CONTINUOUS
  0
SEQEND
  0
POLYLINE
  8
1
 62
7
  6
CONTINUOUS
 70
0
 66
1
  0
VERTEX
 10
44.700000
 20
122.700000
  8
1
 62
7
  6
CONTINUOUS
  0
VERTEX
 10
44.700000
 20
123.800000
  8
1
 62
7
  6
CONTINUOUS
  0
SEQEND
  0
POLYLINE
  8
1
 62
7
  6
CONTINUOUS
 70
0
 66
1
  0
VERTEX
 10
46.500000
 20
122.700000
  8
1
 62
7
  6
CONTINUOUS
  0
VERTEX
 10
46.500000
 20
123.800000
  8
1
 62
7
  6
CONTINUOUS
  0
SEQEND
  0
LINE
  8
1
 62
7
  6
CONTINUOUS
 10
26.000000
 20
132.900000
 11
26.000000
 21
132.400000
  0
LINE
  8
1
 62
7
  6
CONTINUOUS
 10
26.000000
 20
129.500000
 11
26.000000
 21
130.000000
  0
LINE
  8
1
 62
7
  6
CONTINUOUS
 10
26.400000
 20
131.200000
 11
25.500000
 21
131.200000
  0
CIRCLE
  8
1
 62
7
  6
CONTINUOUS
 10
26.000000
 20
131.200000
 30
0.0
 40
0.700000
  0
LINE
  8
1
 62
7
  6
CONTINUOUS
 10
49.000000
 20
132.900000
 11
49.000000
 21
132.400000
  0
LINE
  8
1
 62
7
  6
CONTINUOUS
 10
49.000000
 20
129.500000
 11
49.000000
 21
130.000000
  0
LINE
  8
1
 62
7
  6
CONTINUOUS
 10
48.600000
 20
131.200000
 11
49.500000
 21
131.200000
  0
CIRCLE
  8
1
 62
7
  6
CONTINUOUS
 10
49.000000
 20
131.200000
 30
0.0
 40
0.700000
  0
LINE
  8
1
 62
7
  6
CONTINUOUS
 10
49.000000
 20
132.900000
 11
49.000000
 21
132.400000
  0
LINE
  8
1
 62
7
  6
CONTINUOUS
 10
49.000000
 20
129.500000
 11
49.000000
 21
130.000000
  0
LINE
  8
1
 62
7
  6
CONTINUOUS
 10
48.600000
 20
131.200000
 11
49.500000
 21
131.200000
  0
CIRCLE
  8
1
 62
7
  6
CONTINUOUS
 10
49.000000
 20
131.200000
 30
0.0
 40
0.700000
  0
LINE
  8
1
 62
7
  6
CONTINUOUS
 10
26.000000
 20
132.900000
 11
26.000000
 21
132.400000
  0
LINE
  8
1
 62
7
  6
CONTINUOUS
 10
26.000000
 20
129.500000
 11
26.000000
 21
130.000000
  0
LINE
  8
1
 62
7
  6
CONTINUOUS
 10
26.400000
 20
131.200000
 11
25.500000
 21
131.200000
  0
CIRCLE
  8
1
 62
7
  6
CONTINUOUS
 10
26.000000
 20
131.200000
 30
0.0
 40
0.700000
  0
POLYLINE
  8
1
 62
7
  6
CONTINUOUS
 70
1
 66
1
  0
VERTEX
 10
48.300000
 20
97.300000
 30
0.000000
  8
1
 62
7
  6
CONTINUOUS
  0
VERTEX
 10
48.300000
 20
92.700000
 30
0.000000
  8
1
 62
7
  6
CONTINUOUS
  0
VERTEX
 10
26.700000
 20
92.700000
 30
0.000000
  8
1
 62
7
  6
CONTINUOUS
  0
VERTEX
 10
26.700000
 20
97.300000
 30
0.000000
  8
1
 62
7
  6
CONTINUOUS
  0
SEQEND
  0
POLYLINE
  8
1
 62
7
  6
CONTINUOUS
 70
0
 66
1
  0
VERTEX
 10
28.500000
 20
92.700000
  8
1
 62
7
  6
CONTINUOUS
  0
VERTEX
 10
28.500000
 20
93.800000
  8
1
 62
7
  6
CONTINUOUS
  0
SEQEND
  0
POLYLINE
  8
1
 62
7
  6
CONTINUOUS
 70
0
 66
1
  0
VERTEX
 10
30.300000
 20
92.700000
  8
1
 62
7
  6
CONTINUOUS
  0
VERTEX
 10
30.300000
 20
93.800000
  8
1
 62
7
  6
CONTINUOUS
  0
VERTEX
 10
30.300000
 20
93.800000
  8
1
 62
7
  6
CONTINUOUS
  0
SEQEND
  0
POLYLINE
  8
1
 62
7
  6
CONTINUOUS
 70
0
 66
1
  0
VERTEX
 10
32.100000
 20
92.700000
  8
1
 62
7
  6
CONTINUOUS
  0
VERTEX
 10
32.100000
 20
93.800000
  8
1
 62
7
  6
CONTINUOUS
  0
SEQEND
  0
POLYLINE
  8
1
 62
7
  6
CONTINUOUS
 70
0
 66
1
  0
VERTEX
 10
33.900000
 20
92.700000
  8
1
 62
7
  6
CONTINUOUS
  0
VERTEX
 10
33.900000
 20
93.800000
  8
1
 62
7
  6
CONTINUOUS
  0
SEQEND
  0
POLYLINE
  8
1
 62
7
  6
CONTINUOUS
 70
0
 66
1
  0
VERTEX
 10
35.700000
 20
92.700000
  8
1
 62
7
  6
CONTINUOUS
  0
VERTEX
 10
35.700000
 20
93.800000
  8
1
 62
7
  6
CONTINUOUS
  0
SEQEND
  0
POLYLINE
  8
1
 62
7
  6
CONTINUOUS
 70
0
 66
1
  0
VERTEX
 10
37.500000
 20
92.700000
  8
1
 62
7
  6
CONTINUOUS
  0
VERTEX
 10
37.500000
 20
93.800000
  8
1
 62
7
  6
CONTINUOUS
  0
SEQEND
  0
POLYLINE
  8
1
 62
7
  6
CONTINUOUS
 70
0
 66
1
  0
VERTEX
 10
39.300000
 20
92.700000
  8
1
 62
7
  6
CONTINUOUS
  0
VERTEX
 10
39.300000
 20
93.800000
  8
1
 62
7
  6
CONTINUOUS
  0
SEQEND
  0
POLYLINE
  8
1
 62
7
  6
CONTINUOUS
 70
0
 66
1
  0
VERTEX
 10
41.100000
 20
92.700000
  8
1
 62
7
  6
CONTINUOUS
  0
VERTEX
 10
41.100000
 20
93.800000
  8
1
 62
7
  6
CONTINUOUS
  0
SEQEND
  0
POLYLINE
  8
1
 62
7
  6
CONTINUOUS
 70
0
 66
1
  0
VERTEX
 10
42.900000
 20
92.700000
  8
1
 62
7
  6
CONTINUOUS
  0
VERTEX
 10
42.900000
 20
93.800000
  8
1
 62
7
  6
CONTINUOUS
  0
SEQEND
  0
POLYLINE
  8
1
 62
7
  6
CONTINUOUS
 70
0
 66
1
  0
VERTEX
 10
44.700000
 20
92.700000
  8
1
 62
7
  6
CONTINUOUS
  0
VERTEX
 10
44.700000
 20
93.800000
  8
1
 62
7
  6
CONTINUOUS
  0
SEQEND
  0
POLYLINE
  8
1
 62
7
  6
CONTINUOUS
 70
0
 66
1
  0
VERTEX
 10
46.500000
 20
92.700000
  8
1
 62
7
  6
CONTINUOUS
  0
VERTEX
 10
46.500000
 20
93.800000
  8
1
 62
7
  6
CONTINUOUS
  0
SEQEND
  0
POLYLINE
  8
1
 62
7
  6
CONTINUOUS
 70
1
 66
1
  0
VERTEX
 10
48.300000
 20
84.800000
 30
0.000000
  8
1
 62
7
  6
CONTINUOUS
  0
VERTEX
 10
48.300000
 20
80.200000
 30
0.000000
  8
1
 62
7
  6
CONTINUOUS
  0
VERTEX
 10
26.700000
 20
80.200000
 30
0.000000
  8
1
 62
7
  6
CONTINUOUS
  0
VERTEX
 10
26.700000
 20
84.800000
 30
0.000000
  8
1
 62
7
  6
CONTINUOUS
  0
SEQEND
  0
POLYLINE
  8
1
 62
7
  6
CONTINUOUS
 70
0
 66
1
  0
VERTEX
 10
28.500000
 20
80.200000
  8
1
 62
7
  6
CONTINUOUS
  0
VERTEX
 10
28.500000
 20
81.300000
  8
1
 62
7
  6
CONTINUOUS
  0
SEQEND
  0
POLYLINE
  8
1
 62
7
  6
CONTINUOUS
 70
0
 66
1
  0
VERTEX
 10
30.300000
 20
80.200000
  8
1
 62
7
  6
CONTINUOUS
  0
VERTEX
 10
30.300000
 20
81.300000
  8
1
 62
7
  6
CONTINUOUS
  0
VERTEX
 10
30.300000
 20
81.300000
  8
1
 62
7
  6
CONTINUOUS
  0
SEQEND
  0
POLYLINE
  8
1
 62
7
  6
CONTINUOUS
 70
0
 66
1
  0
VERTEX
 10
32.100000
 20
80.200000
  8
1
 62
7
  6
CONTINUOUS
  0
VERTEX
 10
32.100000
 20
81.300000
  8
1
 62
7
  6
CONTINUOUS
  0
SEQEND
  0
POLYLINE
  8
1
 62
7
  6
CONTINUOUS
 70
0
 66
1
  0
VERTEX
 10
33.900000
 20
80.200000
  8
1
 62
7
  6
CONTINUOUS
  0
VERTEX
 10
33.900000
 20
81.300000
  8
1
 62
7
  6
CONTINUOUS
  0
SEQEND
  0
POLYLINE
  8
1
 62
7
  6
CONTINUOUS
 70
0
 66
1
  0
VERTEX
 10
35.700000
 20
80.200000
  8
1
 62
7
  6
CONTINUOUS
  0
VERTEX
 10
35.700000
 20
81.300000
  8
1
 62
7
  6
CONTINUOUS
  0
SEQEND
  0
POLYLINE
  8
1
 62
7
  6
CONTINUOUS
 70
0
 66
1
  0
VERTEX
 10
37.500000
 20
80.200000
  8
1
 62
7
  6
CONTINUOUS
  0
VERTEX
 10
37.500000
 20
81.300000
  8
1
 62
7
  6
CONTINUOUS
  0
SEQEND
  0
POLYLINE
  8
1
 62
7
  6
CONTINUOUS
 70
0
 66
1
  0
VERTEX
 10
39.300000
 20
80.200000
  8
1
 62
7
  6
CONTINUOUS
  0
VERTEX
 10
39.300000
 20
81.300000
  8
1
 62
7
  6
CONTINUOUS
  0
SEQEND
  0
POLYLINE
  8
1
 62
7
  6
CONTINUOUS
 70
0
 66
1
  0
VERTEX
 10
41.100000
 20
80.200000
  8
1
 62
7
  6
CONTINUOUS
  0
VERTEX
 10
41.100000
 20
81.300000
  8
1
 62
7
  6
CONTINUOUS
  0
SEQEND
  0
POLYLINE
  8
1
 62
7
  6
CONTINUOUS
 70
0
 66
1
  0
VERTEX
 10
42.900000
 20
80.200000
  8
1
 62
7
  6
CONTINUOUS
  0
VERTEX
 10
42.900000
 20
81.300000
  8
1
 62
7
  6
CONTINUOUS
  0
SEQEND
  0
POLYLINE
  8
1
 62
7
  6
CONTINUOUS
 70
0
 66
1
  0
VERTEX
 10
44.700000
 20
80.200000
  8
1
 62
7
  6
CONTINUOUS
  0
VERTEX
 10
44.700000
 20
81.300000
  8
1
 62
7
  6
CONTINUOUS
  0
SEQEND
  0
POLYLINE
  8
1
 62
7
  6
CONTINUOUS
 70
0
 66
1
  0
VERTEX
 10
46.500000
 20
80.200000
  8
1
 62
7
  6
CONTINUOUS
  0
VERTEX
 10
46.500000
 20
81.300000
  8
1
 62
7
  6
CONTINUOUS
  0
SEQEND
  0
POLYLINE
  8
1
 62
7
  6
CONTINUOUS
 70
0
 66
1
  0
VERTEX
 10
25.000000
 20
105.000000
  8
1
 62
7
  6
CONTINUOUS
  0
VERTEX
 10
49.800000
 20
105.000000
  8
1
 62
7
  6
CONTINUOUS
  0
SEQEND
  0
POLYLINE
  8
1
 62
7
  6
CONTINUOUS
 70
1
 66
1
  0
VERTEX
 10
44.000000
 20
43.000000
 30
0.000000
  8
1
 62
7
  6
CONTINUOUS
  0
VERTEX
 10
44.000000
 20
39.000000
 30
0.000000
  8
1
 62
7
  6
CONTINUOUS
  0
VERTEX
 10
31.000000
 20
39.000000
 30
0.000000
  8
1
 62
7
  6
CONTINUOUS
  0
VERTEX
 10
31.000000
 20
43.000000
 30
0.000000
  8
1
 62
7
  6
CONTINUOUS
  0
SEQEND
  0
LINE
  8
1
 62
7
  6
CONTINUOUS
 10
44.000000
 20
39.000000
 11
31.000000
 21
43.000000
  0
LINE
  8
1
 62
7
  6
CONTINUOUS
 10
31.000000
 20
39.000000
 11
44.000000
 21
43.000000
  0
POLYLINE
  8
1
 62
7
  6
CONTINUOUS
 70
0
 66
1
  0
VERTEX
 10
36.500000
 20
50.000000
  8
1
 62
7
  6
CONTINUOUS
  0
VERTEX
 10
36.500000
 20
73.000000
  8
1
 62
7
  6
CONTINUOUS
  0
VERTEX
 10
38.500000
 20
73.000000
  8
1
 62
7
  6
CONTINUOUS
  0
VERTEX
 10
38.500000
 20
50.000000
  8
1
 62
7
  6
CONTINUOUS
  0
SEQEND
  0
POLYLINE
  8
1
 62
7
  6
CONTINUOUS
 70
0
 66
1
  0
VERTEX
 10
36.500000
 20
46.800000
  8
1
 62
7
  6
CONTINUOUS
  0
VERTEX
 10
36.500000
 20
43.000000
  8
1
 62
7
  6
CONTINUOUS
  0
SEQEND
  0
POLYLINE
  8
1
 62
7
  6
CONTINUOUS
 70
0
 66
1
  0
VERTEX
 10
38.500000
 20
46.800000
  8
1
 62
7
  6
CONTINUOUS
  0
VERTEX
 10
38.500000
 20
43.000000
  8
1
 62
7
  6
CONTINUOUS
  0
SEQEND
  0
POLYLINE
  8
1
 62
7
  6
CONTINUOUS
 70
1
 66
1
  0
VERTEX
 10
48.400000
 20
50.000000
 30
0.000000
  8
1
 62
7
  6
CONTINUOUS
  0
VERTEX
 10
48.400000
 20
46.800000
 30
0.000000
  8
1
 62
7
  6
CONTINUOUS
  0
VERTEX
 10
26.600000
 20
46.800000
 30
0.000000
  8
1
 62
7
  6
CONTINUOUS
  0
VERTEX
 10
26.600000
 20
50.000000
 30
0.000000
  8
1
 62
7
  6
CONTINUOUS
  0
SEQEND
  0
CIRCLE
  8
1
 62
7
  6
CONTINUOUS
 10
37.500000
 20
49.100000
 30
0.0
 40
0.500000
  0
CIRCLE
  8
1
 62
7
  6
CONTINUOUS
 10
35.500000
 20
49.100000
 30
0.0
 40
0.500000
  0
CIRCLE
  8
1
 62
7
  6
CONTINUOUS
 10
27.400000
 20
49.100000
 30
0.0
 40
0.300000
  0
SOLID
  8
1
 62
7
  6
CONTINUOUS
 10
35.500000
 20
48.800000
 11
35.500000
 21
49.400000
 12
27.400000
 22
48.800000
 13
27.400000
 23
49.400000
  0
POLYLINE
  8
1
 62
7
  6
CONTINUOUS
 70
1
 66
1
  0
VERTEX
 10
35.500000
 20
48.800000
 30
0.000000
  8
1
 62
7
  6
CONTINUOUS
  0
VERTEX
 10
35.500000
 20
49.400000
 30
0.000000
  8
1
 62
7
  6
CONTINUOUS
  0
VERTEX
 10
27.400000
 20
49.400000
 30
0.000000
  8
1
 62
7
  6
CONTINUOUS
  0
VERTEX
 10
27.400000
 20
48.800000
 30
0.000000
  8
1
 62
7
  6
CONTINUOUS
  0
SEQEND
  0
CIRCLE
  8
1
 62
7
  6
CONTINUOUS
 10
35.500000
 20
47.600000
 30
0.0
 40
0.500000
  0
CIRCLE
  8
1
 62
7
  6
CONTINUOUS
 10
27.400000
 20
47.600000
 30
0.0
 40
0.300000
  0
SOLID
  8
1
 62
7
  6
CONTINUOUS
 10
35.500000
 20
47.300000
 11
35.500000
 21
47.900000
 12
27.400000
 22
47.300000
 13
27.400000
 23
47.900000
  0
POLYLINE
  8
1
 62
7
  6
CONTINUOUS
 70
1
 66
1
  0
VERTEX
 10
35.500000
 20
47.300000
 30
0.000000
  8
1
 62
7
  6
CONTINUOUS
  0
VERTEX
 10
35.500000
 20
47.900000
 30
0.000000
  8
1
 62
7
  6
CONTINUOUS
  0
VERTEX
 10
27.400000
 20
47.900000
 30
0.000000
  8
1
 62
7
  6
CONTINUOUS
  0
VERTEX
 10
27.400000
 20
47.300000
 30
0.000000
  8
1
 62
7
  6
CONTINUOUS
  0
SEQEND
  0
CIRCLE
  8
1
 62
7
  6
CONTINUOUS
 10
39.500000
 20
49.100000
 30
0.0
 40
0.500000
  0
CIRCLE
  8
1
 62
7
  6
CONTINUOUS
 10
47.600000
 20
49.100000
 30
0.0
 40
0.300000
  0
SOLID
  8
1
 62
7
  6
CONTINUOUS
 10
39.500000
 20
48.800000
 11
39.500000
 21
49.400000
 12
47.600000
 22
48.800000
 13
47.600000
 23
49.400000
  0
POLYLINE
  8
1
 62
7
  6
CONTINUOUS
 70
1
 66
1
  0
VERTEX
 10
39.500000
 20
48.800000
 30
0.000000
  8
1
 62
7
  6
CONTINUOUS
  0
VERTEX
 10
39.500000
 20
49.400000
 30
0.000000
  8
1
 62
7
  6
CONTINUOUS
  0
VERTEX
 10
47.600000
 20
49.400000
 30
0.000000
  8
1
 62
7
  6
CONTINUOUS
  0
VERTEX
 10
47.600000
 20
48.800000
 30
0.000000
  8
1
 62
7
  6
CONTINUOUS
  0
SEQEND
  0
CIRCLE
  8
1
 62
7
  6
CONTINUOUS
 10
39.500000
 20
47.600000
 30
0.0
 40
0.500000
  0
CIRCLE
  8
1
 62
7
  6
CONTINUOUS
 10
47.600000
 20
47.600000
 30
0.0
 40
0.300000
  0
SOLID
  8
1
 62
7
  6
CONTINUOUS
 10
39.500000
 20
47.300000
 11
39.500000
 21
47.900000
 12
47.600000
 22
47.300000
 13
47.600000
 23
47.900000
  0
POLYLINE
  8
1
 62
7
  6
CONTINUOUS
 70
1
 66
1
  0
VERTEX
 10
39.500000
 20
47.300000
 30
0.000000
  8
1
 62
7
  6
CONTINUOUS
  0
VERTEX
 10
39.500000
 20
47.900000
 30
0.000000
  8
1
 62
7
  6
CONTINUOUS
  0
VERTEX
 10
47.600000
 20
47.900000
 30
0.000000
  8
1
 62
7
  6
CONTINUOUS
  0
VERTEX
 10
47.600000
 20
47.300000
 30
0.000000
  8
1
 62
7
  6
CONTINUOUS
  0
SEQEND
  0
CIRCLE
  8
1
 62
7
  6
CONTINUOUS
 10
37.500000
 20
49.100000
 30
0.0
 40
0.500000
  0
CIRCLE
  8
1
 62
7
  6
CONTINUOUS
 10
37.500000
 20
54.600000
 30
0.0
 40
0.400000
  0
SOLID
  8
1
 62
7
  6
CONTINUOUS
 10
37.200000
 20
50.000000
 11
37.200000
 21
53.300000
 12
37.800000
 22
50.000000
 13
37.800000
 23
53.300000
  0
POLYLINE
  8
1
 62
7
  6
CONTINUOUS
 70
1
 66
1
  0
VERTEX
 10
37.200000
 20
50.000000
 30
0.000000
  8
1
 62
7
  6
CONTINUOUS
  0
VERTEX
 10
37.200000
 20
53.300000
 30
0.000000
  8
1
 62
7
  6
CONTINUOUS
  0
VERTEX
 10
37.800000
 20
53.300000
 30
0.000000
  8
1
 62
7
  6
CONTINUOUS
  0
VERTEX
 10
37.800000
 20
50.000000
 30
0.000000
  8
1
 62
7
  6
CONTINUOUS
  0
SEQEND
  0
SOLID
  8
1
 62
7
  6
CONTINUOUS
 10
37.200000
 20
57.200000
 11
37.200000
 21
71.800000
 12
37.800000
 22
57.200000
 13
37.800000
 23
71.800000
  0
POLYLINE
  8
1
 62
7
  6
CONTINUOUS
 70
1
 66
1
  0
VERTEX
 10
37.200000
 20
57.200000
 30
0.000000
  8
1
 62
7
  6
CONTINUOUS
  0
VERTEX
 10
37.200000
 20
71.800000
 30
0.000000
  8
1
 62
7
  6
CONTINUOUS
  0
VERTEX
 10
37.800000
 20
71.800000
 30
0.000000
  8
1
 62
7
  6
CONTINUOUS
  0
VERTEX
 10
37.800000
 20
57.200000
 30
0.000000
  8
1
 62
7
  6
CONTINUOUS
  0
SEQEND
  0
CIRCLE
  8
1
 62
7
  6
CONTINUOUS
 10
37.500000
 20
57.100000
 30
0.0
 40
0.500000
  0
CIRCLE
  8
1
 62
7
  6
CONTINUOUS
 10
37.500000
 20
71.800000
 30
0.0
 40
0.300000
  0
CIRCLE
  8
1
 62
7
  6
CONTINUOUS
 10
37.500000
 20
53.300000
 30
0.0
 40
0.300000
  0
CIRCLE
  8
1
 62
7
  6
CONTINUOUS
 10
37.500000
 20
44.500000
 30
0.0
 40
0.300000
  0
SOLID
  8
1
 62
7
  6
CONTINUOUS
 10
37.200000
 20
44.500000
 11
37.200000
 21
46.800000
 12
37.800000
 22
44.500000
 13
37.800000
 23
46.800000
  0
POLYLINE
  8
1
 62
7
  6
CONTINUOUS
 70
1
 66
1
  0
VERTEX
 10
37.200000
 20
44.500000
 30
0.000000
  8
1
 62
7
  6
CONTINUOUS
  0
VERTEX
 10
37.200000
 20
46.800000
 30
0.000000
  8
1
 62
7
  6
CONTINUOUS
  0
VERTEX
 10
37.800000
 20
46.800000
 30
0.000000
  8
1
 62
7
  6
CONTINUOUS
  0
VERTEX
 10
37.800000
 20
44.500000
 30
0.000000
  8
1
 62
7
  6
CONTINUOUS
  0
SEQEND
  0
LINE
  8
1
 62
7
  6
CONTINUOUS
 10
49.000000
 20
107.100000
 11
49.000000
 21
107.600000
  0
LINE
  8
1
 62
7
  6
CONTINUOUS
 10
49.000000
 20
110.500000
 11
49.000000
 21
110.000000
  0
LINE
  8
1
 62
7
  6
CONTINUOUS
 10
48.600000
 20
108.800000
 11
49.500000
 21
108.800000
  0
CIRCLE
  8
1
 62
7
  6
CONTINUOUS
 10
49.000000
 20
108.800000
 30
0.0
 40
0.700000
  0
LINE
  8
1
 62
7
  6
CONTINUOUS
 10
26.000000
 20
107.100000
 11
26.000000
 21
107.600000
  0
LINE
  8
1
 62
7
  6
CONTINUOUS
 10
26.000000
 20
110.500000
 11
26.000000
 21
110.000000
  0
LINE
  8
1
 62
7
  6
CONTINUOUS
 10
26.400000
 20
108.800000
 11
25.500000
 21
108.800000
  0
CIRCLE
  8
1
 62
7
  6
CONTINUOUS
 10
26.000000
 20
108.800000
 30
0.0
 40
0.700000
  0
POLYLINE
  8
1
 62
7
  6
CONTINUOUS
 70
1
 66
1
  0
VERTEX
 10
48.300000
 20
114.800000
 30
0.000000
  8
1
 62
7
  6
CONTINUOUS
  0
VERTEX
 10
48.300000
 20
110.200000
 30
0.000000
  8
1
 62
7
  6
CONTINUOUS
  0
VERTEX
 10
26.700000
 20
110.200000
 30
0.000000
  8
1
 62
7
  6
CONTINUOUS
  0
VERTEX
 10
26.700000
 20
114.800000
 30
0.000000
  8
1
 62
7
  6
CONTINUOUS
  0
SEQEND
  0
POLYLINE
  8
1
 62
7
  6
CONTINUOUS
 70
0
 66
1
  0
VERTEX
 10
28.500000
 20
110.200000
  8
1
 62
7
  6
CONTINUOUS
  0
VERTEX
 10
28.500000
 20
111.300000
  8
1
 62
7
  6
CONTINUOUS
  0
SEQEND
  0
POLYLINE
  8
1
 62
7
  6
CONTINUOUS
 70
0
 66
1
  0
VERTEX
 10
30.300000
 20
110.200000
  8
1
 62
7
  6
CONTINUOUS
  0
VERTEX
 10
30.300000
 20
111.300000
  8
1
 62
7
  6
CONTINUOUS
  0
VERTEX
 10
30.300000
 20
111.300000
  8
1
 62
7
  6
CONTINUOUS
  0
SEQEND
  0
POLYLINE
  8
1
 62
7
  6
CONTINUOUS
 70
0
 66
1
  0
VERTEX
 10
32.100000
 20
110.200000
  8
1
 62
7
  6
CONTINUOUS
  0
VERTEX
 10
32.100000
 20
111.300000
  8
1
 62
7
  6
CONTINUOUS
  0
SEQEND
  0
POLYLINE
  8
1
 62
7
  6
CONTINUOUS
 70
0
 66
1
  0
VERTEX
 10
33.900000
 20
110.200000
  8
1
 62
7
  6
CONTINUOUS
  0
VERTEX
 10
33.900000
 20
111.300000
  8
1
 62
7
  6
CONTINUOUS
  0
SEQEND
  0
POLYLINE
  8
1
 62
7
  6
CONTINUOUS
 70
0
 66
1
  0
VERTEX
 10
35.700000
 20
110.200000
  8
1
 62
7
  6
CONTINUOUS
  0
VERTEX
 10
35.700000
 20
111.300000
  8
1
 62
7
  6
CONTINUOUS
  0
SEQEND
  0
POLYLINE
  8
1
 62
7
  6
CONTINUOUS
 70
0
 66
1
  0
VERTEX
 10
37.500000
 20
110.200000
  8
1
 62
7
  6
CONTINUOUS
  0
VERTEX
 10
37.500000
 20
111.300000
  8
1
 62
7
  6
CONTINUOUS
  0
SEQEND
  0
POLYLINE
  8
1
 62
7
  6
CONTINUOUS
 70
0
 66
1
  0
VERTEX
 10
39.300000
 20
110.200000
  8
1
 62
7
  6
CONTINUOUS
  0
VERTEX
 10
39.300000
 20
111.300000
  8
1
 62
7
  6
CONTINUOUS
  0
SEQEND
  0
POLYLINE
  8
1
 62
7
  6
CONTINUOUS
 70
0
 66
1
  0
VERTEX
 10
41.100000
 20
110.200000
  8
1
 62
7
  6
CONTINUOUS
  0
VERTEX
 10
41.100000
 20
111.300000
  8
1
 62
7
  6
CONTINUOUS
  0
SEQEND
  0
POLYLINE
  8
1
 62
7
  6
CONTINUOUS
 70
0
 66
1
  0
VERTEX
 10
42.900000
 20
110.200000
  8
1
 62
7
  6
CONTINUOUS
  0
VERTEX
 10
42.900000
 20
111.300000
  8
1
 62
7
  6
CONTINUOUS
  0
SEQEND
  0
POLYLINE
  8
1
 62
7
  6
CONTINUOUS
 70
0
 66
1
  0
VERTEX
 10
44.700000
 20
110.200000
  8
1
 62
7
  6
CONTINUOUS
  0
VERTEX
 10
44.700000
 20
111.300000
  8
1
 62
7
  6
CONTINUOUS
  0
SEQEND
  0
POLYLINE
  8
1
 62
7
  6
CONTINUOUS
 70
0
 66
1
  0
VERTEX
 10
46.500000
 20
110.200000
  8
1
 62
7
  6
CONTINUOUS
  0
VERTEX
 10
46.500000
 20
111.300000
  8
1
 62
7
  6
CONTINUOUS
  0
SEQEND
  0
LINE
  8
1
 62
7
  6
CONTINUOUS
 10
38.000000
 20
29.500000
 11
37.000000
 21
29.500000
  0
CIRCLE
  8
1
 62
7
  6
CONTINUOUS
 10
37.500000
 20
29.000000
 30
0.0
 40
0.700000
  0
LINE
  8
1
 62
7
  6
CONTINUOUS
 10
13.000000
 20
29.500000
 11
12.000000
 21
29.500000
  0
CIRCLE
  8
1
 62
7
  6
CONTINUOUS
 10
12.500000
 20
29.000000
 30
0.0
 40
0.700000
  0
POLYLINE
  8
1
 62
7
  6
CONTINUOUS
 70
0
 66
1
  0
VERTEX
 10
25.000000
 20
30.000000
  8
1
 62
7
  6
CONTINUOUS
  0
VERTEX
 10
49.800000
 20
30.000000
  8
1
 62
7
  6
CONTINUOUS
  0
SEQEND
  0
SOLID
  8
57
 62
255
  6
L014100020032000000
 10
49.100000
 20
7.700000
 11
49.100000
 21
8.900000
 12
0.900000
 22
7.700000
 13
0.900000
 23
8.900000
  0
POLYLINE
  8
57
 62
7
  6
L014100020032000000
 70
1
 66
1
  0
VERTEX
 10
49.100000
 20
7.700000
 30
0.000000
  8
57
 62
7
  6
L014100020032000000
  0
VERTEX
 10
49.100000
 20
8.900000
 30
0.000000
  8
57
 62
7
  6
L014100020032000000
  0
VERTEX
 10
0.900000
 20
8.900000
 30
0.000000
  8
57
 62
7
  6
L014100020032000000
  0
VERTEX
 10
0.900000
 20
7.700000
 30
0.000000
  8
57
 62
7
  6
L014100020032000000
  0
SEQEND
  0
SOLID
  8
57
 62
255
  6
L014100020032000000
 10
49.100000
 20
23.700000
 11
49.100000
 21
24.900000
 12
0.900000
 22
23.700000
 13
0.900000
 23
24.900000
  0
POLYLINE
  8
57
 62
7
  6
L014100020032000000
 70
1
 66
1
  0
VERTEX
 10
49.100000
 20
23.700000
 30
0.000000
  8
57
 62
7
  6
L014100020032000000
  0
VERTEX
 10
49.100000
 20
24.900000
 30
0.000000
  8
57
 62
7
  6
L014100020032000000
  0
VERTEX
 10
0.900000
 20
24.900000
 30
0.000000
  8
57
 62
7
  6
L014100020032000000
  0
VERTEX
 10
0.900000
 20
23.700000
 30
0.000000
  8
57
 62
7
  6
L014100020032000000
  0
SEQEND
  0
SOLID
  8
57
 62
255
  6
L014100020032000000
 10
49.100000
 20
19.700000
 11
49.100000
 21
20.900000
 12
0.900000
 22
19.700000
 13
0.900000
 23
20.900000
  0
POLYLINE
  8
57
 62
7
  6
L014100020032000000
 70
1
 66
1
  0
VERTEX
 10
49.100000
 20
19.700000
 30
0.000000
  8
57
 62
7
  6
L014100020032000000
  0
VERTEX
 10
49.100000
 20
20.900000
 30
0.000000
  8
57
 62
7
  6
L014100020032000000
  0
VERTEX
 10
0.900000
 20
20.900000
 30
0.000000
  8
57
 62
7
  6
L014100020032000000
  0
VERTEX
 10
0.900000
 20
19.700000
 30
0.000000
  8
57
 62
7
  6
L014100020032000000
  0
SEQEND
  0
SOLID
  8
57
 62
255
  6
L014100020032000000
 10
49.100000
 20
15.700000
 11
49.100000
 21
16.900000
 12
0.900000
 22
15.700000
 13
0.900000
 23
16.900000
  0
POLYLINE
  8
57
 62
7
  6
L014100020032000000
 70
1
 66
1
  0
VERTEX
 10
49.100000
 20
15.700000
 30
0.000000
  8
57
 62
7
  6
L014100020032000000
  0
VERTEX
 10
49.100000
 20
16.900000
 30
0.000000
  8
57
 62
7
  6
L014100020032000000
  0
VERTEX
 10
0.900000
 20
16.900000
 30
0.000000
  8
57
 62
7
  6
L014100020032000000
  0
VERTEX
 10
0.900000
 20
15.700000
 30
0.000000
  8
57
 62
7
  6
L014100020032000000
  0
SEQEND
  0
SOLID
  8
57
 62
255
  6
L014100020032000000
 10
49.100000
 20
11.700000
 11
49.100000
 21
12.900000
 12
0.900000
 22
11.700000
 13
0.900000
 23
12.900000
  0
POLYLINE
  8
57
 62
7
  6
L014100020032000000
 70
1
 66
1
  0
VERTEX
 10
49.100000
 20
11.700000
 30
0.000000
  8
57
 62
7
  6
L014100020032000000
  0
VERTEX
 10
49.100000
 20
12.900000
 30
0.000000
  8
57
 62
7
  6
L014100020032000000
  0
VERTEX
 10
0.900000
 20
12.900000
 30
0.000000
  8
57
 62
7
  6
L014100020032000000
  0
VERTEX
 10
0.900000
 20
11.700000
 30
0.000000
  8
57
 62
7
  6
L014100020032000000
  0
SEQEND
  0
SOLID
  8
29
 62
255
  6
CONTINUOUS
 10
49.800000
 20
0.200000
 11
49.800000
 21
134.800000
 12
0.200000
 22
0.200000
 13
0.200000
 23
134.800000
  0
POLYLINE
  8
29
 62
7
  6
CONTINUOUS
 70
1
 66
1
  0
VERTEX
 10
49.800000
 20
0.200000
 30
0.000000
  8
29
 62
7
  6
CONTINUOUS
  0
VERTEX
 10
49.800000
 20
134.800000
 30
0.000000
  8
29
 62
7
  6
CONTINUOUS
  0
VERTEX
 10
0.200000
 20
134.800000
 30
0.000000
  8
29
 62
7
  6
CONTINUOUS
  0
VERTEX
 10
0.200000
 20
0.200000
 30
0.000000
  8
29
 62
7
  6
CONTINUOUS
  0
SEQEND
  0
POLYLINE
  8
29
 62
7
  6
CONTINUOUS
 70
0
 66
1
  0
VERTEX
 10
0.200000
 20
105.000000
  8
29
 62
7
  6
CONTINUOUS
  0
VERTEX
 10
25.000000
 20
105.000000
  8
29
 62
7
  6
CONTINUOUS
  0
SEQEND
  0
POLYLINE
  8
29
 62
7
  6
CONTINUOUS
 70
1
 66
1
  0
VERTEX
 10
19.000000
 20
38.000000
 30
0.000000
  8
29
 62
7
  6
CONTINUOUS
  0
VERTEX
 10
19.000000
 20
34.000000
 30
0.000000
  8
29
 62
7
  6
CONTINUOUS
  0
VERTEX
 10
6.000000
 20
34.000000
 30
0.000000
  8
29
 62
7
  6
CONTINUOUS
  0
VERTEX
 10
6.000000
 20
38.000000
 30
0.000000
  8
29
 62
7
  6
CONTINUOUS
  0
SEQEND
  0
POLYLINE
  8
29
 62
7
  6
CONTINUOUS
 70
1
 66
1
  0
VERTEX
 10
16.500000
 20
35.400000
 30
0.000000
  8
29
 62
7
  6
CONTINUOUS
  0
VERTEX
 10
16.500000
 20
38.000000
 30
0.000000
  8
29
 62
7
  6
CONTINUOUS
  0
VERTEX
 10
8.500000
 20
38.000000
 30
0.000000
  8
29
 62
7
  6
CONTINUOUS
  0
VERTEX
 10
8.500000
 20
35.400000
 30
0.000000
  8
29
 62
7
  6
CONTINUOUS
  0
SEQEND
  0
POLYLINE
  8
29
 62
7
  6
CONTINUOUS
 70
1
 66
1
  0
VERTEX
 10
19.000000
 20
73.000000
 30
0.000000
  8
29
 62
7
  6
CONTINUOUS
  0
VERTEX
 10
19.000000
 20
69.000000
 30
0.000000
  8
29
 62
7
  6
CONTINUOUS
  0
VERTEX
 10
6.000000
 20
69.000000
 30
0.000000
  8
29
 62
7
  6
CONTINUOUS
  0
VERTEX
 10
6.000000
 20
73.000000
 30
0.000000
  8
29
 62
7
  6
CONTINUOUS
  0
SEQEND
  0
POLYLINE
  8
29
 62
7
  6
CONTINUOUS
 70
1
 66
1
  0
VERTEX
 10
16.500000
 20
70.400000
 30
0.000000
  8
29
 62
7
  6
CONTINUOUS
  0
VERTEX
 10
16.500000
 20
73.000000
 30
0.000000
  8
29
 62
7
  6
CONTINUOUS
  0
VERTEX
 10
8.500000
 20
73.000000
 30
0.000000
  8
29
 62
7
  6
CONTINUOUS
  0
VERTEX
 10
8.500000
 20
70.400000
 30
0.000000
  8
29
 62
7
  6
CONTINUOUS
  0
SEQEND
  0
POLYLINE
  8
29
 62
7
  6
CONTINUOUS
 70
0
 66
1
  0
VERTEX
 10
0.200000
 20
30.000000
  8
29
 62
7
  6
CONTINUOUS
  0
VERTEX
 10
25.000000
 20
30.000000
  8
29
 62
7
  6
CONTINUOUS
  0
SEQEND
  0
POLYLINE
  8
29
 62
7
  6
CONTINUOUS
 70
1
 66
1
  0
VERTEX
 10
23.300000
 20
127.200000
 30
0.000000
  8
29
 62
7
  6
CONTINUOUS
  0
VERTEX
 10
23.300000
 20
122.600000
 30
0.000000
  8
29
 62
7
  6
CONTINUOUS
  0
VERTEX
 10
1.700000
 20
122.600000
 30
0.000000
  8
29
 62
7
  6
CONTINUOUS
  0
VERTEX
 10
1.700000
 20
127.200000
 30
0.000000
  8
29
 62
7
  6
CONTINUOUS
  0
SEQEND
  0
POLYLINE
  8
29
 62
7
  6
CONTINUOUS
 70
0
 66
1
  0
VERTEX
 10
3.500000
 20
122.600000
  8
29
 62
7
  6
CONTINUOUS
  0
VERTEX
 10
3.500000
 20
123.700000
  8
29
 62
7
  6
CONTINUOUS
  0
SEQEND
  0
POLYLINE
  8
29
 62
7
  6
CONTINUOUS
 70
0
 66
1
  0
VERTEX
 10
5.300000
 20
122.600000
  8
29
 62
7
  6
CONTINUOUS
  0
VERTEX
 10
5.300000
 20
123.700000
  8
29
 62
7
  6
CONTINUOUS
  0
VERTEX
 10
5.300000
 20
123.700000
  8
29
 62
7
  6
CONTINUOUS
  0
SEQEND
  0
POLYLINE
  8
29
 62
7
  6
CONTINUOUS
 70
0
 66
1
  0
VERTEX
 10
7.100000
 20
122.600000
  8
29
 62
7
  6
CONTINUOUS
  0
VERTEX
 10
7.100000
 20
123.700000
  8
29
 62
7
  6
CONTINUOUS
  0
SEQEND
  0
POLYLINE
  8
29
 62
7
  6
CONTINUOUS
 70
0
 66
1
  0
VERTEX
 10
8.900000
 20
122.600000
  8
29
 62
7
  6
CONTINUOUS
  0
VERTEX
 10
8.900000
 20
123.700000
  8
29
 62
7
  6
CONTINUOUS
  0
SEQEND
  0
POLYLINE
  8
29
 62
7
  6
CONTINUOUS
 70
0
 66
1
  0
VERTEX
 10
10.700000
 20
122.600000
  8
29
 62
7
  6
CONTINUOUS
  0
VERTEX
 10
10.700000
 20
123.700000
  8
29
 62
7
  6
CONTINUOUS
  0
SEQEND
  0
POLYLINE
  8
29
 62
7
  6
CONTINUOUS
 70
0
 66
1
  0
VERTEX
 10
12.500000
 20
122.600000
  8
29
 62
7
  6
CONTINUOUS
  0
VERTEX
 10
12.500000
 20
123.700000
  8
29
 62
7
  6
CONTINUOUS
  0
SEQEND
  0
POLYLINE
  8
29
 62
7
  6
CONTINUOUS
 70
0
 66
1
  0
VERTEX
 10
14.300000
 20
122.600000
  8
29
 62
7
  6
CONTINUOUS
  0
VERTEX
 10
14.300000
 20
123.700000
  8
29
 62
7
  6
CONTINUOUS
  0
SEQEND
  0
POLYLINE
  8
29
 62
7
  6
CONTINUOUS
 70
0
 66
1
  0
VERTEX
 10
16.100000
 20
122.600000
  8
29
 62
7
  6
CONTINUOUS
  0
VERTEX
 10
16.100000
 20
123.700000
  8
29
 62
7
  6
CONTINUOUS
  0
SEQEND
  0
POLYLINE
  8
29
 62
7
  6
CONTINUOUS
 70
0
 66
1
  0
VERTEX
 10
17.900000
 20
122.600000
  8
29
 62
7
  6
CONTINUOUS
  0
VERTEX
 10
17.900000
 20
123.700000
  8
29
 62
7
  6
CONTINUOUS
  0
SEQEND
  0
POLYLINE
  8
29
 62
7
  6
CONTINUOUS
 70
0
 66
1
  0
VERTEX
 10
19.700000
 20
122.600000
  8
29
 62
7
  6
CONTINUOUS
  0
VERTEX
 10
19.700000
 20
123.700000
  8
29
 62
7
  6
CONTINUOUS
  0
SEQEND
  0
POLYLINE
  8
29
 62
7
  6
CONTINUOUS
 70
0
 66
1
  0
VERTEX
 10
21.500000
 20
122.600000
  8
29
 62
7
  6
CONTINUOUS
  0
VERTEX
 10
21.500000
 20
123.700000
  8
29
 62
7
  6
CONTINUOUS
  0
SEQEND
  0
POLYLINE
  8
29
 62
7
  6
L014100020032000000
 70
1
 66
1
  0
VERTEX
 10
23.300000
 20
114.700000
 30
0.000000
  8
29
 62
7
  6
L014100020032000000
  0
VERTEX
 10
23.300000
 20
110.100000
 30
0.000000
  8
29
 62
7
  6
L014100020032000000
  0
VERTEX
 10
1.700000
 20
110.100000
 30
0.000000
  8
29
 62
7
  6
L014100020032000000
  0
VERTEX
 10
1.700000
 20
114.700000
 30
0.000000
  8
29
 62
7
  6
L014100020032000000
  0
SEQEND
  0
POLYLINE
  8
29
 62
7
  6
CONTINUOUS
 70
0
 66
1
  0
VERTEX
 10
11.500000
 20
80.000000
  8
29
 62
7
  6
CONTINUOUS
  0
VERTEX
 10
11.500000
 20
103.000000
  8
29
 62
7
  6
CONTINUOUS
  0
VERTEX
 10
13.500000
 20
103.000000
  8
29
 62
7
  6
CONTINUOUS
  0
VERTEX
 10
13.500000
 20
80.000000
  8
29
 62
7
  6
CONTINUOUS
  0
SEQEND
  0
POLYLINE
  8
29
 62
7
  6
CONTINUOUS
 70
0
 66
1
  0
VERTEX
 10
11.500000
 20
76.800000
  8
29
 62
7
  6
CONTINUOUS
  0
VERTEX
 10
11.500000
 20
73.000000
  8
29
 62
7
  6
CONTINUOUS
  0
SEQEND
  0
POLYLINE
  8
29
 62
7
  6
CONTINUOUS
 70
0
 66
1
  0
VERTEX
 10
13.500000
 20
76.800000
  8
29
 62
7
  6
CONTINUOUS
  0
VERTEX
 10
13.500000
 20
73.000000
  8
29
 62
7
  6
CONTINUOUS
  0
SEQEND
  0
POLYLINE
  8
29
 62
7
  6
CONTINUOUS
 70
1
 66
1
  0
VERTEX
 10
23.400000
 20
80.000000
 30
0.000000
  8
29
 62
7
  6
CONTINUOUS
  0
VERTEX
 10
23.400000
 20
76.800000
 30
0.000000
  8
29
 62
7
  6
CONTINUOUS
  0
VERTEX
 10
1.600000
 20
76.800000
 30
0.000000
  8
29
 62
7
  6
CONTINUOUS
  0
VERTEX
 10
1.600000
 20
80.000000
 30
0.000000
  8
29
 62
7
  6
CONTINUOUS
  0
SEQEND
  0
CIRCLE
  8
29
 62
7
  6
CONTINUOUS
 10
12.500000
 20
79.100000
 30
0.0
 40
0.500000
  0
CIRCLE
  8
29
 62
7
  6
CONTINUOUS
 10
10.500000
 20
79.100000
 30
0.0
 40
0.500000
  0
CIRCLE
  8
29
 62
7
  6
CONTINUOUS
 10
2.400000
 20
79.100000
 30
0.0
 40
0.300000
  0
SOLID
  8
29
 62
7
  6
CONTINUOUS
 10
10.500000
 20
78.800000
 11
10.500000
 21
79.400000
 12
2.400000
 22
78.800000
 13
2.400000
 23
79.400000
  0
POLYLINE
  8
29
 62
7
  6
CONTINUOUS
 70
1
 66
1
  0
VERTEX
 10
10.500000
 20
78.800000
 30
0.000000
  8
29
 62
7
  6
CONTINUOUS
  0
VERTEX
 10
10.500000
 20
79.400000
 30
0.000000
  8
29
 62
7
  6
CONTINUOUS
  0
VERTEX
 10
2.400000
 20
79.400000
 30
0.000000
  8
29
 62
7
  6
CONTINUOUS
  0
VERTEX
 10
2.400000
 20
78.800000
 30
0.000000
  8
29
 62
7
  6
CONTINUOUS
  0
SEQEND
  0
CIRCLE
  8
29
 62
7
  6
CONTINUOUS
 10
10.500000
 20
77.600000
 30
0.0
 40
0.500000
  0
CIRCLE
  8
29
 62
7
  6
CONTINUOUS
 10
2.400000
 20
77.600000
 30
0.0
 40
0.300000
  0
SOLID
  8
29
 62
7
  6
CONTINUOUS
 10
10.500000
 20
77.300000
 11
10.500000
 21
77.900000
 12
2.400000
 22
77.300000
 13
2.400000
 23
77.900000
  0
POLYLINE
  8
29
 62
7
  6
CONTINUOUS
 70
1
 66
1
  0
VERTEX
 10
10.500000
 20
77.300000
 30
0.000000
  8
29
 62
7
  6
CONTINUOUS
  0
VERTEX
 10
10.500000
 20
77.900000
 30
0.000000
  8
29
 62
7
  6
CONTINUOUS
  0
VERTEX
 10
2.400000
 20
77.900000
 30
0.000000
  8
29
 62
7
  6
CONTINUOUS
  0
VERTEX
 10
2.400000
 20
77.300000
 30
0.000000
  8
29
 62
7
  6
CONTINUOUS
  0
SEQEND
  0
CIRCLE
  8
29
 62
7
  6
CONTINUOUS
 10
14.500000
 20
79.100000
 30
0.0
 40
0.500000
  0
CIRCLE
  8
29
 62
7
  6
CONTINUOUS
 10
22.600000
 20
79.100000
 30
0.0
 40
0.300000
  0
SOLID
  8
29
 62
7
  6
CONTINUOUS
 10
14.500000
 20
78.800000
 11
14.500000
 21
79.400000
 12
22.600000
 22
78.800000
 13
22.600000
 23
79.400000
  0
POLYLINE
  8
29
 62
7
  6
CONTINUOUS
 70
1
 66
1
  0
VERTEX
 10
14.500000
 20
78.800000
 30
0.000000
  8
29
 62
7
  6
CONTINUOUS
  0
VERTEX
 10
14.500000
 20
79.400000
 30
0.000000
  8
29
 62
7
  6
CONTINUOUS
  0
VERTEX
 10
22.600000
 20
79.400000
 30
0.000000
  8
29
 62
7
  6
CONTINUOUS
  0
VERTEX
 10
22.600000
 20
78.800000
 30
0.000000
  8
29
 62
7
  6
CONTINUOUS
  0
SEQEND
  0
CIRCLE
  8
29
 62
7
  6
CONTINUOUS
 10
14.500000
 20
77.600000
 30
0.0
 40
0.500000
  0
CIRCLE
  8
29
 62
7
  6
CONTINUOUS
 10
22.600000
 20
77.600000
 30
0.0
 40
0.300000
  0
SOLID
  8
29
 62
7
  6
CONTINUOUS
 10
14.500000
 20
77.300000
 11
14.500000
 21
77.900000
 12
22.600000
 22
77.300000
 13
22.600000
 23
77.900000
  0
POLYLINE
  8
29
 62
7
  6
CONTINUOUS
 70
1
 66
1
  0
VERTEX
 10
14.500000
 20
77.300000
 30
0.000000
  8
29
 62
7
  6
CONTINUOUS
  0
VERTEX
 10
14.500000
 20
77.900000
 30
0.000000
  8
29
 62
7
  6
CONTINUOUS
  0
VERTEX
 10
22.600000
 20
77.900000
 30
0.000000
  8
29
 62
7
  6
CONTINUOUS
  0
VERTEX
 10
22.600000
 20
77.300000
 30
0.000000
  8
29
 62
7
  6
CONTINUOUS
  0
SEQEND
  0
CIRCLE
  8
29
 62
7
  6
CONTINUOUS
 10
12.500000
 20
79.100000
 30
0.0
 40
0.500000
  0
CIRCLE
  8
29
 62
7
  6
CONTINUOUS
 10
12.500000
 20
84.600000
 30
0.0
 40
0.400000
  0
SOLID
  8
29
 62
7
  6
CONTINUOUS
 10
12.200000
 20
80.000000
 11
12.200000
 21
83.300000
 12
12.800000
 22
80.000000
 13
12.800000
 23
83.300000
  0
POLYLINE
  8
29
 62
7
  6
CONTINUOUS
 70
1
 66
1
  0
VERTEX
 10
12.200000
 20
80.000000
 30
0.000000
  8
29
 62
7
  6
CONTINUOUS
  0
VERTEX
 10
12.200000
 20
83.300000
 30
0.000000
  8
29
 62
7
  6
CONTINUOUS
  0
VERTEX
 10
12.800000
 20
83.300000
 30
0.000000
  8
29
 62
7
  6
CONTINUOUS
  0
VERTEX
 10
12.800000
 20
80.000000
 30
0.000000
  8
29
 62
7
  6
CONTINUOUS
  0
SEQEND
  0
SOLID
  8
29
 62
7
  6
CONTINUOUS
 10
12.200000
 20
87.200000
 11
12.200000
 21
101.800000
 12
12.800000
 22
87.200000
 13
12.800000
 23
101.800000
  0
POLYLINE
  8
29
 62
7
  6
CONTINUOUS
 70
1
 66
1
  0
VERTEX
 10
12.200000
 20
87.200000
 30
0.000000
  8
29
 62
7
  6
CONTINUOUS
  0
VERTEX
 10
12.200000
 20
101.800000
 30
0.000000
  8
29
 62
7
  6
CONTINUOUS
  0
VERTEX
 10
12.800000
 20
101.800000
 30
0.000000
  8
29
 62
7
  6
CONTINUOUS
  0
VERTEX
 10
12.800000
 20
87.200000
 30
0.000000
  8
29
 62
7
  6
CONTINUOUS
  0
SEQEND
  0
CIRCLE
  8
29
 62
7
  6
CONTINUOUS
 10
12.500000
 20
87.100000
 30
0.0
 40
0.500000
  0
CIRCLE
  8
29
 62
7
  6
CONTINUOUS
 10
12.500000
 20
101.800000
 30
0.0
 40
0.300000
  0
CIRCLE
  8
29
 62
7
  6
CONTINUOUS
 10
12.500000
 20
83.300000
 30
0.0
 40
0.300000
  0
CIRCLE
  8
29
 62
7
  6
CONTINUOUS
 10
12.500000
 20
74.500000
 30
0.0
 40
0.300000
  0
SOLID
  8
29
 62
7
  6
CONTINUOUS
 10
12.200000
 20
74.500000
 11
12.200000
 21
76.800000
 12
12.800000
 22
74.500000
 13
12.800000
 23
76.800000
  0
POLYLINE
  8
29
 62
7
  6
CONTINUOUS
 70
1
 66
1
  0
VERTEX
 10
12.200000
 20
74.500000
 30
0.000000
  8
29
 62
7
  6
CONTINUOUS
  0
VERTEX
 10
12.200000
 20
76.800000
 30
0.000000
  8
29
 62
7
  6
CONTINUOUS
  0
VERTEX
 10
12.800000
 20
76.800000
 30
0.000000
  8
29
 62
7
  6
CONTINUOUS
  0
VERTEX
 10
12.800000
 20
74.500000
 30
0.000000
  8
29
 62
7
  6
CONTINUOUS
  0
SEQEND
  0
POLYLINE
  8
29
 62
7
  6
CONTINUOUS
 70
0
 66
1
  0
VERTEX
 10
11.500000
 20
45.000000
  8
29
 62
7
  6
CONTINUOUS
  0
VERTEX
 10
11.500000
 20
68.000000
  8
29
 62
7
  6
CONTINUOUS
  0
VERTEX
 10
13.500000
 20
68.000000
  8
29
 62
7
  6
CONTINUOUS
  0
VERTEX
 10
13.500000
 20
45.000000
  8
29
 62
7
  6
CONTINUOUS
  0
SEQEND
  0
POLYLINE
  8
29
 62
7
  6
CONTINUOUS
 70
0
 66
1
  0
VERTEX
 10
11.500000
 20
41.800000
  8
29
 62
7
  6
CONTINUOUS
  0
VERTEX
 10
11.500000
 20
38.000000
  8
29
 62
7
  6
CONTINUOUS
  0
SEQEND
  0
POLYLINE
  8
29
 62
7
  6
CONTINUOUS
 70
0
 66
1
  0
VERTEX
 10
13.500000
 20
41.800000
  8
29
 62
7
  6
CONTINUOUS
  0
VERTEX
 10
13.500000
 20
38.000000
  8
29
 62
7
  6
CONTINUOUS
  0
SEQEND
  0
POLYLINE
  8
29
 62
7
  6
CONTINUOUS
 70
1
 66
1
  0
VERTEX
 10
23.400000
 20
45.000000
 30
0.000000
  8
29
 62
7
  6
CONTINUOUS
  0
VERTEX
 10
23.400000
 20
41.800000
 30
0.000000
  8
29
 62
7
  6
CONTINUOUS
  0
VERTEX
 10
1.600000
 20
41.800000
 30
0.000000
  8
29
 62
7
  6
CONTINUOUS
  0
VERTEX
 10
1.600000
 20
45.000000
 30
0.000000
  8
29
 62
7
  6
CONTINUOUS
  0
SEQEND
  0
CIRCLE
  8
29
 62
7
  6
CONTINUOUS
 10
12.500000
 20
44.100000
 30
0.0
 40
0.500000
  0
CIRCLE
  8
29
 62
7
  6
CONTINUOUS
 10
10.500000
 20
44.100000
 30
0.0
 40
0.500000
  0
CIRCLE
  8
29
 62
7
  6
CONTINUOUS
 10
2.400000
 20
44.100000
 30
0.0
 40
0.300000
  0
SOLID
  8
29
 62
7
  6
CONTINUOUS
 10
10.500000
 20
43.800000
 11
10.500000
 21
44.400000
 12
2.400000
 22
43.800000
 13
2.400000
 23
44.400000
  0
POLYLINE
  8
29
 62
7
  6
CONTINUOUS
 70
1
 66
1
  0
VERTEX
 10
10.500000
 20
43.800000
 30
0.000000
  8
29
 62
7
  6
CONTINUOUS
  0
VERTEX
 10
10.500000
 20
44.400000
 30
0.000000
  8
29
 62
7
  6
CONTINUOUS
  0
VERTEX
 10
2.400000
 20
44.400000
 30
0.000000
  8
29
 62
7
  6
CONTINUOUS
  0
VERTEX
 10
2.400000
 20
43.800000
 30
0.000000
  8
29
 62
7
  6
CONTINUOUS
  0
SEQEND
  0
CIRCLE
  8
29
 62
7
  6
CONTINUOUS
 10
10.500000
 20
42.600000
 30
0.0
 40
0.500000
  0
CIRCLE
  8
29
 62
7
  6
CONTINUOUS
 10
2.400000
 20
42.600000
 30
0.0
 40
0.300000
  0
SOLID
  8
29
 62
7
  6
CONTINUOUS
 10
10.500000
 20
42.300000
 11
10.500000
 21
42.900000
 12
2.400000
 22
42.300000
 13
2.400000
 23
42.900000
  0
POLYLINE
  8
29
 62
7
  6
CONTINUOUS
 70
1
 66
1
  0
VERTEX
 10
10.500000
 20
42.300000
 30
0.000000
  8
29
 62
7
  6
CONTINUOUS
  0
VERTEX
 10
10.500000
 20
42.900000
 30
0.000000
  8
29
 62
7
  6
CONTINUOUS
  0
VERTEX
 10
2.400000
 20
42.900000
 30
0.000000
  8
29
 62
7
  6
CONTINUOUS
  0
VERTEX
 10
2.400000
 20
42.300000
 30
0.000000
  8
29
 62
7
  6
CONTINUOUS
  0
SEQEND
  0
CIRCLE
  8
29
 62
7
  6
CONTINUOUS
 10
14.500000
 20
44.100000
 30
0.0
 40
0.500000
  0
CIRCLE
  8
29
 62
7
  6
CONTINUOUS
 10
22.600000
 20
44.100000
 30
0.0
 40
0.300000
  0
SOLID
  8
29
 62
7
  6
CONTINUOUS
 10
14.500000
 20
43.800000
 11
14.500000
 21
44.400000
 12
22.600000
 22
43.800000
 13
22.600000
 23
44.400000
  0
POLYLINE
  8
29
 62
7
  6
CONTINUOUS
 70
1
 66
1
  0
VERTEX
 10
14.500000
 20
43.800000
 30
0.000000
  8
29
 62
7
  6
CONTINUOUS
  0
VERTEX
 10
14.500000
 20
44.400000
 30
0.000000
  8
29
 62
7
  6
CONTINUOUS
  0
VERTEX
 10
22.600000
 20
44.400000
 30
0.000000
  8
29
 62
7
  6
CONTINUOUS
  0
VERTEX
 10
22.600000
 20
43.800000
 30
0.000000
  8
29
 62
7
  6
CONTINUOUS
  0
SEQEND
  0
CIRCLE
  8
29
 62
7
  6
CONTINUOUS
 10
14.500000
 20
42.600000
 30
0.0
 40
0.500000
  0
CIRCLE
  8
29
 62
7
  6
CONTINUOUS
 10
22.600000
 20
42.600000
 30
0.0
 40
0.300000
  0
SOLID
  8
29
 62
7
  6
CONTINUOUS
 10
14.500000
 20
42.300000
 11
14.500000
 21
42.900000
 12
22.600000
 22
42.300000
 13
22.600000
 23
42.900000
  0
POLYLINE
  8
29
 62
7
  6
CONTINUOUS
 70
1
 66
1
  0
VERTEX
 10
14.500000
 20
42.300000
 30
0.000000
  8
29
 62
7
  6
CONTINUOUS
  0
VERTEX
 10
14.500000
 20
42.900000
 30
0.000000
  8
29
 62
7
  6
CONTINUOUS
  0
VERTEX
 10
22.600000
 20
42.900000
 30
0.000000
  8
29
 62
7
  6
CONTINUOUS
  0
VERTEX
 10
22.600000
 20
42.300000
 30
0.000000
  8
29
 62
7
  6
CONTINUOUS
  0
SEQEND
  0
CIRCLE
  8
29
 62
7
  6
CONTINUOUS
 10
12.500000
 20
44.100000
 30
0.0
 40
0.500000
  0
CIRCLE
  8
29
 62
7
  6
CONTINUOUS
 10
12.500000
 20
49.600000
 30
0.0
 40
0.400000
  0
SOLID
  8
29
 62
7
  6
CONTINUOUS
 10
12.200000
 20
45.000000
 11
12.200000
 21
48.300000
 12
12.800000
 22
45.000000
 13
12.800000
 23
48.300000
  0
POLYLINE
  8
29
 62
7
  6
CONTINUOUS
 70
1
 66
1
  0
VERTEX
 10
12.200000
 20
45.000000
 30
0.000000
  8
29
 62
7
  6
CONTINUOUS
  0
VERTEX
 10
12.200000
 20
48.300000
 30
0.000000
  8
29
 62
7
  6
CONTINUOUS
  0
VERTEX
 10
12.800000
 20
48.300000
 30
0.000000
  8
29
 62
7
  6
CONTINUOUS
  0
VERTEX
 10
12.800000
 20
45.000000
 30
0.000000
  8
29
 62
7
  6
CONTINUOUS
  0
SEQEND
  0
SOLID
  8
29
 62
7
  6
CONTINUOUS
 10
12.200000
 20
52.200000
 11
12.200000
 21
66.800000
 12
12.800000
 22
52.200000
 13
12.800000
 23
66.800000
  0
POLYLINE
  8
29
 62
7
  6
CONTINUOUS
 70
1
 66
1
  0
VERTEX
 10
12.200000
 20
52.200000
 30
0.000000
  8
29
 62
7
  6
CONTINUOUS
  0
VERTEX
 10
12.200000
 20
66.800000
 30
0.000000
  8
29
 62
7
  6
CONTINUOUS
  0
VERTEX
 10
12.800000
 20
66.800000
 30
0.000000
  8
29
 62
7
  6
CONTINUOUS
  0
VERTEX
 10
12.800000
 20
52.200000
 30
0.000000
  8
29
 62
7
  6
CONTINUOUS
  0
SEQEND
  0
CIRCLE
  8
29
 62
7
  6
CONTINUOUS
 10
12.500000
 20
52.100000
 30
0.0
 40
0.500000
  0
CIRCLE
  8
29
 62
7
  6
CONTINUOUS
 10
12.500000
 20
66.800000
 30
0.0
 40
0.300000
  0
CIRCLE
  8
29
 62
7
  6
CONTINUOUS
 10
12.500000
 20
48.300000
 30
0.0
 40
0.300000
  0
CIRCLE
  8
29
 62
7
  6
CONTINUOUS
 10
12.500000
 20
39.500000
 30
0.0
 40
0.300000
  0
SOLID
  8
29
 62
7
  6
CONTINUOUS
 10
12.200000
 20
39.500000
 11
12.200000
 21
41.800000
 12
12.800000
 22
39.500000
 13
12.800000
 23
41.800000
  0
POLYLINE
  8
29
 62
7
  6
CONTINUOUS
 70
1
 66
1
  0
VERTEX
 10
12.200000
 20
39.500000
 30
0.000000
  8
29
 62
7
  6
CONTINUOUS
  0
VERTEX
 10
12.200000
 20
41.800000
 30
0.000000
  8
29
 62
7
  6
CONTINUOUS
  0
VERTEX
 10
12.800000
 20
41.800000
 30
0.000000
  8
29
 62
7
  6
CONTINUOUS
  0
VERTEX
 10
12.800000
 20
39.500000
 30
0.000000
  8
29
 62
7
  6
CONTINUOUS
  0
SEQEND
  0
POLYLINE
  8
29
 62
7
  6
CONTINUOUS
 70
0
 66
1
  0
VERTEX
 10
25.000000
 20
0.300000
  8
29
 62
7
  6
CONTINUOUS
  0
VERTEX
 10
25.000000
 20
134.800000
  8
29
 62
7
  6
CONTINUOUS
  0
SEQEND
  0
POLYLINE
  8
29
 62
7
  6
CONTINUOUS
 70
0
 66
1
  0
VERTEX
 10
25.000000
 20
75.000000
  8
29
 62
7
  6
CONTINUOUS
  0
VERTEX
 10
49.800000
 20
75.000000
  8
29
 62
7
  6
CONTINUOUS
  0
SEQEND
  0
POLYLINE
  8
29
 62
7
  6
CONTINUOUS
 70
1
 66
1
  0
VERTEX
 10
48.300000
 20
114.800000
 30
0.000000
  8
29
 62
7
  6
CONTINUOUS
  0
VERTEX
 10
48.300000
 20
110.200000
 30
0.000000
  8
29
 62
7
  6
CONTINUOUS
  0
VERTEX
 10
26.700000
 20
110.200000
 30
0.000000
  8
29
 62
7
  6
CONTINUOUS
  0
VERTEX
 10
26.700000
 20
114.800000
 30
0.000000
  8
29
 62
7
  6
CONTINUOUS
  0
SEQEND
  0
POLYLINE
  8
29
 62
7
  6
CONTINUOUS
 70
0
 66
1
  0
VERTEX
 10
28.500000
 20
122.700000
  8
29
 62
7
  6
CONTINUOUS
  0
VERTEX
 10
28.500000
 20
123.800000
  8
29
 62
7
  6
CONTINUOUS
  0
SEQEND
  0
POLYLINE
  8
29
 62
7
  6
CONTINUOUS
 70
0
 66
1
  0
VERTEX
 10
28.500000
 20
110.300000
  8
29
 62
7
  6
CONTINUOUS
  0
VERTEX
 10
28.500000
 20
111.400000
  8
29
 62
7
  6
CONTINUOUS
  0
SEQEND
  0
POLYLINE
  8
29
 62
7
  6
CONTINUOUS
 70
0
 66
1
  0
VERTEX
 10
30.300000
 20
110.300000
  8
29
 62
7
  6
CONTINUOUS
  0
VERTEX
 10
30.300000
 20
111.400000
  8
29
 62
7
  6
CONTINUOUS
  0
VERTEX
 10
30.300000
 20
111.400000
  8
29
 62
7
  6
CONTINUOUS
  0
SEQEND
  0
POLYLINE
  8
29
 62
7
  6
CONTINUOUS
 70
0
 66
1
  0
VERTEX
 10
32.100000
 20
110.300000
  8
29
 62
7
  6
CONTINUOUS
  0
VERTEX
 10
32.100000
 20
111.400000
  8
29
 62
7
  6
CONTINUOUS
  0
SEQEND
  0
POLYLINE
  8
29
 62
7
  6
CONTINUOUS
 70
0
 66
1
  0
VERTEX
 10
33.900000
 20
110.300000
  8
29
 62
7
  6
CONTINUOUS
  0
VERTEX
 10
33.900000
 20
111.400000
  8
29
 62
7
  6
CONTINUOUS
  0
SEQEND
  0
POLYLINE
  8
29
 62
7
  6
CONTINUOUS
 70
0
 66
1
  0
VERTEX
 10
35.700000
 20
110.300000
  8
29
 62
7
  6
CONTINUOUS
  0
VERTEX
 10
35.700000
 20
111.400000
  8
29
 62
7
  6
CONTINUOUS
  0
SEQEND
  0
POLYLINE
  8
29
 62
7
  6
CONTINUOUS
 70
0
 66
1
  0
VERTEX
 10
37.500000
 20
110.300000
  8
29
 62
7
  6
CONTINUOUS
  0
VERTEX
 10
37.500000
 20
111.400000
  8
29
 62
7
  6
CONTINUOUS
  0
SEQEND
  0
POLYLINE
  8
29
 62
7
  6
CONTINUOUS
 70
0
 66
1
  0
VERTEX
 10
39.300000
 20
110.300000
  8
29
 62
7
  6
CONTINUOUS
  0
VERTEX
 10
39.300000
 20
111.400000
  8
29
 62
7
  6
CONTINUOUS
  0
SEQEND
  0
POLYLINE
  8
29
 62
7
  6
CONTINUOUS
 70
0
 66
1
  0
VERTEX
 10
41.100000
 20
110.300000
  8
29
 62
7
  6
CONTINUOUS
  0
VERTEX
 10
41.100000
 20
111.400000
  8
29
 62
7
  6
CONTINUOUS
  0
SEQEND
  0
POLYLINE
  8
29
 62
7
  6
CONTINUOUS
 70
0
 66
1
  0
VERTEX
 10
42.900000
 20
110.300000
  8
29
 62
7
  6
CONTINUOUS
  0
VERTEX
 10
42.900000
 20
111.400000
  8
29
 62
7
  6
CONTINUOUS
  0
SEQEND
  0
POLYLINE
  8
29
 62
7
  6
CONTINUOUS
 70
0
 66
1
  0
VERTEX
 10
44.700000
 20
110.300000
  8
29
 62
7
  6
CONTINUOUS
  0
VERTEX
 10
44.700000
 20
111.400000
  8
29
 62
7
  6
CONTINUOUS
  0
SEQEND
  0
POLYLINE
  8
29
 62
7
  6
CONTINUOUS
 70
0
 66
1
  0
VERTEX
 10
46.500000
 20
110.300000
  8
29
 62
7
  6
CONTINUOUS
  0
VERTEX
 10
46.500000
 20
111.400000
  8
29
 62
7
  6
CONTINUOUS
  0
SEQEND
  0
POLYLINE
  8
29
 62
7
  6
CONTINUOUS
 70
1
 66
1
  0
VERTEX
 10
48.300000
 20
127.300000
 30
0.000000
  8
29
 62
7
  6
CONTINUOUS
  0
VERTEX
 10
48.300000
 20
122.700000
 30
0.000000
  8
29
 62
7
  6
CONTINUOUS
  0
VERTEX
 10
26.700000
 20
122.700000
 30
0.000000
  8
29
 62
7
  6
CONTINUOUS
  0
VERTEX
 10
26.700000
 20
127.300000
 30
0.000000
  8
29
 62
7
  6
CONTINUOUS
  0
SEQEND
  0
POLYLINE
  8
29
 62
7
  6
CONTINUOUS
 70
0
 66
1
  0
VERTEX
 10
30.300000
 20
122.700000
  8
29
 62
7
  6
CONTINUOUS
  0
VERTEX
 10
30.300000
 20
123.800000
  8
29
 62
7
  6
CONTINUOUS
  0
VERTEX
 10
30.300000
 20
123.800000
  8
29
 62
7
  6
CONTINUOUS
  0
SEQEND
  0
POLYLINE
  8
29
 62
7
  6
CONTINUOUS
 70
0
 66
1
  0
VERTEX
 10
32.100000
 20
122.700000
  8
29
 62
7
  6
CONTINUOUS
  0
VERTEX
 10
32.100000
 20
123.800000
  8
29
 62
7
  6
CONTINUOUS
  0
SEQEND
  0
POLYLINE
  8
29
 62
7
  6
CONTINUOUS
 70
0
 66
1
  0
VERTEX
 10
33.900000
 20
122.700000
  8
29
 62
7
  6
CONTINUOUS
  0
VERTEX
 10
33.900000
 20
123.800000
  8
29
 62
7
  6
CONTINUOUS
  0
SEQEND
  0
POLYLINE
  8
29
 62
7
  6
CONTINUOUS
 70
0
 66
1
  0
VERTEX
 10
35.700000
 20
122.700000
  8
29
 62
7
  6
CONTINUOUS
  0
VERTEX
 10
35.700000
 20
123.800000
  8
29
 62
7
  6
CONTINUOUS
  0
SEQEND
  0
POLYLINE
  8
29
 62
7
  6
CONTINUOUS
 70
0
 66
1
  0
VERTEX
 10
37.500000
 20
122.700000
  8
29
 62
7
  6
CONTINUOUS
  0
VERTEX
 10
37.500000
 20
123.800000
  8
29
 62
7
  6
CONTINUOUS
  0
SEQEND
  0
POLYLINE
  8
29
 62
7
  6
CONTINUOUS
 70
0
 66
1
  0
VERTEX
 10
39.300000
 20
122.700000
  8
29
 62
7
  6
CONTINUOUS
  0
VERTEX
 10
39.300000
 20
123.800000
  8
29
 62
7
  6
CONTINUOUS
  0
SEQEND
  0
POLYLINE
  8
29
 62
7
  6
CONTINUOUS
 70
0
 66
1
  0
VERTEX
 10
41.100000
 20
122.700000
  8
29
 62
7
  6
CONTINUOUS
  0
VERTEX
 10
41.100000
 20
123.800000
  8
29
 62
7
  6
CONTINUOUS
  0
SEQEND
  0
POLYLINE
  8
29
 62
7
  6
CONTINUOUS
 70
0
 66
1
  0
VERTEX
 10
42.900000
 20
122.700000
  8
29
 62
7
  6
CONTINUOUS
  0
VERTEX
 10
42.900000
 20
123.800000
  8
29
 62
7
  6
CONTINUOUS
  0
SEQEND
  0
POLYLINE
  8
29
 62
7
  6
CONTINUOUS
 70
0
 66
1
  0
VERTEX
 10
44.700000
 20
122.700000
  8
29
 62
7
  6
CONTINUOUS
  0
VERTEX
 10
44.700000
 20
123.800000
  8
29
 62
7
  6
CONTINUOUS
  0
SEQEND
  0
POLYLINE
  8
29
 62
7
  6
CONTINUOUS
 70
0
 66
1
  0
VERTEX
 10
46.500000
 20
122.700000
  8
29
 62
7
  6
CONTINUOUS
  0
VERTEX
 10
46.500000
 20
123.800000
  8
29
 62
7
  6
CONTINUOUS
  0
SEQEND
  0
POLYLINE
  8
29
 62
7
  6
CONTINUOUS
 70
0
 66
1
  0
VERTEX
 10
28.500000
 20
110.200000
  8
29
 62
7
  6
CONTINUOUS
  0
VERTEX
 10
28.500000
 20
111.300000
  8
29
 62
7
  6
CONTINUOUS
  0
SEQEND
  0
POLYLINE
  8
29
 62
7
  6
CONTINUOUS
 70
0
 66
1
  0
VERTEX
 10
30.300000
 20
110.200000
  8
29
 62
7
  6
CONTINUOUS
  0
VERTEX
 10
30.300000
 20
111.300000
  8
29
 62
7
  6
CONTINUOUS
  0
VERTEX
 10
30.300000
 20
111.300000
  8
29
 62
7
  6
CONTINUOUS
  0
SEQEND
  0
POLYLINE
  8
29
 62
7
  6
CONTINUOUS
 70
0
 66
1
  0
VERTEX
 10
32.100000
 20
110.200000
  8
29
 62
7
  6
CONTINUOUS
  0
VERTEX
 10
32.100000
 20
111.300000
  8
29
 62
7
  6
CONTINUOUS
  0
SEQEND
  0
POLYLINE
  8
29
 62
7
  6
CONTINUOUS
 70
0
 66
1
  0
VERTEX
 10
33.900000
 20
110.200000
  8
29
 62
7
  6
CONTINUOUS
  0
VERTEX
 10
33.900000
 20
111.300000
  8
29
 62
7
  6
CONTINUOUS
  0
SEQEND
  0
POLYLINE
  8
29
 62
7
  6
CONTINUOUS
 70
0
 66
1
  0
VERTEX
 10
35.700000
 20
110.200000
  8
29
 62
7
  6
CONTINUOUS
  0
VERTEX
 10
35.700000
 20
111.300000
  8
29
 62
7
  6
CONTINUOUS
  0
SEQEND
  0
POLYLINE
  8
29
 62
7
  6
CONTINUOUS
 70
0
 66
1
  0
VERTEX
 10
37.500000
 20
110.200000
  8
29
 62
7
  6
CONTINUOUS
  0
VERTEX
 10
37.500000
 20
111.300000
  8
29
 62
7
  6
CONTINUOUS
  0
SEQEND
  0
POLYLINE
  8
29
 62
7
  6
CONTINUOUS
 70
0
 66
1
  0
VERTEX
 10
39.300000
 20
110.200000
  8
29
 62
7
  6
CONTINUOUS
  0
VERTEX
 10
39.300000
 20
111.300000
  8
29
 62
7
  6
CONTINUOUS
  0
SEQEND
  0
POLYLINE
  8
29
 62
7
  6
CONTINUOUS
 70
0
 66
1
  0
VERTEX
 10
41.100000
 20
110.200000
  8
29
 62
7
  6
CONTINUOUS
  0
VERTEX
 10
41.100000
 20
111.300000
  8
29
 62
7
  6
CONTINUOUS
  0
SEQEND
  0
POLYLINE
  8
29
 62
7
  6
CONTINUOUS
 70
0
 66
1
  0
VERTEX
 10
42.900000
 20
110.200000
  8
29
 62
7
  6
CONTINUOUS
  0
VERTEX
 10
42.900000
 20
111.300000
  8
29
 62
7
  6
CONTINUOUS
  0
SEQEND
  0
POLYLINE
  8
29
 62
7
  6
CONTINUOUS
 70
0
 66
1
  0
VERTEX
 10
44.700000
 20
110.200000
  8
29
 62
7
  6
CONTINUOUS
  0
VERTEX
 10
44.700000
 20
111.300000
  8
29
 62
7
  6
CONTINUOUS
  0
SEQEND
  0
POLYLINE
  8
29
 62
7
  6
CONTINUOUS
 70
0
 66
1
  0
VERTEX
 10
46.500000
 20
110.200000
  8
29
 62
7
  6
CONTINUOUS
  0
VERTEX
 10
46.500000
 20
111.300000
  8
29
 62
7
  6
CONTINUOUS
  0
SEQEND
  0
POLYLINE
  8
29
 62
7
  6
CONTINUOUS
 70
0
 66
1
  0
VERTEX
 10
28.500000
 20
110.300000
  8
29
 62
7
  6
CONTINUOUS
  0
VERTEX
 10
28.500000
 20
111.400000
  8
29
 62
7
  6
CONTINUOUS
  0
SEQEND
  0
POLYLINE
  8
29
 62
7
  6
CONTINUOUS
 70
0
 66
1
  0
VERTEX
 10
30.300000
 20
110.300000
  8
29
 62
7
  6
CONTINUOUS
  0
VERTEX
 10
30.300000
 20
111.400000
  8
29
 62
7
  6
CONTINUOUS
  0
VERTEX
 10
30.300000
 20
111.400000
  8
29
 62
7
  6
CONTINUOUS
  0
SEQEND
  0
POLYLINE
  8
29
 62
7
  6
CONTINUOUS
 70
0
 66
1
  0
VERTEX
 10
32.100000
 20
110.300000
  8
29
 62
7
  6
CONTINUOUS
  0
VERTEX
 10
32.100000
 20
111.400000
  8
29
 62
7
  6
CONTINUOUS
  0
SEQEND
  0
POLYLINE
  8
29
 62
7
  6
CONTINUOUS
 70
0
 66
1
  0
VERTEX
 10
33.900000
 20
110.300000
  8
29
 62
7
  6
CONTINUOUS
  0
VERTEX
 10
33.900000
 20
111.400000
  8
29
 62
7
  6
CONTINUOUS
  0
SEQEND
  0
POLYLINE
  8
29
 62
7
  6
CONTINUOUS
 70
0
 66
1
  0
VERTEX
 10
35.700000
 20
110.300000
  8
29
 62
7
  6
CONTINUOUS
  0
VERTEX
 10
35.700000
 20
111.400000
  8
29
 62
7
  6
CONTINUOUS
  0
SEQEND
  0
POLYLINE
  8
29
 62
7
  6
CONTINUOUS
 70
0
 66
1
  0
VERTEX
 10
37.500000
 20
110.300000
  8
29
 62
7
  6
CONTINUOUS
  0
VERTEX
 10
37.500000
 20
111.400000
  8
29
 62
7
  6
CONTINUOUS
  0
SEQEND
  0
POLYLINE
  8
29
 62
7
  6
CONTINUOUS
 70
0
 66
1
  0
VERTEX
 10
39.300000
 20
110.300000
  8
29
 62
7
  6
CONTINUOUS
  0
VERTEX
 10
39.300000
 20
111.400000
  8
29
 62
7
  6
CONTINUOUS
  0
SEQEND
  0
POLYLINE
  8
29
 62
7
  6
CONTINUOUS
 70
0
 66
1
  0
VERTEX
 10
41.100000
 20
110.300000
  8
29
 62
7
  6
CONTINUOUS
  0
VERTEX
 10
41.100000
 20
111.400000
  8
29
 62
7
  6
CONTINUOUS
  0
SEQEND
  0
POLYLINE
  8
29
 62
7
  6
CONTINUOUS
 70
0
 66
1
  0
VERTEX
 10
42.900000
 20
110.300000
  8
29
 62
7
  6
CONTINUOUS
  0
VERTEX
 10
42.900000
 20
111.400000
  8
29
 62
7
  6
CONTINUOUS
  0
SEQEND
  0
POLYLINE
  8
29
 62
7
  6
CONTINUOUS
 70
0
 66
1
  0
VERTEX
 10
44.700000
 20
110.300000
  8
29
 62
7
  6
CONTINUOUS
  0
VERTEX
 10
44.700000
 20
111.400000
  8
29
 62
7
  6
CONTINUOUS
  0
SEQEND
  0
POLYLINE
  8
29
 62
7
  6
CONTINUOUS
 70
0
 66
1
  0
VERTEX
 10
46.500000
 20
110.300000
  8
29
 62
7
  6
CONTINUOUS
  0
VERTEX
 10
46.500000
 20
111.400000
  8
29
 62
7
  6
CONTINUOUS
  0
SEQEND
  0
POLYLINE
  8
29
 62
7
  6
CONTINUOUS
 70
1
 66
1
  0
VERTEX
 10
48.300000
 20
97.300000
 30
0.000000
  8
29
 62
7
  6
CONTINUOUS
  0
VERTEX
 10
48.300000
 20
92.700000
 30
0.000000
  8
29
 62
7
  6
CONTINUOUS
  0
VERTEX
 10
26.700000
 20
92.700000
 30
0.000000
  8
29
 62
7
  6
CONTINUOUS
  0
VERTEX
 10
26.700000
 20
97.300000
 30
0.000000
  8
29
 62
7
  6
CONTINUOUS
  0
SEQEND
  0
POLYLINE
  8
29
 62
7
  6
CONTINUOUS
 70
0
 66
1
  0
VERTEX
 10
28.500000
 20
92.700000
  8
29
 62
7
  6
CONTINUOUS
  0
VERTEX
 10
28.500000
 20
93.800000
  8
29
 62
7
  6
CONTINUOUS
  0
SEQEND
  0
POLYLINE
  8
29
 62
7
  6
CONTINUOUS
 70
0
 66
1
  0
VERTEX
 10
30.300000
 20
92.700000
  8
29
 62
7
  6
CONTINUOUS
  0
VERTEX
 10
30.300000
 20
93.800000
  8
29
 62
7
  6
CONTINUOUS
  0
VERTEX
 10
30.300000
 20
93.800000
  8
29
 62
7
  6
CONTINUOUS
  0
SEQEND
  0
POLYLINE
  8
29
 62
7
  6
CONTINUOUS
 70
0
 66
1
  0
VERTEX
 10
32.100000
 20
92.700000
  8
29
 62
7
  6
CONTINUOUS
  0
VERTEX
 10
32.100000
 20
93.800000
  8
29
 62
7
  6
CONTINUOUS
  0
SEQEND
  0
POLYLINE
  8
29
 62
7
  6
CONTINUOUS
 70
0
 66
1
  0
VERTEX
 10
33.900000
 20
92.700000
  8
29
 62
7
  6
CONTINUOUS
  0
VERTEX
 10
33.900000
 20
93.800000
  8
29
 62
7
  6
CONTINUOUS
  0
SEQEND
  0
POLYLINE
  8
29
 62
7
  6
CONTINUOUS
 70
0
 66
1
  0
VERTEX
 10
35.700000
 20
92.700000
  8
29
 62
7
  6
CONTINUOUS
  0
VERTEX
 10
35.700000
 20
93.800000
  8
29
 62
7
  6
CONTINUOUS
  0
SEQEND
  0
POLYLINE
  8
29
 62
7
  6
CONTINUOUS
 70
0
 66
1
  0
VERTEX
 10
37.500000
 20
92.700000
  8
29
 62
7
  6
CONTINUOUS
  0
VERTEX
 10
37.500000
 20
93.800000
  8
29
 62
7
  6
CONTINUOUS
  0
SEQEND
  0
POLYLINE
  8
29
 62
7
  6
CONTINUOUS
 70
0
 66
1
  0
VERTEX
 10
39.300000
 20
92.700000
  8
29
 62
7
  6
CONTINUOUS
  0
VERTEX
 10
39.300000
 20
93.800000
  8
29
 62
7
  6
CONTINUOUS
  0
SEQEND
  0
POLYLINE
  8
29
 62
7
  6
CONTINUOUS
 70
0
 66
1
  0
VERTEX
 10
41.100000
 20
92.700000
  8
29
 62
7
  6
CONTINUOUS
  0
VERTEX
 10
41.100000
 20
93.800000
  8
29
 62
7
  6
CONTINUOUS
  0
SEQEND
  0
POLYLINE
  8
29
 62
7
  6
CONTINUOUS
 70
0
 66
1
  0
VERTEX
 10
42.900000
 20
92.700000
  8
29
 62
7
  6
CONTINUOUS
  0
VERTEX
 10
42.900000
 20
93.800000
  8
29
 62
7
  6
CONTINUOUS
  0
SEQEND
  0
POLYLINE
  8
29
 62
7
  6
CONTINUOUS
 70
0
 66
1
  0
VERTEX
 10
44.700000
 20
92.700000
  8
29
 62
7
  6
CONTINUOUS
  0
VERTEX
 10
44.700000
 20
93.800000
  8
29
 62
7
  6
CONTINUOUS
  0
SEQEND
  0
POLYLINE
  8
29
 62
7
  6
CONTINUOUS
 70
0
 66
1
  0
VERTEX
 10
46.500000
 20
92.700000
  8
29
 62
7
  6
CONTINUOUS
  0
VERTEX
 10
46.500000
 20
93.800000
  8
29
 62
7
  6
CONTINUOUS
  0
SEQEND
  0
POLYLINE
  8
29
 62
7
  6
CONTINUOUS
 70
1
 66
1
  0
VERTEX
 10
48.300000
 20
84.800000
 30
0.000000
  8
29
 62
7
  6
CONTINUOUS
  0
VERTEX
 10
48.300000
 20
80.200000
 30
0.000000
  8
29
 62
7
  6
CONTINUOUS
  0
VERTEX
 10
26.700000
 20
80.200000
 30
0.000000
  8
29
 62
7
  6
CONTINUOUS
  0
VERTEX
 10
26.700000
 20
84.800000
 30
0.000000
  8
29
 62
7
  6
CONTINUOUS
  0
SEQEND
  0
POLYLINE
  8
29
 62
7
  6
CONTINUOUS
 70
0
 66
1
  0
VERTEX
 10
28.500000
 20
80.200000
  8
29
 62
7
  6
CONTINUOUS
  0
VERTEX
 10
28.500000
 20
81.300000
  8
29
 62
7
  6
CONTINUOUS
  0
SEQEND
  0
POLYLINE
  8
29
 62
7
  6
CONTINUOUS
 70
0
 66
1
  0
VERTEX
 10
30.300000
 20
80.200000
  8
29
 62
7
  6
CONTINUOUS
  0
VERTEX
 10
30.300000
 20
81.300000
  8
29
 62
7
  6
CONTINUOUS
  0
VERTEX
 10
30.300000
 20
81.300000
  8
29
 62
7
  6
CONTINUOUS
  0
SEQEND
  0
POLYLINE
  8
29
 62
7
  6
CONTINUOUS
 70
0
 66
1
  0
VERTEX
 10
32.100000
 20
80.200000
  8
29
 62
7
  6
CONTINUOUS
  0
VERTEX
 10
32.100000
 20
81.300000
  8
29
 62
7
  6
CONTINUOUS
  0
SEQEND
  0
POLYLINE
  8
29
 62
7
  6
CONTINUOUS
 70
0
 66
1
  0
VERTEX
 10
33.900000
 20
80.200000
  8
29
 62
7
  6
CONTINUOUS
  0
VERTEX
 10
33.900000
 20
81.300000
  8
29
 62
7
  6
CONTINUOUS
  0
SEQEND
  0
POLYLINE
  8
29
 62
7
  6
CONTINUOUS
 70
0
 66
1
  0
VERTEX
 10
35.700000
 20
80.200000
  8
29
 62
7
  6
CONTINUOUS
  0
VERTEX
 10
35.700000
 20
81.300000
  8
29
 62
7
  6
CONTINUOUS
  0
SEQEND
  0
POLYLINE
  8
29
 62
7
  6
CONTINUOUS
 70
0
 66
1
  0
VERTEX
 10
37.500000
 20
80.200000
  8
29
 62
7
  6
CONTINUOUS
  0
VERTEX
 10
37.500000
 20
81.300000
  8
29
 62
7
  6
CONTINUOUS
  0
SEQEND
  0
POLYLINE
  8
29
 62
7
  6
CONTINUOUS
 70
0
 66
1
  0
VERTEX
 10
39.300000
 20
80.200000
  8
29
 62
7
  6
CONTINUOUS
  0
VERTEX
 10
39.300000
 20
81.300000
  8
29
 62
7
  6
CONTINUOUS
  0
SEQEND
  0
POLYLINE
  8
29
 62
7
  6
CONTINUOUS
 70
0
 66
1
  0
VERTEX
 10
41.100000
 20
80.200000
  8
29
 62
7
  6
CONTINUOUS
  0
VERTEX
 10
41.100000
 20
81.300000
  8
29
 62
7
  6
CONTINUOUS
  0
SEQEND
  0
POLYLINE
  8
29
 62
7
  6
CONTINUOUS
 70
0
 66
1
  0
VERTEX
 10
42.900000
 20
80.200000
  8
29
 62
7
  6
CONTINUOUS
  0
VERTEX
 10
42.900000
 20
81.300000
  8
29
 62
7
  6
CONTINUOUS
  0
SEQEND
  0
POLYLINE
  8
29
 62
7
  6
CONTINUOUS
 70
0
 66
1
  0
VERTEX
 10
44.700000
 20
80.200000
  8
29
 62
7
  6
CONTINUOUS
  0
VERTEX
 10
44.700000
 20
81.300000
  8
29
 62
7
  6
CONTINUOUS
  0
SEQEND
  0
POLYLINE
  8
29
 62
7
  6
CONTINUOUS
 70
0
 66
1
  0
VERTEX
 10
46.500000
 20
80.200000
  8
29
 62
7
  6
CONTINUOUS
  0
VERTEX
 10
46.500000
 20
81.300000
  8
29
 62
7
  6
CONTINUOUS
  0
SEQEND
  0
POLYLINE
  8
29
 62
7
  6
CONTINUOUS
 70
0
 66
1
  0
VERTEX
 10
25.000000
 20
105.000000
  8
29
 62
7
  6
CONTINUOUS
  0
VERTEX
 10
49.800000
 20
105.000000
  8
29
 62
7
  6
CONTINUOUS
  0
SEQEND
  0
LINE
  8
29
 62
7
  6
CONTINUOUS
 10
44.000000
 20
39.000000
 11
31.000000
 21
43.000000
  0
LINE
  8
29
 62
7
  6
CONTINUOUS
 10
31.000000
 20
39.000000
 11
44.000000
 21
43.000000
  0
POLYLINE
  8
29
 62
7
  6
CONTINUOUS
 70
1
 66
1
  0
VERTEX
 10
44.000000
 20
43.000000
 30
0.000000
  8
29
 62
7
  6
CONTINUOUS
  0
VERTEX
 10
44.000000
 20
39.000000
 30
0.000000
  8
29
 62
7
  6
CONTINUOUS
  0
VERTEX
 10
31.000000
 20
39.000000
 30
0.000000
  8
29
 62
7
  6
CONTINUOUS
  0
VERTEX
 10
31.000000
 20
43.000000
 30
0.000000
  8
29
 62
7
  6
CONTINUOUS
  0
SEQEND
  0
LINE
  8
29
 62
7
  6
CONTINUOUS
 10
44.000000
 20
39.000000
 11
31.000000
 21
43.000000
  0
LINE
  8
29
 62
7
  6
CONTINUOUS
 10
44.000000
 20
43.000000
 11
31.000000
 21
39.000000
  0
POLYLINE
  8
29
 62
7
  6
CONTINUOUS
 70
0
 66
1
  0
VERTEX
 10
36.500000
 20
50.000000
  8
29
 62
7
  6
CONTINUOUS
  0
VERTEX
 10
36.500000
 20
73.000000
  8
29
 62
7
  6
CONTINUOUS
  0
VERTEX
 10
38.500000
 20
73.000000
  8
29
 62
7
  6
CONTINUOUS
  0
VERTEX
 10
38.500000
 20
50.000000
  8
29
 62
7
  6
CONTINUOUS
  0
SEQEND
  0
POLYLINE
  8
29
 62
7
  6
CONTINUOUS
 70
0
 66
1
  0
VERTEX
 10
36.500000
 20
46.800000
  8
29
 62
7
  6
CONTINUOUS
  0
VERTEX
 10
36.500000
 20
43.000000
  8
29
 62
7
  6
CONTINUOUS
  0
SEQEND
  0
POLYLINE
  8
29
 62
7
  6
CONTINUOUS
 70
0
 66
1
  0
VERTEX
 10
38.500000
 20
46.800000
  8
29
 62
7
  6
CONTINUOUS
  0
VERTEX
 10
38.500000
 20
43.000000
  8
29
 62
7
  6
CONTINUOUS
  0
SEQEND
  0
POLYLINE
  8
29
 62
7
  6
CONTINUOUS
 70
1
 66
1
  0
VERTEX
 10
48.400000
 20
50.000000
 30
0.000000
  8
29
 62
7
  6
CONTINUOUS
  0
VERTEX
 10
48.400000
 20
46.800000
 30
0.000000
  8
29
 62
7
  6
CONTINUOUS
  0
VERTEX
 10
26.600000
 20
46.800000
 30
0.000000
  8
29
 62
7
  6
CONTINUOUS
  0
VERTEX
 10
26.600000
 20
50.000000
 30
0.000000
  8
29
 62
7
  6
CONTINUOUS
  0
SEQEND
  0
CIRCLE
  8
29
 62
7
  6
CONTINUOUS
 10
37.500000
 20
49.100000
 30
0.0
 40
0.500000
  0
CIRCLE
  8
29
 62
7
  6
CONTINUOUS
 10
35.500000
 20
49.100000
 30
0.0
 40
0.500000
  0
CIRCLE
  8
29
 62
7
  6
CONTINUOUS
 10
27.400000
 20
49.100000
 30
0.0
 40
0.300000
  0
SOLID
  8
29
 62
7
  6
CONTINUOUS
 10
35.500000
 20
48.800000
 11
35.500000
 21
49.400000
 12
27.400000
 22
48.800000
 13
27.400000
 23
49.400000
  0
POLYLINE
  8
29
 62
7
  6
CONTINUOUS
 70
1
 66
1
  0
VERTEX
 10
35.500000
 20
48.800000
 30
0.000000
  8
29
 62
7
  6
CONTINUOUS
  0
VERTEX
 10
35.500000
 20
49.400000
 30
0.000000
  8
29
 62
7
  6
CONTINUOUS
  0
VERTEX
 10
27.400000
 20
49.400000
 30
0.000000
  8
29
 62
7
  6
CONTINUOUS
  0
VERTEX
 10
27.400000
 20
48.800000
 30
0.000000
  8
29
 62
7
  6
CONTINUOUS
  0
SEQEND
  0
CIRCLE
  8
29
 62
7
  6
CONTINUOUS
 10
35.500000
 20
47.600000
 30
0.0
 40
0.500000
  0
CIRCLE
  8
29
 62
7
  6
CONTINUOUS
 10
27.400000
 20
47.600000
 30
0.0
 40
0.300000
  0
SOLID
  8
29
 62
7
  6
CONTINUOUS
 10
35.500000
 20
47.300000
 11
35.500000
 21
47.900000
 12
27.400000
 22
47.300000
 13
27.400000
 23
47.900000
  0
POLYLINE
  8
29
 62
7
  6
CONTINUOUS
 70
1
 66
1
  0
VERTEX
 10
35.500000
 20
47.300000
 30
0.000000
  8
29
 62
7
  6
CONTINUOUS
  0
VERTEX
 10
35.500000
 20
47.900000
 30
0.000000
  8
29
 62
7
  6
CONTINUOUS
  0
VERTEX
 10
27.400000
 20
47.900000
 30
0.000000
  8
29
 62
7
  6
CONTINUOUS
  0
VERTEX
 10
27.400000
 20
47.300000
 30
0.000000
  8
29
 62
7
  6
CONTINUOUS
  0
SEQEND
  0
CIRCLE
  8
29
 62
7
  6
CONTINUOUS
 10
39.500000
 20
49.100000
 30
0.0
 40
0.500000
  0
CIRCLE
  8
29
 62
7
  6
CONTINUOUS
 10
47.600000
 20
49.100000
 30
0.0
 40
0.300000
  0
SOLID
  8
29
 62
7
  6
CONTINUOUS
 10
39.500000
 20
48.800000
 11
39.500000
 21
49.400000
 12
47.600000
 22
48.800000
 13
47.600000
 23
49.400000
  0
POLYLINE
  8
29
 62
7
  6
CONTINUOUS
 70
1
 66
1
  0
VERTEX
 10
39.500000
 20
48.800000
 30
0.000000
  8
29
 62
7
  6
CONTINUOUS
  0
VERTEX
 10
39.500000
 20
49.400000
 30
0.000000
  8
29
 62
7
  6
CONTINUOUS
  0
VERTEX
 10
47.600000
 20
49.400000
 30
0.000000
  8
29
 62
7
  6
CONTINUOUS
  0
VERTEX
 10
47.600000
 20
48.800000
 30
0.000000
  8
29
 62
7
  6
CONTINUOUS
  0
SEQEND
  0
CIRCLE
  8
29
 62
7
  6
CONTINUOUS
 10
39.500000
 20
47.600000
 30
0.0
 40
0.500000
  0
CIRCLE
  8
29
 62
7
  6
CONTINUOUS
 10
47.600000
 20
47.600000
 30
0.0
 40
0.300000
  0
SOLID
  8
29
 62
7
  6
CONTINUOUS
 10
39.500000
 20
47.300000
 11
39.500000
 21
47.900000
 12
47.600000
 22
47.300000
 13
47.600000
 23
47.900000
  0
POLYLINE
  8
29
 62
7
  6
CONTINUOUS
 70
1
 66
1
  0
VERTEX
 10
39.500000
 20
47.300000
 30
0.000000
  8
29
 62
7
  6
CONTINUOUS
  0
VERTEX
 10
39.500000
 20
47.900000
 30
0.000000
  8
29
 62
7
  6
CONTINUOUS
  0
VERTEX
 10
47.600000
 20
47.900000
 30
0.000000
  8
29
 62
7
  6
CONTINUOUS
  0
VERTEX
 10
47.600000
 20
47.300000
 30
0.000000
  8
29
 62
7
  6
CONTINUOUS
  0
SEQEND
  0
CIRCLE
  8
29
 62
7
  6
CONTINUOUS
 10
37.500000
 20
49.100000
 30
0.0
 40
0.500000
  0
CIRCLE
  8
29
 62
7
  6
CONTINUOUS
 10
37.500000
 20
54.600000
 30
0.0
 40
0.400000
  0
SOLID
  8
29
 62
7
  6
CONTINUOUS
 10
37.200000
 20
50.000000
 11
37.200000
 21
53.300000
 12
37.800000
 22
50.000000
 13
37.800000
 23
53.300000
  0
POLYLINE
  8
29
 62
7
  6
CONTINUOUS
 70
1
 66
1
  0
VERTEX
 10
37.200000
 20
50.000000
 30
0.000000
  8
29
 62
7
  6
CONTINUOUS
  0
VERTEX
 10
37.200000
 20
53.300000
 30
0.000000
  8
29
 62
7
  6
CONTINUOUS
  0
VERTEX
 10
37.800000
 20
53.300000
 30
0.000000
  8
29
 62
7
  6
CONTINUOUS
  0
VERTEX
 10
37.800000
 20
50.000000
 30
0.000000
  8
29
 62
7
  6
CONTINUOUS
  0
SEQEND
  0
SOLID
  8
29
 62
7
  6
CONTINUOUS
 10
37.200000
 20
57.200000
 11
37.200000
 21
71.800000
 12
37.800000
 22
57.200000
 13
37.800000
 23
71.800000
  0
POLYLINE
  8
29
 62
7
  6
CONTINUOUS
 70
1
 66
1
  0
VERTEX
 10
37.200000
 20
57.200000
 30
0.000000
  8
29
 62
7
  6
CONTINUOUS
  0
VERTEX
 10
37.200000
 20
71.800000
 30
0.000000
  8
29
 62
7
  6
CONTINUOUS
  0
VERTEX
 10
37.800000
 20
71.800000
 30
0.000000
  8
29
 62
7
  6
CONTINUOUS
  0
VERTEX
 10
37.800000
 20
57.200000
 30
0.000000
  8
29
 62
7
  6
CONTINUOUS
  0
SEQEND
  0
CIRCLE
  8
29
 62
7
  6
CONTINUOUS
 10
37.500000
 20
57.100000
 30
0.0
 40
0.500000
  0
CIRCLE
  8
29
 62
7
  6
CONTINUOUS
 10
37.500000
 20
71.800000
 30
0.0
 40
0.300000
  0
CIRCLE
  8
29
 62
7
  6
CONTINUOUS
 10
37.500000
 20
53.300000
 30
0.0
 40
0.300000
  0
CIRCLE
  8
29
 62
7
  6
CONTINUOUS
 10
37.500000
 20
44.500000
 30
0.0
 40
0.300000
  0
SOLID
  8
29
 62
7
  6
CONTINUOUS
 10
37.200000
 20
44.500000
 11
37.200000
 21
46.800000
 12
37.800000
 22
44.500000
 13
37.800000
 23
46.800000
  0
POLYLINE
  8
29
 62
7
  6
CONTINUOUS
 70
1
 66
1
  0
VERTEX
 10
37.200000
 20
44.500000
 30
0.000000
  8
29
 62
7
  6
CONTINUOUS
  0
VERTEX
 10
37.200000
 20
46.800000
 30
0.000000
  8
29
 62
7
  6
CONTINUOUS
  0
VERTEX
 10
37.800000
 20
46.800000
 30
0.000000
  8
29
 62
7
  6
CONTINUOUS
  0
VERTEX
 10
37.800000
 20
44.500000
 30
0.000000
  8
29
 62
7
  6
CONTINUOUS
  0
SEQEND
  0
POLYLINE
  8
29
 62
7
  6
CONTINUOUS
 70
0
 66
1
  0
VERTEX
 10
25.000000
 20
30.000000
  8
29
 62
7
  6
CONTINUOUS
  0
VERTEX
 10
49.800000
 20
30.000000
  8
29
 62
7
  6
CONTINUOUS
  0
SEQEND
  0
SOLID
  8
56
 62
255
  6
CONTINUOUS
 10
49.100000
 20
7.700000
 11
49.100000
 21
8.900000
 12
0.900000
 22
7.700000
 13
0.900000
 23
8.900000
  0
POLYLINE
  8
56
 62
7
  6
CONTINUOUS
 70
1
 66
1
  0
VERTEX
 10
49.100000
 20
7.700000
 30
0.000000
  8
56
 62
7
  6
CONTINUOUS
  0
VERTEX
 10
49.100000
 20
8.900000
 30
0.000000
  8
56
 62
7
  6
CONTINUOUS
  0
VERTEX
 10
0.900000
 20
8.900000
 30
0.000000
  8
56
 62
7
  6
CONTINUOUS
  0
VERTEX
 10
0.900000
 20
7.700000
 30
0.000000
  8
56
 62
7
  6
CONTINUOUS
  0
SEQEND
  0
SOLID
  8
56
 62
255
  6
CONTINUOUS
 10
49.100000
 20
23.700000
 11
49.100000
 21
24.900000
 12
0.900000
 22
23.700000
 13
0.900000
 23
24.900000
  0
POLYLINE
  8
56
 62
7
  6
CONTINUOUS
 70
1
 66
1
  0
VERTEX
 10
49.100000
 20
23.700000
 30
0.000000
  8
56
 62
7
  6
CONTINUOUS
  0
VERTEX
 10
49.100000
 20
24.900000
 30
0.000000
  8
56
 62
7
  6
CONTINUOUS
  0
VERTEX
 10
0.900000
 20
24.900000
 30
0.000000
  8
56
 62
7
  6
CONTINUOUS
  0
VERTEX
 10
0.900000
 20
23.700000
 30
0.000000
  8
56
 62
7
  6
CONTINUOUS
  0
SEQEND
  0
SOLID
  8
56
 62
255
  6
CONTINUOUS
 10
49.100000
 20
19.700000
 11
49.100000
 21
20.900000
 12
0.900000
 22
19.700000
 13
0.900000
 23
20.900000
  0
POLYLINE
  8
56
 62
7
  6
CONTINUOUS
 70
1
 66
1
  0
VERTEX
 10
49.100000
 20
19.700000
 30
0.000000
  8
56
 62
7
  6
CONTINUOUS
  0
VERTEX
 10
49.100000
 20
20.900000
 30
0.000000
  8
56
 62
7
  6
CONTINUOUS
  0
VERTEX
 10
0.900000
 20
20.900000
 30
0.000000
  8
56
 62
7
  6
CONTINUOUS
  0
VERTEX
 10
0.900000
 20
19.700000
 30
0.000000
  8
56
 62
7
  6
CONTINUOUS
  0
SEQEND
  0
SOLID
  8
56
 62
255
  6
CONTINUOUS
 10
49.100000
 20
15.700000
 11
49.100000
 21
16.900000
 12
0.900000
 22
15.700000
 13
0.900000
 23
16.900000
  0
POLYLINE
  8
56
 62
7
  6
CONTINUOUS
 70
1
 66
1
  0
VERTEX
 10
49.100000
 20
15.700000
 30
0.000000
  8
56
 62
7
  6
CONTINUOUS
  0
VERTEX
 10
49.100000
 20
16.900000
 30
0.000000
  8
56
 62
7
  6
CONTINUOUS
  0
VERTEX
 10
0.900000
 20
16.900000
 30
0.000000
  8
56
 62
7
  6
CONTINUOUS
  0
VERTEX
 10
0.900000
 20
15.700000
 30
0.000000
  8
56
 62
7
  6
CONTINUOUS
  0
SEQEND
  0
SOLID
  8
56
 62
255
  6
CONTINUOUS
 10
49.100000
 20
11.700000
 11
49.100000
 21
12.900000
 12
0.900000
 22
11.700000
 13
0.900000
 23
12.900000
  0
POLYLINE
  8
56
 62
7
  6
CONTINUOUS
 70
1
 66
1
  0
VERTEX
 10
49.100000
 20
11.700000
 30
0.000000
  8
56
 62
7
  6
CONTINUOUS
  0
VERTEX
 10
49.100000
 20
12.900000
 30
0.000000
  8
56
 62
7
  6
CONTINUOUS
  0
VERTEX
 10
0.900000
 20
12.900000
 30
0.000000
  8
56
 62
7
  6
CONTINUOUS
  0
VERTEX
 10
0.900000
 20
11.700000
 30
0.000000
  8
56
 62
7
  6
CONTINUOUS
  0
SEQEND
  0
SOLID
  8
58
 62
30
  6
CONTINUOUS
 10
49.100000
 20
7.700000
 11
49.100000
 21
8.900000
 12
0.900000
 22
7.700000
 13
0.900000
 23
8.900000
  0
POLYLINE
  8
58
 62
7
  6
CONTINUOUS
 70
1
 66
1
  0
VERTEX
 10
49.100000
 20
7.700000
 30
0.000000
  8
58
 62
7
  6
CONTINUOUS
  0
VERTEX
 10
49.100000
 20
8.900000
 30
0.000000
  8
58
 62
7
  6
CONTINUOUS
  0
VERTEX
 10
0.900000
 20
8.900000
 30
0.000000
  8
58
 62
7
  6
CONTINUOUS
  0
VERTEX
 10
0.900000
 20
7.700000
 30
0.000000
  8
58
 62
7
  6
CONTINUOUS
  0
SEQEND
  0
SOLID
  8
58
 62
30
  6
CONTINUOUS
 10
49.100000
 20
23.700000
 11
49.100000
 21
24.900000
 12
0.900000
 22
23.700000
 13
0.900000
 23
24.900000
  0
POLYLINE
  8
58
 62
7
  6
CONTINUOUS
 70
1
 66
1
  0
VERTEX
 10
49.100000
 20
23.700000
 30
0.000000
  8
58
 62
7
  6
CONTINUOUS
  0
VERTEX
 10
49.100000
 20
24.900000
 30
0.000000
  8
58
 62
7
  6
CONTINUOUS
  0
VERTEX
 10
0.900000
 20
24.900000
 30
0.000000
  8
58
 62
7
  6
CONTINUOUS
  0
VERTEX
 10
0.900000
 20
23.700000
 30
0.000000
  8
58
 62
7
  6
CONTINUOUS
  0
SEQEND
  0
SOLID
  8
58
 62
30
  6
CONTINUOUS
 10
49.100000
 20
19.700000
 11
49.100000
 21
20.900000
 12
0.900000
 22
19.700000
 13
0.900000
 23
20.900000
  0
POLYLINE
  8
58
 62
7
  6
CONTINUOUS
 70
1
 66
1
  0
VERTEX
 10
49.100000
 20
19.700000
 30
0.000000
  8
58
 62
7
  6
CONTINUOUS
  0
VERTEX
 10
49.100000
 20
20.900000
 30
0.000000
  8
58
 62
7
  6
CONTINUOUS
  0
VERTEX
 10
0.900000
 20
20.900000
 30
0.000000
  8
58
 62
7
  6
CONTINUOUS
  0
VERTEX
 10
0.900000
 20
19.700000
 30
0.000000
  8
58
 62
7
  6
CONTINUOUS
  0
SEQEND
  0
SOLID
  8
58
 62
30
  6
CONTINUOUS
 10
49.100000
 20
15.700000
 11
49.100000
 21
16.900000
 12
0.900000
 22
15.700000
 13
0.900000
 23
16.900000
  0
POLYLINE
  8
58
 62
7
  6
CONTINUOUS
 70
1
 66
1
  0
VERTEX
 10
49.100000
 20
15.700000
 30
0.000000
  8
58
 62
7
  6
CONTINUOUS
  0
VERTEX
 10
49.100000
 20
16.900000
 30
0.000000
  8
58
 62
7
  6
CONTINUOUS
  0
VERTEX
 10
0.900000
 20
16.900000
 30
0.000000
  8
58
 62
7
  6
CONTINUOUS
  0
VERTEX
 10
0.900000
 20
15.700000
 30
0.000000
  8
58
 62
7
  6
CONTINUOUS
  0
SEQEND
  0
SOLID
  8
58
 62
30
  6
CONTINUOUS
 10
49.100000
 20
11.700000
 11
49.100000
 21
12.900000
 12
0.900000
 22
11.700000
 13
0.900000
 23
12.900000
  0
POLYLINE
  8
58
 62
7
  6
CONTINUOUS
 70
1
 66
1
  0
VERTEX
 10
49.100000
 20
11.700000
 30
0.000000
  8
58
 62
7
  6
CONTINUOUS
  0
VERTEX
 10
49.100000
 20
12.900000
 30
0.000000
  8
58
 62
7
  6
CONTINUOUS
  0
VERTEX
 10
0.900000
 20
12.900000
 30
0.000000
  8
58
 62
7
  6
CONTINUOUS
  0
VERTEX
 10
0.900000
 20
11.700000
 30
0.000000
  8
58
 62
7
  6
CONTINUOUS
  0
SEQEND
  0
SOLID
  8
59
 62
7
  6
CONTINUOUS
 10
49.100000
 20
16.000000
 11
49.100000
 21
16.600000
 12
0.900000
 22
16.000000
 13
0.900000
 23
16.600000
  0
POLYLINE
  8
59
 62
7
  6
CONTINUOUS
 70
1
 66
1
  0
VERTEX
 10
49.100000
 20
16.000000
 30
0.000000
  8
59
 62
7
  6
CONTINUOUS
  0
VERTEX
 10
49.100000
 20
16.600000
 30
0.000000
  8
59
 62
7
  6
CONTINUOUS
  0
VERTEX
 10
0.900000
 20
16.600000
 30
0.000000
  8
59
 62
7
  6
CONTINUOUS
  0
VERTEX
 10
0.900000
 20
16.000000
 30
0.000000
  8
59
 62
7
  6
CONTINUOUS
  0
SEQEND
  0
LINE
  8
59
 62
7
  6
CONTINUOUS
 10
25.500000
 20
18.300000
 11
24.500000
 21
14.300000
  0
LINE
  8
59
 62
7
  6
CONTINUOUS
 10
23.500000
 20
18.300000
 11
22.500000
 21
14.300000
  0
LINE
  8
59
 62
7
  6
CONTINUOUS
 10
24.500000
 20
18.300000
 11
23.500000
 21
14.300000
  0
LINE
  8
59
 62
7
  6
CONTINUOUS
 10
27.500000
 20
18.300000
 11
26.500000
 21
14.300000
  0
LINE
  8
59
 62
7
  6
CONTINUOUS
 10
26.500000
 20
18.300000
 11
25.500000
 21
14.300000
  0
SOLID
  8
59
 62
7
  6
CONTINUOUS
 10
0.900000
 20
15.000000
 11
0.900000
 21
17.600000
 12
1.300000
 22
15.000000
 13
1.300000
 23
17.600000
  0
POLYLINE
  8
59
 62
7
  6
CONTINUOUS
 70
1
 66
1
  0
VERTEX
 10
0.900000
 20
15.000000
 30
0.000000
  8
59
 62
7
  6
CONTINUOUS
  0
VERTEX
 10
0.900000
 20
17.600000
 30
0.000000
  8
59
 62
7
  6
CONTINUOUS
  0
VERTEX
 10
1.300000
 20
17.600000
 30
0.000000
  8
59
 62
7
  6
CONTINUOUS
  0
VERTEX
 10
1.300000
 20
15.000000
 30
0.000000
  8
59
 62
7
  6
CONTINUOUS
  0
SEQEND
  0
SOLID
  8
59
 62
7
  6
CONTINUOUS
 10
48.700000
 20
15.000000
 11
48.700000
 21
17.600000
 12
49.100000
 22
15.000000
 13
49.100000
 23
17.600000
  0
POLYLINE
  8
59
 62
7
  6
CONTINUOUS
 70
1
 66
1
  0
VERTEX
 10
48.700000
 20
15.000000
 30
0.000000
  8
59
 62
7
  6
CONTINUOUS
  0
VERTEX
 10
48.700000
 20
17.600000
 30
0.000000
  8
59
 62
7
  6
CONTINUOUS
  0
VERTEX
 10
49.100000
 20
17.600000
 30
0.000000
  8
59
 62
7
  6
CONTINUOUS
  0
VERTEX
 10
49.100000
 20
15.000000
 30
0.000000
  8
59
 62
7
  6
CONTINUOUS
  0
SEQEND
  0
SOLID
  8
60
 62
7
  6
CONTINUOUS
 10
49.100000
 20
23.700000
 11
49.100000
 21
24.900000
 12
0.900000
 22
23.700000
 13
0.900000
 23
24.900000
  0
POLYLINE
  8
60
 62
7
  6
CONTINUOUS
 70
1
 66
1
  0
VERTEX
 10
49.100000
 20
23.700000
 30
0.000000
  8
60
 62
7
  6
CONTINUOUS
  0
VERTEX
 10
49.100000
 20
24.900000
 30
0.000000
  8
60
 62
7
  6
CONTINUOUS
  0
VERTEX
 10
0.900000
 20
24.900000
 30
0.000000
  8
60
 62
7
  6
CONTINUOUS
  0
VERTEX
 10
0.900000
 20
23.700000
 30
0.000000
  8
60
 62
7
  6
CONTINUOUS
  0
SEQEND
  0
SOLID
  8
60
 62
7
  6
CONTINUOUS
 10
49.100000
 20
11.700000
 11
49.100000
 21
12.900000
 12
0.900000
 22
11.700000
 13
0.900000
 23
12.900000
  0
POLYLINE
  8
60
 62
7
  6
CONTINUOUS
 70
1
 66
1
  0
VERTEX
 10
49.100000
 20
11.700000
 30
0.000000
  8
60
 62
7
  6
CONTINUOUS
  0
VERTEX
 10
49.100000
 20
12.900000
 30
0.000000
  8
60
 62
7
  6
CONTINUOUS
  0
VERTEX
 10
0.900000
 20
12.900000
 30
0.000000
  8
60
 62
7
  6
CONTINUOUS
  0
VERTEX
 10
0.900000
 20
11.700000
 30
0.000000
  8
60
 62
7
  6
CONTINUOUS
  0
SEQEND
  0
SOLID
  8
60
 62
7
  6
CONTINUOUS
 10
49.100000
 20
15.700000
 11
49.100000
 21
16.900000
 12
0.900000
 22
15.700000
 13
0.900000
 23
16.900000
  0
POLYLINE
  8
60
 62
7
  6
CONTINUOUS
 70
1
 66
1
  0
VERTEX
 10
49.100000
 20
15.700000
 30
0.000000
  8
60
 62
7
  6
CONTINUOUS
  0
VERTEX
 10
49.100000
 20
16.900000
 30
0.000000
  8
60
 62
7
  6
CONTINUOUS
  0
VERTEX
 10
0.900000
 20
16.900000
 30
0.000000
  8
60
 62
7
  6
CONTINUOUS
  0
VERTEX
 10
0.900000
 20
15.700000
 30
0.000000
  8
60
 62
7
  6
CONTINUOUS
  0
SEQEND
  0
SOLID
  8
60
 62
7
  6
CONTINUOUS
 10
49.100000
 20
19.700000
 11
49.100000
 21
20.900000
 12
0.900000
 22
19.700000
 13
0.900000
 23
20.900000
  0
POLYLINE
  8
60
 62
7
  6
CONTINUOUS
 70
1
 66
1
  0
VERTEX
 10
49.100000
 20
19.700000
 30
0.000000
  8
60
 62
7
  6
CONTINUOUS
  0
VERTEX
 10
49.100000
 20
20.900000
 30
0.000000
  8
60
 62
7
  6
CONTINUOUS
  0
VERTEX
 10
0.900000
 20
20.900000
 30
0.000000
  8
60
 62
7
  6
CONTINUOUS
  0
VERTEX
 10
0.900000
 20
19.700000
 30
0.000000
  8
60
 62
7
  6
CONTINUOUS
  0
SEQEND
  0
SOLID
  8
60
 62
7
  6
CONTINUOUS
 10
49.100000
 20
7.700000
 11
49.100000
 21
8.900000
 12
0.900000
 22
7.700000
 13
0.900000
 23
8.900000
  0
POLYLINE
  8
60
 62
7
  6
CONTINUOUS
 70
1
 66
1
  0
VERTEX
 10
49.100000
 20
7.700000
 30
0.000000
  8
60
 62
7
  6
CONTINUOUS
  0
VERTEX
 10
49.100000
 20
8.900000
 30
0.000000
  8
60
 62
7
  6
CONTINUOUS
  0
VERTEX
 10
0.900000
 20
8.900000
 30
0.000000
  8
60
 62
7
  6
CONTINUOUS
  0
VERTEX
 10
0.900000
 20
7.700000
 30
0.000000
  8
60
 62
7
  6
CONTINUOUS
  0
SEQEND
  0
SOLID
  8
38
 62
255
  6
CONTINUOUS
 10
14.300000
 20
105.000000
 11
14.300000
 21
108.100000
 12
23.300000
 22
105.000000
 13
23.300000
 23
108.100000
  0
POLYLINE
  8
38
 62
7
  6
CONTINUOUS
 70
1
 66
1
  0
VERTEX
 10
14.300000
 20
105.000000
 30
0.000000
  8
38
 62
7
  6
CONTINUOUS
  0
VERTEX
 10
14.300000
 20
108.100000
 30
0.000000
  8
38
 62
7
  6
CONTINUOUS
  0
VERTEX
 10
23.300000
 20
108.100000
 30
0.000000
  8
38
 62
7
  6
CONTINUOUS
  0
VERTEX
 10
23.300000
 20
105.000000
 30
0.000000
  8
38
 62
7
  6
CONTINUOUS
  0
SEQEND
  0
CIRCLE
  8
38
 62
7
  6
CONTINUOUS
 10
22.000000
 20
106.200000
 30
0.0
 40
0.300000
  0
CIRCLE
  8
38
 62
7
  6
CONTINUOUS
 10
22.000000
 20
106.900000
 30
0.0
 40
0.300000
  0
CIRCLE
  8
38
 62
7
  6
CONTINUOUS
 10
22.000000
 20
105.500000
 30
0.0
 40
0.300000
  0
CIRCLE
  8
38
 62
7
  6
CONTINUOUS
 10
22.000000
 20
107.600000
 30
0.0
 40
0.300000
  0
CIRCLE
  8
38
 62
7
  6
CONTINUOUS
 10
22.800000
 20
107.600000
 30
0.0
 40
0.300000
  0
CIRCLE
  8
38
 62
7
  6
CONTINUOUS
 10
22.800000
 20
106.900000
 30
0.0
 40
0.300000
  0
CIRCLE
  8
38
 62
7
  6
CONTINUOUS
 10
14.800000
 20
107.600000
 30
0.0
 40
0.300000
  0
CIRCLE
  8
38
 62
7
  6
CONTINUOUS
 10
15.600000
 20
107.600000
 30
0.0
 40
0.300000
  0
CIRCLE
  8
38
 62
7
  6
CONTINUOUS
 10
14.800000
 20
106.900000
 30
0.0
 40
0.300000
  0
CIRCLE
  8
38
 62
7
  6
CONTINUOUS
 10
15.600000
 20
106.900000
 30
0.0
 40
0.300000
  0
CIRCLE
  8
38
 62
7
  6
CONTINUOUS
 10
14.800000
 20
106.200000
 30
0.0
 40
0.300000
  0
CIRCLE
  8
38
 62
7
  6
CONTINUOUS
 10
14.800000
 20
105.500000
 30
0.0
 40
0.300000
  0
CIRCLE
  8
38
 62
7
  6
CONTINUOUS
 10
16.600000
 20
107.600000
 30
0.0
 40
0.300000
  0
CIRCLE
  8
38
 62
7
  6
CONTINUOUS
 10
17.400000
 20
107.600000
 30
0.0
 40
0.300000
  0
CIRCLE
  8
38
 62
7
  6
CONTINUOUS
 10
16.600000
 20
106.900000
 30
0.0
 40
0.300000
  0
CIRCLE
  8
38
 62
7
  6
CONTINUOUS
 10
17.400000
 20
106.900000
 30
0.0
 40
0.300000
  0
CIRCLE
  8
38
 62
7
  6
CONTINUOUS
 10
16.600000
 20
106.200000
 30
0.0
 40
0.300000
  0
CIRCLE
  8
38
 62
7
  6
CONTINUOUS
 10
16.600000
 20
105.500000
 30
0.0
 40
0.300000
  0
POLYLINE
  8
38
 62
7
  6
CONTINUOUS
 70
0
 66
1
  0
VERTEX
 10
16.100000
 20
108.100000
  8
38
 62
7
  6
CONTINUOUS
  0
VERTEX
 10
16.100000
 20
105.000000
  8
38
 62
7
  6
CONTINUOUS
  0
SEQEND
  0
POLYLINE
  8
38
 62
7
  6
CONTINUOUS
 70
0
 66
1
  0
VERTEX
 10
17.900000
 20
108.100000
  8
38
 62
7
  6
CONTINUOUS
  0
VERTEX
 10
17.900000
 20
105.000000
  8
38
 62
7
  6
CONTINUOUS
  0
SEQEND
  0
CIRCLE
  8
38
 62
7
  6
CONTINUOUS
 10
18.400000
 20
105.500000
 30
0.0
 40
0.300000
  0
CIRCLE
  8
38
 62
7
  6
CONTINUOUS
 10
18.400000
 20
106.200000
 30
0.0
 40
0.300000
  0
CIRCLE
  8
38
 62
7
  6
CONTINUOUS
 10
18.400000
 20
106.900000
 30
0.0
 40
0.300000
  0
CIRCLE
  8
38
 62
7
  6
CONTINUOUS
 10
18.400000
 20
107.600000
 30
0.0
 40
0.300000
  0
CIRCLE
  8
38
 62
7
  6
CONTINUOUS
 10
19.200000
 20
107.600000
 30
0.0
 40
0.300000
  0
CIRCLE
  8
38
 62
7
  6
CONTINUOUS
 10
19.200000
 20
106.900000
 30
0.0
 40
0.300000
  0
POLYLINE
  8
38
 62
7
  6
CONTINUOUS
 70
0
 66
1
  0
VERTEX
 10
21.500000
 20
108.100000
  8
38
 62
7
  6
CONTINUOUS
  0
VERTEX
 10
21.500000
 20
105.000000
  8
38
 62
7
  6
CONTINUOUS
  0
SEQEND
  0
CIRCLE
  8
38
 62
7
  6
CONTINUOUS
 10
20.200000
 20
107.600000
 30
0.0
 40
0.300000
  0
CIRCLE
  8
38
 62
7
  6
CONTINUOUS
 10
21.000000
 20
107.600000
 30
0.0
 40
0.300000
  0
CIRCLE
  8
38
 62
7
  6
CONTINUOUS
 10
20.200000
 20
106.900000
 30
0.0
 40
0.300000
  0
CIRCLE
  8
38
 62
7
  6
CONTINUOUS
 10
21.000000
 20
106.900000
 30
0.0
 40
0.300000
  0
CIRCLE
  8
38
 62
7
  6
CONTINUOUS
 10
20.200000
 20
106.200000
 30
0.0
 40
0.300000
  0
CIRCLE
  8
38
 62
7
  6
CONTINUOUS
 10
20.200000
 20
105.500000
 30
0.0
 40
0.300000
  0
POLYLINE
  8
38
 62
7
  6
CONTINUOUS
 70
0
 66
1
  0
VERTEX
 10
19.700000
 20
108.100000
  8
38
 62
7
  6
CONTINUOUS
  0
VERTEX
 10
19.700000
 20
105.000000
  8
38
 62
7
  6
CONTINUOUS
  0
SEQEND
  0
SOLID
  8
38
 62
255
  6
CONTINUOUS
 10
1.700000
 20
105.000000
 11
1.700000
 21
108.100000
 12
10.700000
 22
105.000000
 13
10.700000
 23
108.100000
  0
POLYLINE
  8
38
 62
7
  6
CONTINUOUS
 70
1
 66
1
  0
VERTEX
 10
1.700000
 20
105.000000
 30
0.000000
  8
38
 62
7
  6
CONTINUOUS
  0
VERTEX
 10
1.700000
 20
108.100000
 30
0.000000
  8
38
 62
7
  6
CONTINUOUS
  0
VERTEX
 10
10.700000
 20
108.100000
 30
0.000000
  8
38
 62
7
  6
CONTINUOUS
  0
VERTEX
 10
10.700000
 20
105.000000
 30
0.000000
  8
38
 62
7
  6
CONTINUOUS
  0
SEQEND
  0
CIRCLE
  8
38
 62
7
  6
CONTINUOUS
 10
9.400000
 20
106.200000
 30
0.0
 40
0.300000
  0
CIRCLE
  8
38
 62
7
  6
CONTINUOUS
 10
9.400000
 20
106.900000
 30
0.0
 40
0.300000
  0
CIRCLE
  8
38
 62
7
  6
CONTINUOUS
 10
9.400000
 20
105.500000
 30
0.0
 40
0.300000
  0
CIRCLE
  8
38
 62
7
  6
CONTINUOUS
 10
9.400000
 20
107.600000
 30
0.0
 40
0.300000
  0
CIRCLE
  8
38
 62
7
  6
CONTINUOUS
 10
10.200000
 20
107.600000
 30
0.0
 40
0.300000
  0
CIRCLE
  8
38
 62
7
  6
CONTINUOUS
 10
10.200000
 20
106.900000
 30
0.0
 40
0.300000
  0
CIRCLE
  8
38
 62
7
  6
CONTINUOUS
 10
2.200000
 20
107.600000
 30
0.0
 40
0.300000
  0
CIRCLE
  8
38
 62
7
  6
CONTINUOUS
 10
3.000000
 20
107.600000
 30
0.0
 40
0.300000
  0
CIRCLE
  8
38
 62
7
  6
CONTINUOUS
 10
2.200000
 20
106.900000
 30
0.0
 40
0.300000
  0
CIRCLE
  8
38
 62
7
  6
CONTINUOUS
 10
3.000000
 20
106.900000
 30
0.0
 40
0.300000
  0
CIRCLE
  8
38
 62
7
  6
CONTINUOUS
 10
2.200000
 20
106.200000
 30
0.0
 40
0.300000
  0
CIRCLE
  8
38
 62
7
  6
CONTINUOUS
 10
2.200000
 20
105.500000
 30
0.0
 40
0.300000
  0
CIRCLE
  8
38
 62
7
  6
CONTINUOUS
 10
4.000000
 20
107.600000
 30
0.0
 40
0.300000
  0
CIRCLE
  8
38
 62
7
  6
CONTINUOUS
 10
4.800000
 20
107.600000
 30
0.0
 40
0.300000
  0
CIRCLE
  8
38
 62
7
  6
CONTINUOUS
 10
4.000000
 20
106.900000
 30
0.0
 40
0.300000
  0
CIRCLE
  8
38
 62
7
  6
CONTINUOUS
 10
4.800000
 20
106.900000
 30
0.0
 40
0.300000
  0
CIRCLE
  8
38
 62
7
  6
CONTINUOUS
 10
4.000000
 20
106.200000
 30
0.0
 40
0.300000
  0
CIRCLE
  8
38
 62
7
  6
CONTINUOUS
 10
4.000000
 20
105.500000
 30
0.0
 40
0.300000
  0
POLYLINE
  8
38
 62
7
  6
CONTINUOUS
 70
0
 66
1
  0
VERTEX
 10
3.500000
 20
108.100000
  8
38
 62
7
  6
CONTINUOUS
  0
VERTEX
 10
3.500000
 20
105.000000
  8
38
 62
7
  6
CONTINUOUS
  0
SEQEND
  0
POLYLINE
  8
38
 62
7
  6
CONTINUOUS
 70
0
 66
1
  0
VERTEX
 10
5.300000
 20
108.100000
  8
38
 62
7
  6
CONTINUOUS
  0
VERTEX
 10
5.300000
 20
105.000000
  8
38
 62
7
  6
CONTINUOUS
  0
SEQEND
  0
CIRCLE
  8
38
 62
7
  6
CONTINUOUS
 10
5.800000
 20
105.500000
 30
0.0
 40
0.300000
  0
CIRCLE
  8
38
 62
7
  6
CONTINUOUS
 10
5.800000
 20
106.200000
 30
0.0
 40
0.300000
  0
CIRCLE
  8
38
 62
7
  6
CONTINUOUS
 10
5.800000
 20
106.900000
 30
0.0
 40
0.300000
  0
CIRCLE
  8
38
 62
7
  6
CONTINUOUS
 10
5.800000
 20
107.600000
 30
0.0
 40
0.300000
  0
CIRCLE
  8
38
 62
7
  6
CONTINUOUS
 10
6.600000
 20
107.600000
 30
0.0
 40
0.300000
  0
CIRCLE
  8
38
 62
7
  6
CONTINUOUS
 10
6.600000
 20
106.900000
 30
0.0
 40
0.300000
  0
POLYLINE
  8
38
 62
7
  6
CONTINUOUS
 70
0
 66
1
  0
VERTEX
 10
8.900000
 20
108.100000
  8
38
 62
7
  6
CONTINUOUS
  0
VERTEX
 10
8.900000
 20
105.000000
  8
38
 62
7
  6
CONTINUOUS
  0
SEQEND
  0
CIRCLE
  8
38
 62
7
  6
CONTINUOUS
 10
7.600000
 20
107.600000
 30
0.0
 40
0.300000
  0
CIRCLE
  8
38
 62
7
  6
CONTINUOUS
 10
8.400000
 20
107.600000
 30
0.0
 40
0.300000
  0
CIRCLE
  8
38
 62
7
  6
CONTINUOUS
 10
7.600000
 20
106.900000
 30
0.0
 40
0.300000
  0
CIRCLE
  8
38
 62
7
  6
CONTINUOUS
 10
8.400000
 20
106.900000
 30
0.0
 40
0.300000
  0
CIRCLE
  8
38
 62
7
  6
CONTINUOUS
 10
7.600000
 20
106.200000
 30
0.0
 40
0.300000
  0
CIRCLE
  8
38
 62
7
  6
CONTINUOUS
 10
7.600000
 20
105.500000
 30
0.0
 40
0.300000
  0
POLYLINE
  8
38
 62
7
  6
CONTINUOUS
 70
0
 66
1
  0
VERTEX
 10
7.100000
 20
108.100000
  8
38
 62
7
  6
CONTINUOUS
  0
VERTEX
 10
7.100000
 20
105.000000
  8
38
 62
7
  6
CONTINUOUS
  0
SEQEND
  0
SOLID
  8
38
 62
255
  6
CONTINUOUS
 10
36.700000
 20
12.000000
 11
36.700000
 21
20.500000
 12
38.500000
 22
12.000000
 13
38.500000
 23
20.500000
  0
POLYLINE
  8
38
 62
7
  6
CONTINUOUS
 70
1
 66
1
  0
VERTEX
 10
36.700000
 20
12.000000
 30
0.000000
  8
38
 62
7
  6
CONTINUOUS
  0
VERTEX
 10
36.700000
 20
20.500000
 30
0.000000
  8
38
 62
7
  6
CONTINUOUS
  0
VERTEX
 10
38.500000
 20
20.500000
 30
0.000000
  8
38
 62
7
  6
CONTINUOUS
  0
VERTEX
 10
38.500000
 20
12.000000
 30
0.000000
  8
38
 62
7
  6
CONTINUOUS
  0
SEQEND
  0
CIRCLE
  8
38
 62
7
  6
CONTINUOUS
 10
37.600000
 20
19.700000
 30
0.0
 40
0.500000
  0
CIRCLE
  8
38
 62
7
  6
CONTINUOUS
 10
37.600000
 20
12.800000
 30
0.0
 40
0.500000
  0
LINE
  8
38
 62
7
  6
CONTINUOUS
 10
43.200000
 20
2.500000
 11
43.200000
 21
4.500000
  0
SOLID
  8
38
 62
7
  6
CONTINUOUS
 10
49.200000
 20
5.500000
 11
49.200000
 21
2.500000
 12
48.200000
 22
5.500000
 13
48.200000
 23
2.500000
  0
POLYLINE
  8
38
 62
7
  6
CONTINUOUS
 70
1
 66
1
  0
VERTEX
 10
49.200000
 20
5.500000
 30
0.000000
  8
38
 62
7
  6
CONTINUOUS
  0
VERTEX
 10
49.200000
 20
2.500000
 30
0.000000
  8
38
 62
7
  6
CONTINUOUS
  0
VERTEX
 10
48.200000
 20
2.500000
 30
0.000000
  8
38
 62
7
  6
CONTINUOUS
  0
VERTEX
 10
48.200000
 20
5.500000
 30
0.000000
  8
38
 62
7
  6
CONTINUOUS
  0
SEQEND
  0
LINE
  8
38
 62
7
  6
CONTINUOUS
 10
43.200000
 20
2.500000
 11
43.200000
 21
4.500000
  0
SOLID
  8
38
 62
7
  6
CONTINUOUS
 10
49.200000
 20
5.500000
 11
49.200000
 21
2.500000
 12
48.200000
 22
5.500000
 13
48.200000
 23
2.500000
  0
POLYLINE
  8
38
 62
7
  6
CONTINUOUS
 70
1
 66
1
  0
VERTEX
 10
49.200000
 20
5.500000
 30
0.000000
  8
38
 62
7
  6
CONTINUOUS
  0
VERTEX
 10
49.200000
 20
2.500000
 30
0.000000
  8
38
 62
7
  6
CONTINUOUS
  0
VERTEX
 10
48.200000
 20
2.500000
 30
0.000000
  8
38
 62
7
  6
CONTINUOUS
  0
VERTEX
 10
48.200000
 20
5.500000
 30
0.000000
  8
38
 62
7
  6
CONTINUOUS
  0
SEQEND
  0
LINE
  8
38
 62
7
  6
CONTINUOUS
 10
43.200000
 20
2.500000
 11
43.200000
 21
4.500000
  0
SOLID
  8
38
 62
7
  6
CONTINUOUS
 10
49.200000
 20
5.500000
 11
49.200000
 21
2.500000
 12
48.200000
 22
5.500000
 13
48.200000
 23
2.500000
  0
POLYLINE
  8
38
 62
7
  6
CONTINUOUS
 70
1
 66
1
  0
VERTEX
 10
49.200000
 20
5.500000
 30
0.000000
  8
38
 62
7
  6
CONTINUOUS
  0
VERTEX
 10
49.200000
 20
2.500000
 30
0.000000
  8
38
 62
7
  6
CONTINUOUS
  0
VERTEX
 10
48.200000
 20
2.500000
 30
0.000000
  8
38
 62
7
  6
CONTINUOUS
  0
VERTEX
 10
48.200000
 20
5.500000
 30
0.000000
  8
38
 62
7
  6
CONTINUOUS
  0
SEQEND
  0
SOLID
  8
38
 62
255
  6
CONTINUOUS
 10
48.200000
 20
4.500000
 11
48.200000
 21
2.500000
 12
43.200000
 22
4.500000
 13
43.200000
 23
2.500000
  0
POLYLINE
  8
38
 62
7
  6
CONTINUOUS
 70
1
 66
1
  0
VERTEX
 10
48.200000
 20
4.500000
 30
0.000000
  8
38
 62
7
  6
CONTINUOUS
  0
VERTEX
 10
48.200000
 20
2.500000
 30
0.000000
  8
38
 62
7
  6
CONTINUOUS
  0
VERTEX
 10
43.200000
 20
2.500000
 30
0.000000
  8
38
 62
7
  6
CONTINUOUS
  0
VERTEX
 10
43.200000
 20
4.500000
 30
0.000000
  8
38
 62
7
  6
CONTINUOUS
  0
SEQEND
  0
LINE
  8
38
 62
7
  6
CONTINUOUS
 10
43.200000
 20
2.500000
 11
43.200000
 21
4.500000
  0
SOLID
  8
38
 62
7
  6
CONTINUOUS
 10
49.200000
 20
5.500000
 11
49.200000
 21
2.500000
 12
48.200000
 22
5.500000
 13
48.200000
 23
2.500000
  0
POLYLINE
  8
38
 62
7
  6
CONTINUOUS
 70
1
 66
1
  0
VERTEX
 10
49.200000
 20
5.500000
 30
0.000000
  8
38
 62
7
  6
CONTINUOUS
  0
VERTEX
 10
49.200000
 20
2.500000
 30
0.000000
  8
38
 62
7
  6
CONTINUOUS
  0
VERTEX
 10
48.200000
 20
2.500000
 30
0.000000
  8
38
 62
7
  6
CONTINUOUS
  0
VERTEX
 10
48.200000
 20
5.500000
 30
0.000000
  8
38
 62
7
  6
CONTINUOUS
  0
SEQEND
  0
SOLID
  8
38
 62
7
  6
CONTINUOUS
 10
48.200000
 20
2.500000
 11
48.200000
 21
2.800000
 12
43.200000
 22
2.500000
 13
43.200000
 23
2.800000
  0
POLYLINE
  8
38
 62
7
  6
CONTINUOUS
 70
1
 66
1
  0
VERTEX
 10
48.200000
 20
2.500000
 30
0.000000
  8
38
 62
7
  6
CONTINUOUS
  0
VERTEX
 10
48.200000
 20
2.800000
 30
0.000000
  8
38
 62
7
  6
CONTINUOUS
  0
VERTEX
 10
43.200000
 20
2.800000
 30
0.000000
  8
38
 62
7
  6
CONTINUOUS
  0
VERTEX
 10
43.200000
 20
2.500000
 30
0.000000
  8
38
 62
7
  6
CONTINUOUS
  0
SEQEND
  0
SOLID
  8
38
 62
7
  6
CONTINUOUS
 10
48.200000
 20
4.200000
 11
48.200000
 21
4.500000
 12
43.200000
 22
4.200000
 13
43.200000
 23
4.500000
  0
POLYLINE
  8
38
 62
7
  6
CONTINUOUS
 70
1
 66
1
  0
VERTEX
 10
48.200000
 20
4.200000
 30
0.000000
  8
38
 62
7
  6
CONTINUOUS
  0
VERTEX
 10
48.200000
 20
4.500000
 30
0.000000
  8
38
 62
7
  6
CONTINUOUS
  0
VERTEX
 10
43.200000
 20
4.500000
 30
0.000000
  8
38
 62
7
  6
CONTINUOUS
  0
VERTEX
 10
43.200000
 20
4.200000
 30
0.000000
  8
38
 62
7
  6
CONTINUOUS
  0
SEQEND
  0
SOLID
  8
38
 62
255
  6
CONTINUOUS
 10
41.200000
 20
2.500000
 11
41.200000
 21
4.500000
 12
48.200000
 22
2.500000
 13
48.200000
 23
4.500000
  0
POLYLINE
  8
38
 62
7
  6
CONTINUOUS
 70
1
 66
1
  0
VERTEX
 10
41.200000
 20
2.500000
 30
0.000000
  8
38
 62
7
  6
CONTINUOUS
  0
VERTEX
 10
41.200000
 20
4.500000
 30
0.000000
  8
38
 62
7
  6
CONTINUOUS
  0
VERTEX
 10
48.200000
 20
4.500000
 30
0.000000
  8
38
 62
7
  6
CONTINUOUS
  0
VERTEX
 10
48.200000
 20
2.500000
 30
0.000000
  8
38
 62
7
  6
CONTINUOUS
  0
SEQEND
  0
LINE
  8
38
 62
7
  6
CONTINUOUS
 10
47.200000
 20
4.500000
 11
47.200000
 21
2.500000
  0
LINE
  8
38
 62
7
  6
CONTINUOUS
 10
46.200000
 20
4.500000
 11
46.200000
 21
2.500000
  0
LINE
  8
38
 62
7
  6
CONTINUOUS
 10
45.200000
 20
4.500000
 11
45.200000
 21
2.500000
  0
LINE
  8
38
 62
7
  6
CONTINUOUS
 10
44.200000
 20
4.500000
 11
44.200000
 21
2.500000
  0
LINE
  8
38
 62
7
  6
CONTINUOUS
 10
43.200000
 20
4.500000
 11
43.200000
 21
2.500000
  0
LINE
  8
38
 62
7
  6
CONTINUOUS
 10
42.200000
 20
4.500000
 11
42.200000
 21
2.500000
  0
CIRCLE
  8
38
 62
7
  6
CONTINUOUS
 10
41.700000
 20
4.100000
 30
0.0
 40
0.200000
  0
CIRCLE
  8
38
 62
7
  6
CONTINUOUS
 10
41.700000
 20
2.900000
 30
0.0
 40
0.200000
  0
CIRCLE
  8
38
 62
7
  6
CONTINUOUS
 10
47.700000
 20
4.100000
 30
0.0
 40
0.200000
  0
CIRCLE
  8
38
 62
7
  6
CONTINUOUS
 10
47.700000
 20
2.900000
 30
0.0
 40
0.200000
  0
CIRCLE
  8
38
 62
7
  6
CONTINUOUS
 10
46.700000
 20
4.100000
 30
0.0
 40
0.200000
  0
CIRCLE
  8
38
 62
7
  6
CONTINUOUS
 10
46.700000
 20
2.900000
 30
0.0
 40
0.200000
  0
CIRCLE
  8
38
 62
7
  6
CONTINUOUS
 10
45.700000
 20
4.100000
 30
0.0
 40
0.200000
  0
CIRCLE
  8
38
 62
7
  6
CONTINUOUS
 10
45.700000
 20
2.900000
 30
0.0
 40
0.200000
  0
CIRCLE
  8
38
 62
7
  6
CONTINUOUS
 10
44.700000
 20
4.100000
 30
0.0
 40
0.200000
  0
CIRCLE
  8
38
 62
7
  6
CONTINUOUS
 10
44.700000
 20
2.900000
 30
0.0
 40
0.200000
  0
CIRCLE
  8
38
 62
7
  6
CONTINUOUS
 10
43.700000
 20
4.100000
 30
0.0
 40
0.200000
  0
CIRCLE
  8
38
 62
7
  6
CONTINUOUS
 10
43.700000
 20
2.900000
 30
0.0
 40
0.200000
  0
CIRCLE
  8
38
 62
7
  6
CONTINUOUS
 10
42.700000
 20
4.100000
 30
0.0
 40
0.200000
  0
CIRCLE
  8
38
 62
7
  6
CONTINUOUS
 10
42.700000
 20
2.900000
 30
0.0
 40
0.200000
  0
SOLID
  8
38
 62
255
  6
CONTINUOUS
 10
41.200000
 20
2.500000
 11
41.200000
 21
4.500000
 12
48.200000
 22
2.500000
 13
48.200000
 23
4.500000
  0
POLYLINE
  8
38
 62
7
  6
CONTINUOUS
 70
1
 66
1
  0
VERTEX
 10
41.200000
 20
2.500000
 30
0.000000
  8
38
 62
7
  6
CONTINUOUS
  0
VERTEX
 10
41.200000
 20
4.500000
 30
0.000000
  8
38
 62
7
  6
CONTINUOUS
  0
VERTEX
 10
48.200000
 20
4.500000
 30
0.000000
  8
38
 62
7
  6
CONTINUOUS
  0
VERTEX
 10
48.200000
 20
2.500000
 30
0.000000
  8
38
 62
7
  6
CONTINUOUS
  0
SEQEND
  0
LINE
  8
38
 62
7
  6
CONTINUOUS
 10
47.200000
 20
4.500000
 11
47.200000
 21
2.500000
  0
LINE
  8
38
 62
7
  6
CONTINUOUS
 10
46.200000
 20
4.500000
 11
46.200000
 21
2.500000
  0
LINE
  8
38
 62
7
  6
CONTINUOUS
 10
45.200000
 20
4.500000
 11
45.200000
 21
2.500000
  0
LINE
  8
38
 62
7
  6
CONTINUOUS
 10
44.200000
 20
4.500000
 11
44.200000
 21
2.500000
  0
LINE
  8
38
 62
7
  6
CONTINUOUS
 10
43.200000
 20
4.500000
 11
43.200000
 21
2.500000
  0
LINE
  8
38
 62
7
  6
CONTINUOUS
 10
42.200000
 20
4.500000
 11
42.200000
 21
2.500000
  0
CIRCLE
  8
38
 62
7
  6
CONTINUOUS
 10
41.700000
 20
4.100000
 30
0.0
 40
0.200000
  0
CIRCLE
  8
38
 62
7
  6
CONTINUOUS
 10
41.700000
 20
2.900000
 30
0.0
 40
0.200000
  0
CIRCLE
  8
38
 62
7
  6
CONTINUOUS
 10
47.700000
 20
4.100000
 30
0.0
 40
0.200000
  0
CIRCLE
  8
38
 62
7
  6
CONTINUOUS
 10
47.700000
 20
2.900000
 30
0.0
 40
0.200000
  0
CIRCLE
  8
38
 62
7
  6
CONTINUOUS
 10
46.700000
 20
4.100000
 30
0.0
 40
0.200000
  0
CIRCLE
  8
38
 62
7
  6
CONTINUOUS
 10
46.700000
 20
2.900000
 30
0.0
 40
0.200000
  0
CIRCLE
  8
38
 62
7
  6
CONTINUOUS
 10
45.700000
 20
4.100000
 30
0.0
 40
0.200000
  0
CIRCLE
  8
38
 62
7
  6
CONTINUOUS
 10
45.700000
 20
2.900000
 30
0.0
 40
0.200000
  0
CIRCLE
  8
38
 62
7
  6
CONTINUOUS
 10
44.700000
 20
4.100000
 30
0.0
 40
0.200000
  0
CIRCLE
  8
38
 62
7
  6
CONTINUOUS
 10
44.700000
 20
2.900000
 30
0.0
 40
0.200000
  0
CIRCLE
  8
38
 62
7
  6
CONTINUOUS
 10
43.700000
 20
4.100000
 30
0.0
 40
0.200000
  0
CIRCLE
  8
38
 62
7
  6
CONTINUOUS
 10
43.700000
 20
2.900000
 30
0.0
 40
0.200000
  0
CIRCLE
  8
38
 62
7
  6
CONTINUOUS
 10
42.700000
 20
4.100000
 30
0.0
 40
0.200000
  0
CIRCLE
  8
38
 62
7
  6
CONTINUOUS
 10
42.700000
 20
2.900000
 30
0.0
 40
0.200000
  0
SOLID
  8
2
 62
255
  6
CONTINUOUS
 10
14.300000
 20
105.000000
 11
14.300000
 21
108.100000
 12
23.300000
 22
105.000000
 13
23.300000
 23
108.100000
  0
POLYLINE
  8
2
 62
7
  6
CONTINUOUS
 70
1
 66
1
  0
VERTEX
 10
14.300000
 20
105.000000
 30
0.000000
  8
2
 62
7
  6
CONTINUOUS
  0
VERTEX
 10
14.300000
 20
108.100000
 30
0.000000
  8
2
 62
7
  6
CONTINUOUS
  0
VERTEX
 10
23.300000
 20
108.100000
 30
0.000000
  8
2
 62
7
  6
CONTINUOUS
  0
VERTEX
 10
23.300000
 20
105.000000
 30
0.000000
  8
2
 62
7
  6
CONTINUOUS
  0
SEQEND
  0
CIRCLE
  8
2
 62
7
  6
CONTINUOUS
 10
22.000000
 20
106.200000
 30
0.0
 40
0.300000
  0
CIRCLE
  8
2
 62
7
  6
CONTINUOUS
 10
22.000000
 20
106.900000
 30
0.0
 40
0.300000
  0
CIRCLE
  8
2
 62
7
  6
CONTINUOUS
 10
22.000000
 20
105.500000
 30
0.0
 40
0.300000
  0
CIRCLE
  8
2
 62
7
  6
CONTINUOUS
 10
22.000000
 20
107.600000
 30
0.0
 40
0.300000
  0
CIRCLE
  8
2
 62
7
  6
CONTINUOUS
 10
22.800000
 20
107.600000
 30
0.0
 40
0.300000
  0
CIRCLE
  8
2
 62
7
  6
CONTINUOUS
 10
22.800000
 20
106.900000
 30
0.0
 40
0.300000
  0
CIRCLE
  8
2
 62
7
  6
CONTINUOUS
 10
14.800000
 20
107.600000
 30
0.0
 40
0.300000
  0
CIRCLE
  8
2
 62
7
  6
CONTINUOUS
 10
15.600000
 20
107.600000
 30
0.0
 40
0.300000
  0
CIRCLE
  8
2
 62
7
  6
CONTINUOUS
 10
14.800000
 20
106.900000
 30
0.0
 40
0.300000
  0
CIRCLE
  8
2
 62
7
  6
CONTINUOUS
 10
15.600000
 20
106.900000
 30
0.0
 40
0.300000
  0
CIRCLE
  8
2
 62
7
  6
CONTINUOUS
 10
14.800000
 20
106.200000
 30
0.0
 40
0.300000
  0
CIRCLE
  8
2
 62
7
  6
CONTINUOUS
 10
14.800000
 20
105.500000
 30
0.0
 40
0.300000
  0
CIRCLE
  8
2
 62
7
  6
CONTINUOUS
 10
16.600000
 20
107.600000
 30
0.0
 40
0.300000
  0
CIRCLE
  8
2
 62
7
  6
CONTINUOUS
 10
17.400000
 20
107.600000
 30
0.0
 40
0.300000
  0
CIRCLE
  8
2
 62
7
  6
CONTINUOUS
 10
16.600000
 20
106.900000
 30
0.0
 40
0.300000
  0
CIRCLE
  8
2
 62
7
  6
CONTINUOUS
 10
17.400000
 20
106.900000
 30
0.0
 40
0.300000
  0
CIRCLE
  8
2
 62
7
  6
CONTINUOUS
 10
16.600000
 20
106.200000
 30
0.0
 40
0.300000
  0
CIRCLE
  8
2
 62
7
  6
CONTINUOUS
 10
16.600000
 20
105.500000
 30
0.0
 40
0.300000
  0
POLYLINE
  8
2
 62
7
  6
CONTINUOUS
 70
0
 66
1
  0
VERTEX
 10
16.100000
 20
108.100000
  8
2
 62
7
  6
CONTINUOUS
  0
VERTEX
 10
16.100000
 20
105.000000
  8
2
 62
7
  6
CONTINUOUS
  0
SEQEND
  0
POLYLINE
  8
2
 62
7
  6
CONTINUOUS
 70
0
 66
1
  0
VERTEX
 10
17.900000
 20
108.100000
  8
2
 62
7
  6
CONTINUOUS
  0
VERTEX
 10
17.900000
 20
105.000000
  8
2
 62
7
  6
CONTINUOUS
  0
SEQEND
  0
CIRCLE
  8
2
 62
7
  6
CONTINUOUS
 10
18.400000
 20
105.500000
 30
0.0
 40
0.300000
  0
CIRCLE
  8
2
 62
7
  6
CONTINUOUS
 10
18.400000
 20
106.200000
 30
0.0
 40
0.300000
  0
CIRCLE
  8
2
 62
7
  6
CONTINUOUS
 10
18.400000
 20
106.900000
 30
0.0
 40
0.300000
  0
CIRCLE
  8
2
 62
7
  6
CONTINUOUS
 10
18.400000
 20
107.600000
 30
0.0
 40
0.300000
  0
CIRCLE
  8
2
 62
7
  6
CONTINUOUS
 10
19.200000
 20
107.600000
 30
0.0
 40
0.300000
  0
CIRCLE
  8
2
 62
7
  6
CONTINUOUS
 10
19.200000
 20
106.900000
 30
0.0
 40
0.300000
  0
POLYLINE
  8
2
 62
7
  6
CONTINUOUS
 70
0
 66
1
  0
VERTEX
 10
21.500000
 20
108.100000
  8
2
 62
7
  6
CONTINUOUS
  0
VERTEX
 10
21.500000
 20
105.000000
  8
2
 62
7
  6
CONTINUOUS
  0
SEQEND
  0
CIRCLE
  8
2
 62
7
  6
CONTINUOUS
 10
20.200000
 20
107.600000
 30
0.0
 40
0.300000
  0
CIRCLE
  8
2
 62
7
  6
CONTINUOUS
 10
21.000000
 20
107.600000
 30
0.0
 40
0.300000
  0
CIRCLE
  8
2
 62
7
  6
CONTINUOUS
 10
20.200000
 20
106.900000
 30
0.0
 40
0.300000
  0
CIRCLE
  8
2
 62
7
  6
CONTINUOUS
 10
21.000000
 20
106.900000
 30
0.0
 40
0.300000
  0
CIRCLE
  8
2
 62
7
  6
CONTINUOUS
 10
20.200000
 20
106.200000
 30
0.0
 40
0.300000
  0
CIRCLE
  8
2
 62
7
  6
CONTINUOUS
 10
20.200000
 20
105.500000
 30
0.0
 40
0.300000
  0
POLYLINE
  8
2
 62
7
  6
CONTINUOUS
 70
0
 66
1
  0
VERTEX
 10
19.700000
 20
108.100000
  8
2
 62
7
  6
CONTINUOUS
  0
VERTEX
 10
19.700000
 20
105.000000
  8
2
 62
7
  6
CONTINUOUS
  0
SEQEND
  0
SOLID
  8
2
 62
255
  6
CONTINUOUS
 10
1.700000
 20
105.000000
 11
1.700000
 21
108.100000
 12
10.700000
 22
105.000000
 13
10.700000
 23
108.100000
  0
POLYLINE
  8
2
 62
7
  6
CONTINUOUS
 70
1
 66
1
  0
VERTEX
 10
1.700000
 20
105.000000
 30
0.000000
  8
2
 62
7
  6
CONTINUOUS
  0
VERTEX
 10
1.700000
 20
108.100000
 30
0.000000
  8
2
 62
7
  6
CONTINUOUS
  0
VERTEX
 10
10.700000
 20
108.100000
 30
0.000000
  8
2
 62
7
  6
CONTINUOUS
  0
VERTEX
 10
10.700000
 20
105.000000
 30
0.000000
  8
2
 62
7
  6
CONTINUOUS
  0
SEQEND
  0
CIRCLE
  8
2
 62
7
  6
CONTINUOUS
 10
9.400000
 20
106.200000
 30
0.0
 40
0.300000
  0
CIRCLE
  8
2
 62
7
  6
CONTINUOUS
 10
9.400000
 20
106.900000
 30
0.0
 40
0.300000
  0
CIRCLE
  8
2
 62
7
  6
CONTINUOUS
 10
9.400000
 20
105.500000
 30
0.0
 40
0.300000
  0
CIRCLE
  8
2
 62
7
  6
CONTINUOUS
 10
9.400000
 20
107.600000
 30
0.0
 40
0.300000
  0
CIRCLE
  8
2
 62
7
  6
CONTINUOUS
 10
10.200000
 20
107.600000
 30
0.0
 40
0.300000
  0
CIRCLE
  8
2
 62
7
  6
CONTINUOUS
 10
10.200000
 20
106.900000
 30
0.0
 40
0.300000
  0
CIRCLE
  8
2
 62
7
  6
CONTINUOUS
 10
2.200000
 20
107.600000
 30
0.0
 40
0.300000
  0
CIRCLE
  8
2
 62
7
  6
CONTINUOUS
 10
3.000000
 20
107.600000
 30
0.0
 40
0.300000
  0
CIRCLE
  8
2
 62
7
  6
CONTINUOUS
 10
2.200000
 20
106.900000
 30
0.0
 40
0.300000
  0
CIRCLE
  8
2
 62
7
  6
CONTINUOUS
 10
3.000000
 20
106.900000
 30
0.0
 40
0.300000
  0
CIRCLE
  8
2
 62
7
  6
CONTINUOUS
 10
2.200000
 20
106.200000
 30
0.0
 40
0.300000
  0
CIRCLE
  8
2
 62
7
  6
CONTINUOUS
 10
2.200000
 20
105.500000
 30
0.0
 40
0.300000
  0
CIRCLE
  8
2
 62
7
  6
CONTINUOUS
 10
4.000000
 20
107.600000
 30
0.0
 40
0.300000
  0
CIRCLE
  8
2
 62
7
  6
CONTINUOUS
 10
4.800000
 20
107.600000
 30
0.0
 40
0.300000
  0
CIRCLE
  8
2
 62
7
  6
CONTINUOUS
 10
4.000000
 20
106.900000
 30
0.0
 40
0.300000
  0
CIRCLE
  8
2
 62
7
  6
CONTINUOUS
 10
4.800000
 20
106.900000
 30
0.0
 40
0.300000
  0
CIRCLE
  8
2
 62
7
  6
CONTINUOUS
 10
4.000000
 20
106.200000
 30
0.0
 40
0.300000
  0
CIRCLE
  8
2
 62
7
  6
CONTINUOUS
 10
4.000000
 20
105.500000
 30
0.0
 40
0.300000
  0
POLYLINE
  8
2
 62
7
  6
CONTINUOUS
 70
0
 66
1
  0
VERTEX
 10
3.500000
 20
108.100000
  8
2
 62
7
  6
CONTINUOUS
  0
VERTEX
 10
3.500000
 20
105.000000
  8
2
 62
7
  6
CONTINUOUS
  0
SEQEND
  0
POLYLINE
  8
2
 62
7
  6
CONTINUOUS
 70
0
 66
1
  0
VERTEX
 10
5.300000
 20
108.100000
  8
2
 62
7
  6
CONTINUOUS
  0
VERTEX
 10
5.300000
 20
105.000000
  8
2
 62
7
  6
CONTINUOUS
  0
SEQEND
  0
CIRCLE
  8
2
 62
7
  6
CONTINUOUS
 10
5.800000
 20
105.500000
 30
0.0
 40
0.300000
  0
CIRCLE
  8
2
 62
7
  6
CONTINUOUS
 10
5.800000
 20
106.200000
 30
0.0
 40
0.300000
  0
CIRCLE
  8
2
 62
7
  6
CONTINUOUS
 10
5.800000
 20
106.900000
 30
0.0
 40
0.300000
  0
CIRCLE
  8
2
 62
7
  6
CONTINUOUS
 10
5.800000
 20
107.600000
 30
0.0
 40
0.300000
  0
CIRCLE
  8
2
 62
7
  6
CONTINUOUS
 10
6.600000
 20
107.600000
 30
0.0
 40
0.300000
  0
CIRCLE
  8
2
 62
7
  6
CONTINUOUS
 10
6.600000
 20
106.900000
 30
0.0
 40
0.300000
  0
POLYLINE
  8
2
 62
7
  6
CONTINUOUS
 70
0
 66
1
  0
VERTEX
 10
8.900000
 20
108.100000
  8
2
 62
7
  6
CONTINUOUS
  0
VERTEX
 10
8.900000
 20
105.000000
  8
2
 62
7
  6
CONTINUOUS
  0
SEQEND
  0
CIRCLE
  8
2
 62
7
  6
CONTINUOUS
 10
7.600000
 20
107.600000
 30
0.0
 40
0.300000
  0
CIRCLE
  8
2
 62
7
  6
CONTINUOUS
 10
8.400000
 20
107.600000
 30
0.0
 40
0.300000
  0
CIRCLE
  8
2
 62
7
  6
CONTINUOUS
 10
7.600000
 20
106.900000
 30
0.0
 40
0.300000
  0
CIRCLE
  8
2
 62
7
  6
CONTINUOUS
 10
8.400000
 20
106.900000
 30
0.0
 40
0.300000
  0
CIRCLE
  8
2
 62
7
  6
CONTINUOUS
 10
7.600000
 20
106.200000
 30
0.0
 40
0.300000
  0
CIRCLE
  8
2
 62
7
  6
CONTINUOUS
 10
7.600000
 20
105.500000
 30
0.0
 40
0.300000
  0
POLYLINE
  8
2
 62
7
  6
CONTINUOUS
 70
0
 66
1
  0
VERTEX
 10
7.100000
 20
108.100000
  8
2
 62
7
  6
CONTINUOUS
  0
VERTEX
 10
7.100000
 20
105.000000
  8
2
 62
7
  6
CONTINUOUS
  0
SEQEND
  0
SOLID
  8
2
 62
255
  6
CONTINUOUS
 10
38.500000
 20
13.900000
 11
38.500000
 21
18.500000
 12
36.700000
 22
13.900000
 13
36.700000
 23
18.500000
  0
POLYLINE
  8
2
 62
7
  6
CONTINUOUS
 70
1
 66
1
  0
VERTEX
 10
38.500000
 20
13.900000
 30
0.000000
  8
2
 62
7
  6
CONTINUOUS
  0
VERTEX
 10
38.500000
 20
18.500000
 30
0.000000
  8
2
 62
7
  6
CONTINUOUS
  0
VERTEX
 10
36.700000
 20
18.500000
 30
0.000000
  8
2
 62
7
  6
CONTINUOUS
  0
VERTEX
 10
36.700000
 20
13.900000
 30
0.000000
  8
2
 62
7
  6
CONTINUOUS
  0
SEQEND
  0
POLYLINE
  8
2
 62
7
  6
L000000000000000000
 70
1
 66
1
  0
VERTEX
 10
38.200000
 20
14.800000
 30
0.000000
  8
2
 62
7
  6
L000000000000000000
  0
VERTEX
 10
38.200000
 20
16.200000
 30
0.000000
  8
2
 62
7
  6
L000000000000000000
  0
VERTEX
 10
37.000000
 20
16.200000
 30
0.000000
  8
2
 62
7
  6
L000000000000000000
  0
VERTEX
 10
37.000000
 20
14.800000
 30
0.000000
  8
2
 62
7
  6
L000000000000000000
  0
SEQEND
  0
SOLID
  8
2
 62
1
  6
CONTINUOUS
 10
36.800000
 20
17.900000
 11
36.800000
 21
18.400000
 12
38.400000
 22
17.900000
 13
38.400000
 23
18.400000
  0
POLYLINE
  8
2
 62
7
  6
CONTINUOUS
 70
1
 66
1
  0
VERTEX
 10
36.800000
 20
17.900000
 30
0.000000
  8
2
 62
7
  6
CONTINUOUS
  0
VERTEX
 10
36.800000
 20
18.400000
 30
0.000000
  8
2
 62
7
  6
CONTINUOUS
  0
VERTEX
 10
38.400000
 20
18.400000
 30
0.000000
  8
2
 62
7
  6
CONTINUOUS
  0
VERTEX
 10
38.400000
 20
17.900000
 30
0.000000
  8
2
 62
7
  6
CONTINUOUS
  0
SEQEND
  0
LINE
  8
2
 62
7
  6
L000000000000000000
 10
36.700000
 20
16.400000
 11
38.500000
 21
16.400000
  0
LINE
  8
2
 62
7
  6
L000000000000000000
 10
37.000000
 20
15.500000
 11
36.700000
 21
15.500000
  0
LINE
  8
2
 62
7
  6
L000000000000000000
 10
38.500000
 20
15.500000
 11
38.200000
 21
15.500000
  0
LINE
  8
2
 62
7
  6
L000000000000000000
 10
38.200000
 20
15.700000
 11
37.000000
 21
15.700000
  0
SOLID
  8
2
 62
7
  6
L000000000000000000
 10
38.200000
 20
14.800000
 11
38.200000
 21
15.100000
 12
37.000000
 22
14.800000
 13
37.000000
 23
15.100000
  0
POLYLINE
  8
2
 62
7
  6
L000000000000000000
 70
1
 66
1
  0
VERTEX
 10
38.200000
 20
14.800000
 30
0.000000
  8
2
 62
7
  6
L000000000000000000
  0
VERTEX
 10
38.200000
 20
15.100000
 30
0.000000
  8
2
 62
7
  6
L000000000000000000
  0
VERTEX
 10
37.000000
 20
15.100000
 30
0.000000
  8
2
 62
7
  6
L000000000000000000
  0
VERTEX
 10
37.000000
 20
14.800000
 30
0.000000
  8
2
 62
7
  6
L000000000000000000
  0
SEQEND
  0
POLYLINE
  8
2
 62
7
  6
L014100020032000000
 70
1
 66
1
  0
VERTEX
 10
47.900000
 20
130.500000
 30
0.000000
  8
2
 62
7
  6
L014100020032000000
  0
VERTEX
 10
47.900000
 20
134.500000
 30
0.000000
  8
2
 62
7
  6
L014100020032000000
  0
VERTEX
 10
27.100000
 20
134.500000
 30
0.000000
  8
2
 62
7
  6
L014100020032000000
  0
VERTEX
 10
27.100000
 20
130.500000
 30
0.000000
  8
2
 62
7
  6
L014100020032000000
  0
SEQEND
  0
SOLID
  8
30
 62
255
  6
CONTINUOUS
 10
26.700000
 20
5.700000
 11
26.700000
 21
28.200000
 12
23.300000
 22
5.700000
 13
23.300000
 23
28.200000
  0
POLYLINE
  8
30
 62
7
  6
CONTINUOUS
 70
1
 66
1
  0
VERTEX
 10
26.700000
 20
5.700000
 30
0.000000
  8
30
 62
7
  6
CONTINUOUS
  0
VERTEX
 10
26.700000
 20
28.200000
 30
0.000000
  8
30
 62
7
  6
CONTINUOUS
  0
VERTEX
 10
23.300000
 20
28.200000
 30
0.000000
  8
30
 62
7
  6
CONTINUOUS
  0
VERTEX
 10
23.300000
 20
5.700000
 30
0.000000
  8
30
 62
7
  6
CONTINUOUS
  0
SEQEND
  0
SOLID
  8
30
 62
255
  6
CONTINUOUS
 10
1.700000
 20
5.700000
 11
1.700000
 21
28.200000
 12
0.700000
 22
5.700000
 13
0.700000
 23
28.200000
  0
POLYLINE
  8
30
 62
7
  6
CONTINUOUS
 70
1
 66
1
  0
VERTEX
 10
1.700000
 20
5.700000
 30
0.000000
  8
30
 62
7
  6
CONTINUOUS
  0
VERTEX
 10
1.700000
 20
28.200000
 30
0.000000
  8
30
 62
7
  6
CONTINUOUS
  0
VERTEX
 10
0.700000
 20
28.200000
 30
0.000000
  8
30
 62
7
  6
CONTINUOUS
  0
VERTEX
 10
0.700000
 20
5.700000
 30
0.000000
  8
30
 62
7
  6
CONTINUOUS
  0
SEQEND
  0
SOLID
  8
30
 62
255
  6
CONTINUOUS
 10
49.300000
 20
5.700000
 11
49.300000
 21
28.200000
 12
48.300000
 22
5.700000
 13
48.300000
 23
28.200000
  0
POLYLINE
  8
30
 62
7
  6
CONTINUOUS
 70
1
 66
1
  0
VERTEX
 10
49.300000
 20
5.700000
 30
0.000000
  8
30
 62
7
  6
CONTINUOUS
  0
VERTEX
 10
49.300000
 20
28.200000
 30
0.000000
  8
30
 62
7
  6
CONTINUOUS
  0
VERTEX
 10
48.300000
 20
28.200000
 30
0.000000
  8
30
 62
7
  6
CONTINUOUS
  0
VERTEX
 10
48.300000
 20
5.700000
 30
0.000000
  8
30
 62
7
  6
CONTINUOUS
  0
SEQEND
  0
SOLID
  8
157
 62
255
  6
CONTINUOUS
 10
14.300000
 20
105.000000
 11
14.300000
 21
108.100000
 12
23.300000
 22
105.000000
 13
23.300000
 23
108.100000
  0
POLYLINE
  8
157
 62
7
  6
CONTINUOUS
 70
1
 66
1
  0
VERTEX
 10
14.300000
 20
105.000000
 30
0.000000
  8
157
 62
7
  6
CONTINUOUS
  0
VERTEX
 10
14.300000
 20
108.100000
 30
0.000000
  8
157
 62
7
  6
CONTINUOUS
  0
VERTEX
 10
23.300000
 20
108.100000
 30
0.000000
  8
157
 62
7
  6
CONTINUOUS
  0
VERTEX
 10
23.300000
 20
105.000000
 30
0.000000
  8
157
 62
7
  6
CONTINUOUS
  0
SEQEND
  0
POLYLINE
  8
157
 62
7
  6
CONTINUOUS
 70
0
 66
1
  0
VERTEX
 10
21.500000
 20
108.100000
  8
157
 62
7
  6
CONTINUOUS
  0
VERTEX
 10
21.500000
 20
105.000000
  8
157
 62
7
  6
CONTINUOUS
  0
SEQEND
  0
POLYLINE
  8
157
 62
7
  6
CONTINUOUS
 70
0
 66
1
  0
VERTEX
 10
19.700000
 20
108.100000
  8
157
 62
7
  6
CONTINUOUS
  0
VERTEX
 10
19.700000
 20
105.000000
  8
157
 62
7
  6
CONTINUOUS
  0
SEQEND
  0
POLYLINE
  8
157
 62
7
  6
CONTINUOUS
 70
0
 66
1
  0
VERTEX
 10
17.900000
 20
108.100000
  8
157
 62
7
  6
CONTINUOUS
  0
VERTEX
 10
17.900000
 20
105.000000
  8
157
 62
7
  6
CONTINUOUS
  0
SEQEND
  0
POLYLINE
  8
157
 62
7
  6
CONTINUOUS
 70
0
 66
1
  0
VERTEX
 10
16.100000
 20
108.100000
  8
157
 62
7
  6
CONTINUOUS
  0
VERTEX
 10
16.100000
 20
105.000000
  8
157
 62
7
  6
CONTINUOUS
  0
SEQEND
  0
SOLID
  8
157
 62
255
  6
CONTINUOUS
 10
1.700000
 20
105.000000
 11
1.700000
 21
108.100000
 12
10.700000
 22
105.000000
 13
10.700000
 23
108.100000
  0
POLYLINE
  8
157
 62
7
  6
CONTINUOUS
 70
1
 66
1
  0
VERTEX
 10
1.700000
 20
105.000000
 30
0.000000
  8
157
 62
7
  6
CONTINUOUS
  0
VERTEX
 10
1.700000
 20
108.100000
 30
0.000000
  8
157
 62
7
  6
CONTINUOUS
  0
VERTEX
 10
10.700000
 20
108.100000
 30
0.000000
  8
157
 62
7
  6
CONTINUOUS
  0
VERTEX
 10
10.700000
 20
105.000000
 30
0.000000
  8
157
 62
7
  6
CONTINUOUS
  0
SEQEND
  0
POLYLINE
  8
157
 62
7
  6
CONTINUOUS
 70
0
 66
1
  0
VERTEX
 10
8.900000
 20
108.100000
  8
157
 62
7
  6
CONTINUOUS
  0
VERTEX
 10
8.900000
 20
105.000000
  8
157
 62
7
  6
CONTINUOUS
  0
SEQEND
  0
POLYLINE
  8
157
 62
7
  6
CONTINUOUS
 70
0
 66
1
  0
VERTEX
 10
7.100000
 20
108.100000
  8
157
 62
7
  6
CONTINUOUS
  0
VERTEX
 10
7.100000
 20
105.000000
  8
157
 62
7
  6
CONTINUOUS
  0
SEQEND
  0
POLYLINE
  8
157
 62
7
  6
CONTINUOUS
 70
0
 66
1
  0
VERTEX
 10
5.300000
 20
108.100000
  8
157
 62
7
  6
CONTINUOUS
  0
VERTEX
 10
5.300000
 20
105.000000
  8
157
 62
7
  6
CONTINUOUS
  0
SEQEND
  0
POLYLINE
  8
157
 62
7
  6
CONTINUOUS
 70
0
 66
1
  0
VERTEX
 10
3.500000
 20
108.100000
  8
157
 62
7
  6
CONTINUOUS
  0
VERTEX
 10
3.500000
 20
105.000000
  8
157
 62
7
  6
CONTINUOUS
  0
SEQEND
  0
SOLID
  8
157
 62
255
  6
CONTINUOUS
 10
48.200000
 20
4.500000
 11
48.200000
 21
2.500000
 12
41.200000
 22
4.500000
 13
41.200000
 23
2.500000
  0
POLYLINE
  8
157
 62
7
  6
CONTINUOUS
 70
1
 66
1
  0
VERTEX
 10
48.200000
 20
4.500000
 30
0.000000
  8
157
 62
7
  6
CONTINUOUS
  0
VERTEX
 10
48.200000
 20
2.500000
 30
0.000000
  8
157
 62
7
  6
CONTINUOUS
  0
VERTEX
 10
41.200000
 20
2.500000
 30
0.000000
  8
157
 62
7
  6
CONTINUOUS
  0
VERTEX
 10
41.200000
 20
4.500000
 30
0.000000
  8
157
 62
7
  6
CONTINUOUS
  0
SEQEND
  0
LINE
  8
157
 62
7
  6
CONTINUOUS
 10
42.200000
 20
2.500000
 11
42.200000
 21
4.500000
  0
LINE
  8
157
 62
7
  6
CONTINUOUS
 10
43.200000
 20
2.500000
 11
43.200000
 21
4.500000
  0
LINE
  8
157
 62
7
  6
CONTINUOUS
 10
44.200000
 20
2.500000
 11
44.200000
 21
4.500000
  0
LINE
  8
157
 62
7
  6
CONTINUOUS
 10
45.200000
 20
2.500000
 11
45.200000
 21
4.500000
  0
LINE
  8
157
 62
7
  6
CONTINUOUS
 10
46.200000
 20
2.500000
 11
46.200000
 21
4.500000
  0
LINE
  8
157
 62
7
  6
CONTINUOUS
 10
47.200000
 20
2.500000
 11
47.200000
 21
4.500000
  0
LINE
  8
158
 62
7
  6
L000000040000000000
 10
9.400000
 20
66.600000
 11
9.400000
 21
71.900000
  0
LINE
  8
158
 62
7
  6
CONTINUOUS
 10
6.700000
 20
91.700000
 11
4.700000
 21
90.700000
  0
LINE
  8
158
 62
7
  6
CONTINUOUS
 10
6.700000
 20
90.700000
 11
4.700000
 21
89.700000
  0
LINE
  8
158
 62
7
  6
CONTINUOUS
 10
6.700000
 20
89.700000
 11
4.700000
 21
88.700000
  0
LINE
  8
158
 62
7
  6
L000000040000000000
 10
9.300000
 20
31.300000
 11
9.300000
 21
37.000000
  0
LINE
  8
158
 62
7
  6
L000000040000000000
 10
9.300000
 20
31.300000
 11
18.700000
 21
31.300000
  0
LINE
  8
158
 62
7
  6
CONTINUOUS
 10
10.100000
 20
34.000000
 11
8.100000
 21
33.000000
  0
LINE
  8
158
 62
7
  6
CONTINUOUS
 10
10.100000
 20
33.000000
 11
8.100000
 21
32.000000
  0
LINE
  8
158
 62
7
  6
CONTINUOUS
 10
19.300000
 20
53.600000
 11
17.300000
 21
52.600000
  0
LINE
  8
158
 62
7
  6
CONTINUOUS
 10
19.300000
 20
51.600000
 11
17.300000
 21
50.600000
  0
LINE
  8
158
 62
7
  6
CONTINUOUS
 10
19.300000
 20
52.600000
 11
17.300000
 21
51.600000
  0
LINE
  8
158
 62
5
  6
L000000040000FF0000
 10
15.500000
 20
33.300000
 11
15.500000
 21
37.000000
  0
LINE
  8
158
 62
5
  6
L000000040000FF0000
 10
15.600000
 20
65.500000
 11
15.600000
 21
71.900000
  0
LINE
  8
158
 62
5
  6
L000000040000FF0000
 10
8.500000
 20
65.500000
 11
15.600000
 21
65.500000
  0
LINE
  8
158
 62
3
  6
L00000004000000FF00
 10
4.400000
 20
6.800000
 11
4.400000
 21
5.300000
  0
LINE
  8
158
 62
5
  6
L000000040000FF0000
 10
17.100000
 20
33.300000
 11
15.500000
 21
33.300000
  0
LINE
  8
158
 62
7
  6
CONTINUOUS
 10
6.100000
 20
54.300000
 11
4.100000
 21
53.300000
  0
LINE
  8
158
 62
7
  6
CONTINUOUS
 10
6.100000
 20
52.300000
 11
4.100000
 21
51.300000
  0
LINE
  8
158
 62
7
  6
CONTINUOUS
 10
6.100000
 20
53.300000
 11
4.100000
 21
52.300000
  0
LINE
  8
158
 62
7
  6
L000000040000000000
 10
5.200000
 20
66.600000
 11
5.200000
 21
22.300000
  0
LINE
  8
158
 62
7
  6
L000000040000000000
 10
9.400000
 20
66.600000
 11
9.400000
 21
71.900000
  0
LINE
  8
158
 62
7
  6
L000000040000000000
 10
5.200000
 20
66.600000
 11
9.400000
 21
66.600000
  0
LINE
  8
158
 62
255
  6
L00000004000000007F
 10
5.800000
 20
68.500000
 11
5.800000
 21
106.500000
  0
LINE
  8
158
 62
255
  6
L00000004000000007F
 10
18.400000
 20
32.300000
 11
18.400000
 21
106.500000
  0
LINE
  8
158
 62
255
  6
L00000004000000007F
 10
12.500000
 20
68.500000
 11
12.500000
 21
71.900000
  0
LINE
  8
158
 62
7
  6
CONTINUOUS
 10
6.700000
 20
91.700000
 11
4.700000
 21
90.700000
  0
LINE
  8
158
 62
7
  6
CONTINUOUS
 10
6.700000
 20
90.700000
 11
4.700000
 21
89.700000
  0
LINE
  8
158
 62
7
  6
CONTINUOUS
 10
6.700000
 20
89.700000
 11
4.700000
 21
88.700000
  0
LINE
  8
158
 62
255
  6
L00000004000000007F
 10
12.500000
 20
68.500000
 11
5.800000
 21
68.500000
  0
LINE
  8
158
 62
7
  6
L000000040000000000
 10
9.300000
 20
31.300000
 11
9.300000
 21
37.000000
  0
LINE
  8
158
 62
7
  6
L000000040000000000
 10
18.700000
 20
31.300000
 11
18.700000
 21
22.300000
  0
LINE
  8
158
 62
255
  6
L00000004000000007F
 10
12.500000
 20
32.300000
 11
12.500000
 21
37.000000
  0
LINE
  8
158
 62
255
  6
L00000004000000007F
 10
18.400000
 20
32.300000
 11
12.500000
 21
32.300000
  0
LINE
  8
158
 62
7
  6
CONTINUOUS
 10
10.100000
 20
34.000000
 11
8.100000
 21
33.000000
  0
LINE
  8
158
 62
7
  6
CONTINUOUS
 10
10.100000
 20
33.000000
 11
8.100000
 21
32.000000
  0
LINE
  8
158
 62
7
  6
CONTINUOUS
 10
19.300000
 20
53.600000
 11
17.300000
 21
52.600000
  0
LINE
  8
158
 62
7
  6
CONTINUOUS
 10
19.300000
 20
51.600000
 11
17.300000
 21
50.600000
  0
LINE
  8
158
 62
7
  6
CONTINUOUS
 10
19.300000
 20
52.600000
 11
17.300000
 21
51.600000
  0
LINE
  8
158
 62
5
  6
L000000040000FF0000
 10
20.200000
 20
35.000000
 11
20.200000
 21
106.500000
  0
LINE
  8
158
 62
5
  6
L000000040000FF0000
 10
22.700000
 20
35.000000
 11
22.700000
 21
25.500000
  0
LINE
  8
158
 62
5
  6
L000000040000FF0000
 10
22.700000
 20
35.000000
 11
20.200000
 21
35.000000
  0
LINE
  8
158
 62
5
  6
L000000040000FF0000
 10
15.500000
 20
33.300000
 11
15.500000
 21
37.000000
  0
LINE
  8
158
 62
5
  6
L000000040000FF0000
 10
6.500000
 20
65.500000
 11
15.600000
 21
65.500000
  0
LINE
  8
158
 62
5
  6
L000000040000FF0000
 10
6.500000
 20
25.400000
 11
6.500000
 21
65.500000
  0
LINE
  8
158
 62
5
  6
L000000040000FF0000
 10
7.600000
 20
103.900000
 11
0.600000
 21
103.900000
  0
LINE
  8
158
 62
3
  6
L00000004000000FF00
 10
22.000000
 20
106.500000
 11
22.000000
 21
5.300000
  0
LINE
  8
158
 62
5
  6
L000000040000FF0000
 10
20.000000
 20
33.300000
 11
20.000000
 21
25.500000
  0
LINE
  8
158
 62
5
  6
L000000040000FF0000
 10
20.000000
 20
33.300000
 11
15.500000
 21
33.300000
  0
LINE
  8
158
 62
3
  6
L00000004000000FF00
 10
2.500000
 20
5.300000
 11
2.500000
 21
103.400000
  0
LINE
  8
158
 62
5
  6
L000000040000FF0000
 10
7.600000
 20
103.900000
 11
7.600000
 21
106.500000
  0
LINE
  8
158
 62
3
  6
L00000004000000FF00
 10
2.500000
 20
5.300000
 11
4.400000
 21
5.300000
  0
LINE
  8
158
 62
7
  6
CONTINUOUS
 10
6.100000
 20
54.300000
 11
4.100000
 21
53.300000
  0
LINE
  8
158
 62
7
  6
CONTINUOUS
 10
6.100000
 20
52.300000
 11
4.100000
 21
51.300000
  0
LINE
  8
158
 62
7
  6
CONTINUOUS
 10
6.100000
 20
53.300000
 11
4.100000
 21
52.300000
  0
LINE
  8
158
 62
3
  6
L00000004000000FF00
 10
20.500000
 20
5.300000
 11
22.000000
 21
5.300000
  0
LINE
  8
158
 62
3
  6
L00000004000000FF00
 10
20.500000
 20
6.800000
 11
20.500000
 21
5.300000
  0
LINE
  8
158
 62
5
  6
L000000040000FF0000
 10
3.800000
 20
25.300000
 11
3.800000
 21
29.000000
  0
LINE
  8
158
 62
5
  6
L000000040000FF0000
 10
0.600000
 20
103.900000
 11
0.600000
 21
29.000000
  0
LINE
  8
158
 62
5
  6
L000000040000FF0000
 10
3.800000
 20
29.000000
 11
0.600000
 21
29.000000
  0
LINE
  8
158
 62
5
  6
L000000040000FF0000
 10
15.600000
 20
65.500000
 11
15.600000
 21
71.900000
  0
SOLID
  8
158
 62
255
  6
CONTINUOUS
 10
7.100000
 20
25.400000
 11
7.100000
 21
23.200000
 12
5.900000
 22
25.400000
 13
5.900000
 23
23.200000
  0
POLYLINE
  8
158
 62
7
  6
CONTINUOUS
 70
1
 66
1
  0
VERTEX
 10
7.100000
 20
25.400000
 30
0.000000
  8
158
 62
7
  6
CONTINUOUS
  0
VERTEX
 10
7.100000
 20
23.200000
 30
0.000000
  8
158
 62
7
  6
CONTINUOUS
  0
VERTEX
 10
5.900000
 20
23.200000
 30
0.000000
  8
158
 62
7
  6
CONTINUOUS
  0
VERTEX
 10
5.900000
 20
25.400000
 30
0.000000
  8
158
 62
7
  6
CONTINUOUS
  0
SEQEND
  0
CIRCLE
  8
158
 62
7
  6
CONTINUOUS
 10
6.500000
 20
24.300000
 30
0.0
 40
0.500000
  0
LINE
  8
158
 62
7
  6
CONTINUOUS
 10
7.000000
 20
24.300000
 11
6.000000
 21
24.300000
  0
SOLID
  8
158
 62
255
  6
CONTINUOUS
 10
20.600000
 20
25.400000
 11
20.600000
 21
23.200000
 12
19.400000
 22
25.400000
 13
19.400000
 23
23.200000
  0
POLYLINE
  8
158
 62
7
  6
CONTINUOUS
 70
1
 66
1
  0
VERTEX
 10
20.600000
 20
25.400000
 30
0.000000
  8
158
 62
7
  6
CONTINUOUS
  0
VERTEX
 10
20.600000
 20
23.200000
 30
0.000000
  8
158
 62
7
  6
CONTINUOUS
  0
VERTEX
 10
19.400000
 20
23.200000
 30
0.000000
  8
158
 62
7
  6
CONTINUOUS
  0
VERTEX
 10
19.400000
 20
25.400000
 30
0.000000
  8
158
 62
7
  6
CONTINUOUS
  0
SEQEND
  0
LINE
  8
158
 62
7
  6
CONTINUOUS
 10
20.500000
 20
24.300000
 11
19.500000
 21
24.300000
  0
CIRCLE
  8
158
 62
7
  6
CONTINUOUS
 10
20.000000
 20
24.300000
 30
0.0
 40
0.500000
  0
SOLID
  8
158
 62
255
  6
CONTINUOUS
 10
5.000000
 20
9.000000
 11
5.000000
 21
6.800000
 12
3.800000
 22
9.000000
 13
3.800000
 23
6.800000
  0
POLYLINE
  8
158
 62
7
  6
CONTINUOUS
 70
1
 66
1
  0
VERTEX
 10
5.000000
 20
9.000000
 30
0.000000
  8
158
 62
7
  6
CONTINUOUS
  0
VERTEX
 10
5.000000
 20
6.800000
 30
0.000000
  8
158
 62
7
  6
CONTINUOUS
  0
VERTEX
 10
3.800000
 20
6.800000
 30
0.000000
  8
158
 62
7
  6
CONTINUOUS
  0
VERTEX
 10
3.800000
 20
9.000000
 30
0.000000
  8
158
 62
7
  6
CONTINUOUS
  0
SEQEND
  0
CIRCLE
  8
158
 62
7
  6
CONTINUOUS
 10
4.400000
 20
7.900000
 30
0.0
 40
0.500000
  0
LINE
  8
158
 62
7
  6
CONTINUOUS
 10
4.900000
 20
7.900000
 11
3.900000
 21
7.900000
  0
SOLID
  8
158
 62
255
  6
CONTINUOUS
 10
21.100000
 20
9.000000
 11
21.100000
 21
6.800000
 12
19.900000
 22
9.000000
 13
19.900000
 23
6.800000
  0
POLYLINE
  8
158
 62
7
  6
CONTINUOUS
 70
1
 66
1
  0
VERTEX
 10
21.100000
 20
9.000000
 30
0.000000
  8
158
 62
7
  6
CONTINUOUS
  0
VERTEX
 10
21.100000
 20
6.800000
 30
0.000000
  8
158
 62
7
  6
CONTINUOUS
  0
VERTEX
 10
19.900000
 20
6.800000
 30
0.000000
  8
158
 62
7
  6
CONTINUOUS
  0
VERTEX
 10
19.900000
 20
9.000000
 30
0.000000
  8
158
 62
7
  6
CONTINUOUS
  0
SEQEND
  0
CIRCLE
  8
158
 62
7
  6
CONTINUOUS
 10
20.500000
 20
7.900000
 30
0.0
 40
0.500000
  0
LINE
  8
158
 62
7
  6
CONTINUOUS
 10
21.000000
 20
7.900000
 11
20.000000
 21
7.900000
  0
LINE
  8
158
 62
255
  6
L00000004000000007F
 10
14.800000
 20
104.500000
 11
18.400000
 21
104.500000
  0
LINE
  8
158
 62
255
  6
L00000004000000007F
 10
14.800000
 20
106.500000
 11
14.800000
 21
104.500000
  0
LINE
  8
158
 62
255
  6
L00000004000000007F
 10
16.600000
 20
104.500000
 11
16.600000
 21
106.500000
  0
LINE
  8
158
 62
3
  6
L00000004000000FF00
 10
9.400000
 20
103.400000
 11
2.500000
 21
103.400000
  0
LINE
  8
158
 62
255
  6
L00000004000000007F
 10
5.800000
 20
104.500000
 11
2.200000
 21
104.500000
  0
LINE
  8
158
 62
255
  6
L00000004000000007F
 10
4.000000
 20
106.500000
 11
4.000000
 21
104.500000
  0
LINE
  8
158
 62
255
  6
L00000004000000007F
 10
2.200000
 20
104.500000
 11
2.200000
 21
106.500000
  0
LINE
  8
158
 62
3
  6
L00000004000000FF00
 10
9.400000
 20
103.400000
 11
9.400000
 21
106.500000
  0
SOLID
  8
158
 62
255
  6
CONTINUOUS
 10
4.400000
 20
25.400000
 11
4.400000
 21
23.200000
 12
3.200000
 22
25.400000
 13
3.200000
 23
23.200000
  0
POLYLINE
  8
158
 62
7
  6
CONTINUOUS
 70
1
 66
1
  0
VERTEX
 10
4.400000
 20
25.400000
 30
0.000000
  8
158
 62
7
  6
CONTINUOUS
  0
VERTEX
 10
4.400000
 20
23.200000
 30
0.000000
  8
158
 62
7
  6
CONTINUOUS
  0
VERTEX
 10
3.200000
 20
23.200000
 30
0.000000
  8
158
 62
7
  6
CONTINUOUS
  0
VERTEX
 10
3.200000
 20
25.400000
 30
0.000000
  8
158
 62
7
  6
CONTINUOUS
  0
SEQEND
  0
CIRCLE
  8
158
 62
7
  6
CONTINUOUS
 10
3.800000
 20
24.300000
 30
0.0
 40
0.500000
  0
LINE
  8
158
 62
7
  6
CONTINUOUS
 10
4.300000
 20
24.300000
 11
3.300000
 21
24.300000
  0
SOLID
  8
158
 62
255
  6
CONTINUOUS
 10
23.300000
 20
25.400000
 11
23.300000
 21
23.200000
 12
22.100000
 22
25.400000
 13
22.100000
 23
23.200000
  0
POLYLINE
  8
158
 62
7
  6
CONTINUOUS
 70
1
 66
1
  0
VERTEX
 10
23.300000
 20
25.400000
 30
0.000000
  8
158
 62
7
  6
CONTINUOUS
  0
VERTEX
 10
23.300000
 20
23.200000
 30
0.000000
  8
158
 62
7
  6
CONTINUOUS
  0
VERTEX
 10
22.100000
 20
23.200000
 30
0.000000
  8
158
 62
7
  6
CONTINUOUS
  0
VERTEX
 10
22.100000
 20
25.400000
 30
0.000000
  8
158
 62
7
  6
CONTINUOUS
  0
SEQEND
  0
LINE
  8
158
 62
7
  6
CONTINUOUS
 10
23.200000
 20
24.300000
 11
22.200000
 21
24.300000
  0
CIRCLE
  8
158
 62
7
  6
CONTINUOUS
 10
22.700000
 20
24.300000
 30
0.0
 40
0.500000
  0
LINE
  8
158
 62
7
  6
CONTINUOUS
 10
10.100000
 20
32.000000
 11
8.100000
 21
31.000000
  0
LINE
  8
158
 62
7
  6
CONTINUOUS
 10
10.100000
 20
32.000000
 11
8.100000
 21
31.000000
  0
SOLID
  8
158
 62
255
  6
CONTINUOUS
 10
42.900000
 20
25.400000
 11
42.900000
 21
23.200000
 12
41.700000
 22
25.400000
 13
41.700000
 23
23.200000
  0
POLYLINE
  8
158
 62
7
  6
CONTINUOUS
 70
1
 66
1
  0
VERTEX
 10
42.900000
 20
25.400000
 30
0.000000
  8
158
 62
7
  6
CONTINUOUS
  0
VERTEX
 10
42.900000
 20
23.200000
 30
0.000000
  8
158
 62
7
  6
CONTINUOUS
  0
VERTEX
 10
41.700000
 20
23.200000
 30
0.000000
  8
158
 62
7
  6
CONTINUOUS
  0
VERTEX
 10
41.700000
 20
25.400000
 30
0.000000
  8
158
 62
7
  6
CONTINUOUS
  0
SEQEND
  0
SOLID
  8
158
 62
255
  6
CONTINUOUS
 10
34.800000
 20
25.400000
 11
34.800000
 21
23.200000
 12
33.600000
 22
25.400000
 13
33.600000
 23
23.200000
  0
POLYLINE
  8
158
 62
7
  6
CONTINUOUS
 70
1
 66
1
  0
VERTEX
 10
34.800000
 20
25.400000
 30
0.000000
  8
158
 62
7
  6
CONTINUOUS
  0
VERTEX
 10
34.800000
 20
23.200000
 30
0.000000
  8
158
 62
7
  6
CONTINUOUS
  0
VERTEX
 10
33.600000
 20
23.200000
 30
0.000000
  8
158
 62
7
  6
CONTINUOUS
  0
VERTEX
 10
33.600000
 20
25.400000
 30
0.000000
  8
158
 62
7
  6
CONTINUOUS
  0
SEQEND
  0
CIRCLE
  8
158
 62
7
  6
CONTINUOUS
 10
34.200000
 20
24.300000
 30
0.0
 40
0.500000
  0
LINE
  8
158
 62
7
  6
CONTINUOUS
 10
34.700000
 20
24.300000
 11
33.700000
 21
24.300000
  0
CIRCLE
  8
158
 62
7
  6
CONTINUOUS
 10
42.300000
 20
24.300000
 30
0.0
 40
0.500000
  0
LINE
  8
158
 62
7
  6
CONTINUOUS
 10
42.800000
 20
24.300000
 11
41.800000
 21
24.300000
  0
SOLID
  8
158
 62
255
  6
CONTINUOUS
 10
36.100000
 20
21.700000
 11
36.100000
 21
19.500000
 12
34.900000
 22
21.700000
 13
34.900000
 23
19.500000
  0
POLYLINE
  8
158
 62
7
  6
CONTINUOUS
 70
1
 66
1
  0
VERTEX
 10
36.100000
 20
21.700000
 30
0.000000
  8
158
 62
7
  6
CONTINUOUS
  0
VERTEX
 10
36.100000
 20
19.500000
 30
0.000000
  8
158
 62
7
  6
CONTINUOUS
  0
VERTEX
 10
34.900000
 20
19.500000
 30
0.000000
  8
158
 62
7
  6
CONTINUOUS
  0
VERTEX
 10
34.900000
 20
21.700000
 30
0.000000
  8
158
 62
7
  6
CONTINUOUS
  0
SEQEND
  0
CIRCLE
  8
158
 62
7
  6
CONTINUOUS
 10
35.500000
 20
20.600000
 30
0.0
 40
0.500000
  0
LINE
  8
158
 62
7
  6
CONTINUOUS
 10
36.000000
 20
20.600000
 11
35.000000
 21
20.600000
  0
POLYLINE
  8
158
 62
7
  6
L000000060000000000
 70
0
 66
1
  0
VERTEX
 10
37.600000
 20
12.800000
  8
158
 62
7
  6
L000000060000000000
  0
VERTEX
 10
37.600000
 20
10.700000
  8
158
 62
7
  6
L000000060000000000
  0
VERTEX
 10
35.500000
 20
10.700000
  8
158
 62
7
  6
L000000060000000000
  0
VERTEX
 10
35.500000
 20
19.600000
  8
158
 62
7
  6
L000000060000000000
  0
SEQEND
  0
LINE
  8
160
 62
1
  6
L0141000200320000FF
 10
12.500000
 20
108.200000
 11
12.500000
 21
134.000000
  0
LINE
  8
160
 62
4
  6
L000000060000FFFF00
 10
1.000000
 20
106.000000
 11
1.000000
 21
134.000000
  0
LINE
  8
160
 62
1
  6
L0141000200320000FF
 10
26.000000
 20
76.000000
 11
26.000000
 21
134.000000
  0
LINE
  8
160
 62
1
  6
L0141000400320000FF
 10
49.000000
 20
104.000000
 11
26.000000
 21
104.000000
  0
LINE
  8
160
 62
4
  6
L000000060000FFFF00
 10
24.000000
 20
106.000000
 11
24.000000
 21
134.000000
  0
SOLID
  8
161
 62
5
  6
CONTINUOUS
 10
38.200000
 20
130.500000
 11
38.200000
 21
133.500000
 12
33.600000
 22
130.500000
 13
33.600000
 23
133.500000
  0
POLYLINE
  8
161
 62
7
  6
CONTINUOUS
 70
1
 66
1
  0
VERTEX
 10
38.200000
 20
130.500000
 30
0.000000
  8
161
 62
7
  6
CONTINUOUS
  0
VERTEX
 10
38.200000
 20
133.500000
 30
0.000000
  8
161
 62
7
  6
CONTINUOUS
  0
VERTEX
 10
33.600000
 20
133.500000
 30
0.000000
  8
161
 62
7
  6
CONTINUOUS
  0
VERTEX
 10
33.600000
 20
130.500000
 30
0.000000
  8
161
 62
7
  6
CONTINUOUS
  0
SEQEND
  0
SOLID
  8
161
 62
5
  6
CONTINUOUS
 10
33.500000
 20
130.500000
 11
33.500000
 21
133.500000
 12
27.300000
 22
130.500000
 13
27.300000
 23
133.500000
  0
POLYLINE
  8
161
 62
7
  6
CONTINUOUS
 70
1
 66
1
  0
VERTEX
 10
33.500000
 20
130.500000
 30
0.000000
  8
161
 62
7
  6
CONTINUOUS
  0
VERTEX
 10
33.500000
 20
133.500000
 30
0.000000
  8
161
 62
7
  6
CONTINUOUS
  0
VERTEX
 10
27.300000
 20
133.500000
 30
0.000000
  8
161
 62
7
  6
CONTINUOUS
  0
VERTEX
 10
27.300000
 20
130.500000
 30
0.000000
  8
161
 62
7
  6
CONTINUOUS
  0
SEQEND
  0
TEXT
  8
161
 62
255
  6
L000000020000FFFFFF
 10
35.900000
 20
131.566667
 40
1.300000
  1
8+2
 50
0.000000
 51
0.000000
 72
1
 73
0
 11
35.900000
 21
131.566667
  0
TEXT
  8
161
 62
255
  6
L000000020000FFFFFF
 10
30.400000
 20
131.566667
 40
1.300000
  1
11+3
 50
0.000000
 51
0.000000
 72
1
 73
0
 11
30.400000
 21
131.566667
  0
SOLID
  8
161
 62
3
  6
CONTINUOUS
 10
47.700000
 20
130.500000
 11
47.700000
 21
133.500000
 12
38.300000
 22
130.500000
 13
38.300000
 23
133.500000
  0
POLYLINE
  8
161
 62
7
  6
CONTINUOUS
 70
1
 66
1
  0
VERTEX
 10
47.700000
 20
130.500000
 30
0.000000
  8
161
 62
7
  6
CONTINUOUS
  0
VERTEX
 10
47.700000
 20
133.500000
 30
0.000000
  8
161
 62
7
  6
CONTINUOUS
  0
VERTEX
 10
38.300000
 20
133.500000
 30
0.000000
  8
161
 62
7
  6
CONTINUOUS
  0
VERTEX
 10
38.300000
 20
130.500000
 30
0.000000
  8
161
 62
7
  6
CONTINUOUS
  0
SEQEND
  0
TEXT
  8
161
 62
255
  6
L000000020000FFFFFF
 10
43.000000
 20
131.566667
 40
1.300000
  1
17+5
 50
0.000000
 51
0.000000
 72
1
 73
0
 11
43.000000
 21
131.566667
  0
ENDBLK
  0
BLOCK
  8
1
  2
zb40_offen
 70
 0
 10
0.0
 20
0.0
 30
0.0
  0
SOLID
  8
156
 62
255
  6
L0000000400000000FF
 10
22.000000
 20
-3.500000
 11
22.000000
 21
-2.500000
 12
3.000000
 22
-3.500000
 13
3.000000
 23
-2.500000
  0
POLYLINE
  8
156
 62
1
  6
L0000000400000000FF
 70
1
 66
1
  0
VERTEX
 10
22.000000
 20
-3.500000
 30
0.000000
  8
156
 62
1
  6
L0000000400000000FF
  0
VERTEX
 10
22.000000
 20
-2.500000
 30
0.000000
  8
156
 62
1
  6
L0000000400000000FF
  0
VERTEX
 10
3.000000
 20
-2.500000
 30
0.000000
  8
156
 62
1
  6
L0000000400000000FF
  0
VERTEX
 10
3.000000
 20
-3.500000
 30
0.000000
  8
156
 62
1
  6
L0000000400000000FF
  0
SEQEND
  0
TEXT
  8
161
 62
1
  6
L0000000200000000FF
 10
12.500000
 20
-8.166667
 40
5.000000
  1
Offen
 50
0.000000
 51
0.000000
 72
1
 73
0
 11
12.500000
 21
-8.166667
  0
ENDBLK
  0
BLOCK
  8
3
  2
a39_d
 70
 0
 10
0.0
 20
0.0
 30
0.0
  0
SOLID
  8
3
 62
255
  6
CONTINUOUS
 10
75.500000
 20
135.500000
 11
75.500000
 21
-0.500000
 12
-0.500000
 22
135.500000
 13
-0.500000
 23
-0.500000
  0
POLYLINE
  8
3
 62
7
  6
CONTINUOUS
 70
1
 66
1
  0
VERTEX
 10
75.500000
 20
135.500000
 30
0.000000
  8
3
 62
7
  6
CONTINUOUS
  0
VERTEX
 10
75.500000
 20
-0.500000
 30
0.000000
  8
3
 62
7
  6
CONTINUOUS
  0
VERTEX
 10
-0.500000
 20
-0.500000
 30
0.000000
  8
3
 62
7
  6
CONTINUOUS
  0
VERTEX
 10
-0.500000
 20
135.500000
 30
0.000000
  8
3
 62
7
  6
CONTINUOUS
  0
SEQEND
  0
POLYLINE
  8
3
 62
7
  6
CONTINUOUS
 70
1
 66
1
  0
VERTEX
 10
75.000000
 20
135.000000
 30
0.000000
  8
3
 62
7
  6
CONTINUOUS
  0
VERTEX
 10
75.000000
 20
0.000000
 30
0.000000
  8
3
 62
7
  6
CONTINUOUS
  0
VERTEX
 10
25.500000
 20
0.000000
 30
0.000000
  8
3
 62
7
  6
CONTINUOUS
  0
VERTEX
 10
25.500000
 20
135.000000
 30
0.000000
  8
3
 62
7
  6
CONTINUOUS
  0
SEQEND
  0
POLYLINE
  8
3
 62
7
  6
CONTINUOUS
 70
1
 66
1
  0
VERTEX
 10
24.500000
 20
135.000000
 30
0.000000
  8
3
 62
7
  6
CONTINUOUS
  0
VERTEX
 10
24.500000
 20
0.000000
 30
0.000000
  8
3
 62
7
  6
CONTINUOUS
  0
VERTEX
 10
0.000000
 20
0.000000
 30
0.000000
  8
3
 62
7
  6
CONTINUOUS
  0
VERTEX
 10
0.000000
 20
135.000000
 30
0.000000
  8
3
 62
7
  6
CONTINUOUS
  0
SEQEND
  0
ENDBLK
  0
BLOCK
  8
47
  2
zb113
 70
 0
 10
0.0
 20
0.0
 30
0.0
  0
SOLID
  8
47
 62
255
  6
L000000020000FFFFFF
 10
1.900000
 20
-8.500000
 11
1.900000
 21
8.600000
 12
-1.900000
 22
-8.500000
 13
-1.900000
 23
8.600000
  0
POLYLINE
  8
47
 62
255
  6
L000000020000FFFFFF
 70
1
 66
1
  0
VERTEX
 10
1.900000
 20
-8.500000
 30
0.000000
  8
47
 62
255
  6
L000000020000FFFFFF
  0
VERTEX
 10
1.900000
 20
8.600000
 30
0.000000
  8
47
 62
255
  6
L000000020000FFFFFF
  0
VERTEX
 10
-1.900000
 20
8.600000
 30
0.000000
  8
47
 62
255
  6
L000000020000FFFFFF
  0
VERTEX
 10
-1.900000
 20
-8.500000
 30
0.000000
  8
47
 62
255
  6
L000000020000FFFFFF
  0
SEQEND
  0
POLYLINE
  8
47
 62
7
  6
CONTINUOUS
 70
0
 66
1
  0
VERTEX
 10
1.600000
 20
3.300000
  8
47
 62
7
  6
CONTINUOUS
  0
VERTEX
 10
1.600000
 20
8.300000
  8
47
 62
7
  6
CONTINUOUS
  0
SEQEND
  0
ARC
  8
47
 62
7
  6
CONTINUOUS
 10
0.000000
 20
0.200000
 30
0.000000
 40
3.300000
 50
54.865807
 51
125.134193
  0
ARC
  8
47
 62
7
  6
CONTINUOUS
 10
0.000000
 20
-0.200000
 30
0.000000
 40
3.300000
 50
-125.134193
 51
-54.865807
  0
POLYLINE
  8
47
 62
7
  6
CONTINUOUS
 70
0
 66
1
  0
VERTEX
 10
-1.900000
 20
8.200000
  8
47
 62
7
  6
CONTINUOUS
  0
VERTEX
 10
-1.900000
 20
-8.100000
  8
47
 62
7
  6
CONTINUOUS
  0
SEQEND
  0
POLYLINE
  8
47
 62
7
  6
CONTINUOUS
 70
0
 66
1
  0
VERTEX
 10
1.900000
 20
-8.100000
  8
47
 62
7
  6
CONTINUOUS
  0
VERTEX
 10
1.900000
 20
8.200000
  8
47
 62
7
  6
CONTINUOUS
  0
SEQEND
  0
ARC
  8
47
 62
7
  6
CONTINUOUS
 10
0.000000
 20
0.300000
 30
0.000000
 40
3.900000
 50
-119.197486
 51
-60.802514
  0
ARC
  8
47
 62
7
  6
CONTINUOUS
 10
0.000000
 20
-0.300000
 30
0.000000
 40
3.900000
 50
60.802514
 51
119.197486
  0
POLYLINE
  8
47
 62
7
  6
CONTINUOUS
 70
0
 66
1
  0
VERTEX
 10
-1.600000
 20
8.400000
  8
47
 62
7
  6
CONTINUOUS
  0
VERTEX
 10
-1.600000
 20
3.300000
  8
47
 62
7
  6
CONTINUOUS
  0
SEQEND
  0
POLYLINE
  8
47
 62
7
  6
CONTINUOUS
 70
0
 66
1
  0
VERTEX
 10
-1.600000
 20
3.100000
  8
47
 62
7
  6
CONTINUOUS
  0
VERTEX
 10
-1.600000
 20
-3.000000
  8
47
 62
7
  6
CONTINUOUS
  0
SEQEND
  0
POLYLINE
  8
47
 62
7
  6
CONTINUOUS
 70
0
 66
1
  0
VERTEX
 10
-1.600000
 20
-3.300000
  8
47
 62
7
  6
CONTINUOUS
  0
VERTEX
 10
-1.600000
 20
-8.300000
  8
47
 62
7
  6
CONTINUOUS
  0
SEQEND
  0
POLYLINE
  8
47
 62
7
  6
CONTINUOUS
 70
0
 66
1
  0
VERTEX
 10
1.600000
 20
-8.200000
  8
47
 62
7
  6
CONTINUOUS
  0
VERTEX
 10
1.600000
 20
-3.200000
  8
47
 62
7
  6
CONTINUOUS
  0
SEQEND
  0
POLYLINE
  8
47
 62
7
  6
CONTINUOUS
 70
0
 66
1
  0
VERTEX
 10
1.600000
 20
-3.000000
  8
47
 62
7
  6
CONTINUOUS
  0
VERTEX
 10
1.600000
 20
3.000000
  8
47
 62
7
  6
CONTINUOUS
  0
SEQEND
  0
POLYLINE
  8
47
 62
7
  6
CONTINUOUS
 70
0
 66
1
  0
VERTEX
 10
0.000000
 20
3.500000
  8
47
 62
7
  6
CONTINUOUS
  0
VERTEX
 10
0.000000
 20
-3.400000
  8
47
 62
7
  6
CONTINUOUS
  0
SEQEND
  0
POLYLINE
  8
47
 62
7
  6
CONTINUOUS
 70
0
 66
1
  0
VERTEX
 10
-1.300000
 20
2.100000
  8
47
 62
7
  6
CONTINUOUS
  0
VERTEX
 10
-1.300000
 20
-2.000000
  8
47
 62
7
  6
CONTINUOUS
  0
SEQEND
  0
POLYLINE
  8
47
 62
7
  6
CONTINUOUS
 70
0
 66
1
  0
VERTEX
 10
-1.000000
 20
-1.500000
  8
47
 62
7
  6
CONTINUOUS
  0
VERTEX
 10
-1.000000
 20
1.600000
  8
47
 62
7
  6
CONTINUOUS
  0
SEQEND
  0
POLYLINE
  8
47
 62
7
  6
CONTINUOUS
 70
0
 66
1
  0
VERTEX
 10
-1.900000
 20
-8.100000
  8
47
 62
7
  6
CONTINUOUS
  0
VERTEX
 10
-1.600000
 20
-8.300000
  8
47
 62
7
  6
CONTINUOUS
  0
VERTEX
 10
-0.600000
 20
-8.500000
  8
47
 62
7
  6
CONTINUOUS
  0
VERTEX
 10
0.700000
 20
-8.500000
  8
47
 62
7
  6
CONTINUOUS
  0
VERTEX
 10
1.500000
 20
-8.300000
  8
47
 62
7
  6
CONTINUOUS
  0
VERTEX
 10
1.900000
 20
-8.100000
  8
47
 62
7
  6
CONTINUOUS
  0
SEQEND
  0
POLYLINE
  8
47
 62
7
  6
CONTINUOUS
 70
0
 66
1
  0
VERTEX
 10
-1.900000
 20
8.200000
  8
47
 62
7
  6
CONTINUOUS
  0
VERTEX
 10
-1.600000
 20
8.400000
  8
47
 62
7
  6
CONTINUOUS
  0
VERTEX
 10
-0.600000
 20
8.600000
  8
47
 62
7
  6
CONTINUOUS
  0
VERTEX
 10
0.700000
 20
8.600000
  8
47
 62
7
  6
CONTINUOUS
  0
VERTEX
 10
1.500000
 20
8.400000
  8
47
 62
7
  6
CONTINUOUS
  0
VERTEX
 10
1.900000
 20
8.200000
  8
47
 62
7
  6
CONTINUOUS
  0
SEQEND
  0
POLYLINE
  8
47
 62
7
  6
CONTINUOUS
 70
0
 66
1
  0
VERTEX
 10
-1.900000
 20
2.600000
  8
47
 62
7
  6
CONTINUOUS
  0
VERTEX
 10
-1.600000
 20
2.400000
  8
47
 62
7
  6
CONTINUOUS
  0
VERTEX
 10
-1.300000
 20
2.100000
  8
47
 62
7
  6
CONTINUOUS
  0
VERTEX
 10
-1.000000
 20
1.600000
  8
47
 62
7
  6
CONTINUOUS
  0
VERTEX
 10
-0.600000
 20
0.600000
  8
47
 62
7
  6
CONTINUOUS
  0
VERTEX
 10
-0.500000
 20
0.000000
  8
47
 62
7
  6
CONTINUOUS
  0
VERTEX
 10
-0.600000
 20
-0.700000
  8
47
 62
7
  6
CONTINUOUS
  0
VERTEX
 10
-1.000000
 20
-1.500000
  8
47
 62
7
  6
CONTINUOUS
  0
VERTEX
 10
-1.300000
 20
-2.000000
  8
47
 62
7
  6
CONTINUOUS
  0
VERTEX
 10
-1.900000
 20
-2.600000
  8
47
 62
7
  6
CONTINUOUS
  0
SEQEND
  0
ENDBLK
  0
ENDSEC
  0
SECTION
  2
ENTITIES
  0
INSERT
  8
0
 2
a39_e
 10
0.000000
 20
0.000000
 30
0.0
 50
0.0
  0
INSERT
  8
0
 2
zb43
 10
12.500000
 20
137.500000
 30
0.0
 50
0.0
  0
INSERT
  8
0
 2
zb43
 10
37.500000
 20
137.500000
 30
0.0
 50
0.0
  0
INSERT
  8
0
 2
zb43
 10
62.500000
 20
137.500000
 30
0.0
 50
0.0
  0
INSERT
  8
1
 2
135128
 10
50.000000
 20
0.000000
 30
0.0
 50
0.0
  0
INSERT
  8
1
 2
135109
 10
0.000000
 20
0.000000
 30
0.0
 50
0.0
  0
INSERT
  8
1
 2
zb40_offen
 10
0.000000
 20
0.000000
 30
0.0
 50
0.0
  0
INSERT
  8
1
 2
zb40_offen
 10
50.000000
 20
0.000000
 30
0.0
 50
0.0
  0
INSERT
  8
3
 2
a39_d
 10
0.000000
 20
0.000000
 30
0.0
 50
0.0
  0
INSERT
  8
47
 2
zb113
 10
28.500000
 20
67.500000
 30
0.0
 50
0.0
  0
ENDSEC
  0
EOF
