  0
SECTION
  2
HEADER
  9
$ACADVER
  1
AC1009
  9
$INSBASE
 10
0.0
 20
0.0
 30
0.0
  9
$EXTMIN
 10
0.0
 20
0.0
 30
0.0
  9
$EXTMAX
 10
0.000000
 20
0.000000
 30
0.0
  9
$LIMMIN
 10
0.0
 20
0.0
  9
$LIMMAX
 10
0.000000
 20
0.000000
  0
ENDSEC
  0
SECTION
  2
TABLES
  0
TABLE
  2
LTYPE
 70
11
  0
LTYPE
  2
L00000004000000007F
 70
64
  3
Solid line
 72
65
 73
0
 40
0.000000
  0
LTYPE
  2
L00000004000000FF00
 70
64
  3
Solid line
 72
65
 73
0
 40
0.000000
  0
LTYPE
  2
L0141000200320000FF
 70
64
  3
- - - - - - - -
 72
65
 73
2
 40
0.500000
 49
0.300000
 49
-0.200000
  0
LTYPE
  2
CONTINUOUS
 70
64
  3
Solid line
 72
65
 73
0
 40
0.000000
  0
LTYPE
  2
L000000040000FF0000
 70
64
  3
Solid line
 72
65
 73
0
 40
0.000000
  0
LTYPE
  2
L000000020000FFFFFF
 70
64
  3
Solid line
 72
65
 73
0
 40
0.000000
  0
LTYPE
  2
L014100020032000000
 70
64
  3
- - - - - - - -
 72
65
 73
2
 40
0.500000
 49
0.300000
 49
-0.200000
  0
LTYPE
  2
L0000000A0000FFFF00
 70
64
  3
Solid line
 72
65
 73
0
 40
0.000000
  0
LTYPE
  2
L000000040000000000
 70
64
  3
Solid line
 72
65
 73
0
 40
0.000000
  0
LTYPE
  2
L000000020000008000
 70
64
  3
Solid line
 72
65
 73
0
 40
0.000000
  0
LTYPE
  2
L000000060000FFFF00
 70
64
  3
Solid line
 72
65
 73
0
 40
0.000000
  0
ENDTAB
  0
TABLE
  2
LAYER
 70
8
  0
LAYER
  2
0
 70
64
 62
7
  6
CONTINUOUS
  0
LAYER
  2
1
 70
64
 62
7
  6
CONTINUOUS
  0
LAYER
  2
2
 70
64
 62
7
  6
CONTINUOUS
  0
LAYER
  2
3
 70
64
 62
-7
  6
CONTINUOUS
  0
LAYER
  2
4
 70
64
 62
7
  6
CONTINUOUS
  0
LAYER
  2
5
 70
64
 62
7
  6
CONTINUOUS
  0
LAYER
  2
6
 70
64
 62
7
  6
CONTINUOUS
  0
LAYER
  2
7
 70
64
 62
7
  6
CONTINUOUS
  0
LAYER
  2
8
 70
64
 62
7
  6
CONTINUOUS
  0
LAYER
  2
9
 70
64
 62
7
  6
CONTINUOUS
  0
LAYER
  2
10
 70
64
 62
7
  6
CONTINUOUS
  0
LAYER
  2
11
 70
64
 62
7
  6
CONTINUOUS
  0
LAYER
  2
12
 70
64
 62
7
  6
CONTINUOUS
  0
LAYER
  2
13
 70
64
 62
7
  6
CONTINUOUS
  0
LAYER
  2
14
 70
64
 62
7
  6
CONTINUOUS
  0
LAYER
  2
15
 70
64
 62
-7
  6
CONTINUOUS
  0
LAYER
  2
16
 70
64
 62
7
  6
CONTINUOUS
  0
LAYER
  2
17
 70
64
 62
7
  6
CONTINUOUS
  0
LAYER
  2
18
 70
64
 62
7
  6
CONTINUOUS
  0
LAYER
  2
19
 70
64
 62
7
  6
CONTINUOUS
  0
LAYER
  2
20
 70
64
 62
7
  6
CONTINUOUS
  0
LAYER
  2
21
 70
64
 62
7
  6
CONTINUOUS
  0
LAYER
  2
22
 70
64
 62
7
  6
CONTINUOUS
  0
LAYER
  2
23
 70
64
 62
7
  6
CONTINUOUS
  0
LAYER
  2
24
 70
64
 62
7
  6
CONTINUOUS
  0
LAYER
  2
25
 70
64
 62
7
  6
CONTINUOUS
  0
LAYER
  2
26
 70
64
 62
7
  6
CONTINUOUS
  0
LAYER
  2
27
 70
64
 62
7
  6
CONTINUOUS
  0
LAYER
  2
28
 70
64
 62
7
  6
CONTINUOUS
  0
LAYER
  2
29
 70
64
 62
-7
  6
CONTINUOUS
  0
LAYER
  2
30
 70
64
 62
7
  6
CONTINUOUS
  0
LAYER
  2
31
 70
64
 62
7
  6
CONTINUOUS
  0
LAYER
  2
32
 70
64
 62
7
  6
CONTINUOUS
  0
LAYER
  2
33
 70
64
 62
7
  6
CONTINUOUS
  0
LAYER
  2
34
 70
64
 62
7
  6
CONTINUOUS
  0
LAYER
  2
35
 70
64
 62
7
  6
CONTINUOUS
  0
LAYER
  2
36
 70
64
 62
7
  6
CONTINUOUS
  0
LAYER
  2
37
 70
64
 62
7
  6
CONTINUOUS
  0
LAYER
  2
38
 70
64
 62
-7
  6
CONTINUOUS
  0
LAYER
  2
39
 70
64
 62
-7
  6
CONTINUOUS
  0
LAYER
  2
40
 70
64
 62
7
  6
CONTINUOUS
  0
LAYER
  2
41
 70
64
 62
7
  6
CONTINUOUS
  0
LAYER
  2
42
 70
64
 62
7
  6
CONTINUOUS
  0
LAYER
  2
43
 70
64
 62
7
  6
CONTINUOUS
  0
LAYER
  2
44
 70
64
 62
7
  6
CONTINUOUS
  0
LAYER
  2
45
 70
64
 62
7
  6
CONTINUOUS
  0
LAYER
  2
46
 70
64
 62
7
  6
CONTINUOUS
  0
LAYER
  2
47
 70
64
 62
-7
  6
CONTINUOUS
  0
LAYER
  2
48
 70
64
 62
-7
  6
CONTINUOUS
  0
LAYER
  2
49
 70
64
 62
-7
  6
CONTINUOUS
  0
LAYER
  2
50
 70
64
 62
-7
  6
CONTINUOUS
  0
LAYER
  2
51
 70
64
 62
-7
  6
CONTINUOUS
  0
LAYER
  2
52
 70
64
 62
-7
  6
CONTINUOUS
  0
LAYER
  2
53
 70
64
 62
-7
  6
CONTINUOUS
  0
LAYER
  2
54
 70
64
 62
-7
  6
CONTINUOUS
  0
LAYER
  2
55
 70
64
 62
-7
  6
CONTINUOUS
  0
LAYER
  2
56
 70
64
 62
-7
  6
CONTINUOUS
  0
LAYER
  2
57
 70
64
 62
-7
  6
CONTINUOUS
  0
LAYER
  2
58
 70
64
 62
7
  6
CONTINUOUS
  0
LAYER
  2
59
 70
64
 62
-7
  6
CONTINUOUS
  0
LAYER
  2
60
 70
64
 62
-7
  6
CONTINUOUS
  0
LAYER
  2
61
 70
64
 62
7
  6
CONTINUOUS
  0
LAYER
  2
62
 70
64
 62
7
  6
CONTINUOUS
  0
LAYER
  2
63
 70
64
 62
7
  6
CONTINUOUS
  0
LAYER
  2
64
 70
64
 62
7
  6
CONTINUOUS
  0
LAYER
  2
65
 70
64
 62
7
  6
CONTINUOUS
  0
LAYER
  2
66
 70
64
 62
7
  6
CONTINUOUS
  0
LAYER
  2
67
 70
64
 62
7
  6
CONTINUOUS
  0
LAYER
  2
68
 70
64
 62
7
  6
CONTINUOUS
  0
LAYER
  2
69
 70
64
 62
7
  6
CONTINUOUS
  0
LAYER
  2
70
 70
64
 62
7
  6
CONTINUOUS
  0
LAYER
  2
71
 70
64
 62
7
  6
CONTINUOUS
  0
LAYER
  2
72
 70
64
 62
7
  6
CONTINUOUS
  0
LAYER
  2
73
 70
64
 62
7
  6
CONTINUOUS
  0
LAYER
  2
74
 70
64
 62
7
  6
CONTINUOUS
  0
LAYER
  2
75
 70
64
 62
7
  6
CONTINUOUS
  0
LAYER
  2
76
 70
64
 62
7
  6
CONTINUOUS
  0
LAYER
  2
77
 70
64
 62
7
  6
CONTINUOUS
  0
LAYER
  2
78
 70
64
 62
7
  6
CONTINUOUS
  0
LAYER
  2
79
 70
64
 62
7
  6
CONTINUOUS
  0
LAYER
  2
80
 70
64
 62
7
  6
CONTINUOUS
  0
LAYER
  2
81
 70
64
 62
7
  6
CONTINUOUS
  0
LAYER
  2
82
 70
64
 62
7
  6
CONTINUOUS
  0
LAYER
  2
83
 70
64
 62
7
  6
CONTINUOUS
  0
LAYER
  2
84
 70
64
 62
7
  6
CONTINUOUS
  0
LAYER
  2
85
 70
64
 62
7
  6
CONTINUOUS
  0
LAYER
  2
86
 70
64
 62
7
  6
CONTINUOUS
  0
LAYER
  2
87
 70
64
 62
7
  6
CONTINUOUS
  0
LAYER
  2
88
 70
64
 62
7
  6
CONTINUOUS
  0
LAYER
  2
89
 70
64
 62
7
  6
CONTINUOUS
  0
LAYER
  2
90
 70
64
 62
7
  6
CONTINUOUS
  0
LAYER
  2
91
 70
64
 62
7
  6
CONTINUOUS
  0
LAYER
  2
92
 70
64
 62
7
  6
CONTINUOUS
  0
LAYER
  2
93
 70
64
 62
7
  6
CONTINUOUS
  0
LAYER
  2
94
 70
64
 62
7
  6
CONTINUOUS
  0
LAYER
  2
95
 70
64
 62
7
  6
CONTINUOUS
  0
LAYER
  2
96
 70
64
 62
7
  6
CONTINUOUS
  0
LAYER
  2
97
 70
64
 62
7
  6
CONTINUOUS
  0
LAYER
  2
98
 70
64
 62
7
  6
CONTINUOUS
  0
LAYER
  2
99
 70
64
 62
7
  6
CONTINUOUS
  0
LAYER
  2
100
 70
64
 62
7
  6
CONTINUOUS
  0
LAYER
  2
101
 70
64
 62
7
  6
CONTINUOUS
  0
LAYER
  2
102
 70
64
 62
7
  6
CONTINUOUS
  0
LAYER
  2
103
 70
64
 62
7
  6
CONTINUOUS
  0
LAYER
  2
104
 70
64
 62
7
  6
CONTINUOUS
  0
LAYER
  2
105
 70
64
 62
7
  6
CONTINUOUS
  0
LAYER
  2
106
 70
64
 62
7
  6
CONTINUOUS
  0
LAYER
  2
107
 70
64
 62
7
  6
CONTINUOUS
  0
LAYER
  2
108
 70
64
 62
7
  6
CONTINUOUS
  0
LAYER
  2
109
 70
64
 62
7
  6
CONTINUOUS
  0
LAYER
  2
110
 70
64
 62
7
  6
CONTINUOUS
  0
LAYER
  2
111
 70
64
 62
7
  6
CONTINUOUS
  0
LAYER
  2
112
 70
64
 62
7
  6
CONTINUOUS
  0
LAYER
  2
113
 70
64
 62
7
  6
CONTINUOUS
  0
LAYER
  2
114
 70
64
 62
7
  6
CONTINUOUS
  0
LAYER
  2
115
 70
64
 62
7
  6
CONTINUOUS
  0
LAYER
  2
116
 70
64
 62
7
  6
CONTINUOUS
  0
LAYER
  2
117
 70
64
 62
7
  6
CONTINUOUS
  0
LAYER
  2
118
 70
64
 62
7
  6
CONTINUOUS
  0
LAYER
  2
119
 70
64
 62
7
  6
CONTINUOUS
  0
LAYER
  2
120
 70
64
 62
7
  6
CONTINUOUS
  0
LAYER
  2
121
 70
64
 62
7
  6
CONTINUOUS
  0
LAYER
  2
122
 70
64
 62
7
  6
CONTINUOUS
  0
LAYER
  2
123
 70
64
 62
7
  6
CONTINUOUS
  0
LAYER
  2
124
 70
64
 62
7
  6
CONTINUOUS
  0
LAYER
  2
125
 70
64
 62
7
  6
CONTINUOUS
  0
LAYER
  2
126
 70
64
 62
7
  6
CONTINUOUS
  0
LAYER
  2
127
 70
64
 62
7
  6
CONTINUOUS
  0
LAYER
  2
128
 70
64
 62
7
  6
CONTINUOUS
  0
LAYER
  2
129
 70
64
 62
7
  6
CONTINUOUS
  0
LAYER
  2
130
 70
64
 62
7
  6
CONTINUOUS
  0
LAYER
  2
131
 70
64
 62
7
  6
CONTINUOUS
  0
LAYER
  2
132
 70
64
 62
7
  6
CONTINUOUS
  0
LAYER
  2
133
 70
64
 62
7
  6
CONTINUOUS
  0
LAYER
  2
134
 70
64
 62
7
  6
CONTINUOUS
  0
LAYER
  2
135
 70
64
 62
7
  6
CONTINUOUS
  0
LAYER
  2
136
 70
64
 62
7
  6
CONTINUOUS
  0
LAYER
  2
137
 70
64
 62
7
  6
CONTINUOUS
  0
LAYER
  2
138
 70
64
 62
7
  6
CONTINUOUS
  0
LAYER
  2
139
 70
64
 62
7
  6
CONTINUOUS
  0
LAYER
  2
140
 70
64
 62
7
  6
CONTINUOUS
  0
LAYER
  2
141
 70
64
 62
7
  6
CONTINUOUS
  0
LAYER
  2
142
 70
64
 62
7
  6
CONTINUOUS
  0
LAYER
  2
143
 70
64
 62
7
  6
CONTINUOUS
  0
LAYER
  2
144
 70
64
 62
7
  6
CONTINUOUS
  0
LAYER
  2
145
 70
64
 62
7
  6
CONTINUOUS
  0
LAYER
  2
146
 70
64
 62
7
  6
CONTINUOUS
  0
LAYER
  2
147
 70
64
 62
7
  6
CONTINUOUS
  0
LAYER
  2
148
 70
64
 62
7
  6
CONTINUOUS
  0
LAYER
  2
149
 70
64
 62
7
  6
CONTINUOUS
  0
LAYER
  2
150
 70
64
 62
7
  6
CONTINUOUS
  0
LAYER
  2
151
 70
64
 62
7
  6
CONTINUOUS
  0
LAYER
  2
152
 70
64
 62
7
  6
CONTINUOUS
  0
LAYER
  2
153
 70
64
 62
7
  6
CONTINUOUS
  0
LAYER
  2
154
 70
64
 62
7
  6
CONTINUOUS
  0
LAYER
  2
155
 70
64
 62
-7
  6
CONTINUOUS
  0
LAYER
  2
156
 70
64
 62
-7
  6
CONTINUOUS
  0
LAYER
  2
157
 70
64
 62
-7
  6
CONTINUOUS
  0
LAYER
  2
158
 70
64
 62
-7
  6
CONTINUOUS
  0
LAYER
  2
159
 70
64
 62
-7
  6
CONTINUOUS
  0
LAYER
  2
160
 70
64
 62
-7
  6
CONTINUOUS
  0
LAYER
  2
161
 70
64
 62
-7
  6
CONTINUOUS
  0
LAYER
  2
162
 70
64
 62
-7
  6
CONTINUOUS
  0
LAYER
  2
163
 70
64
 62
-7
  6
CONTINUOUS
  0
LAYER
  2
164
 70
64
 62
7
  6
CONTINUOUS
  0
LAYER
  2
165
 70
64
 62
7
  6
CONTINUOUS
  0
LAYER
  2
166
 70
64
 62
7
  6
CONTINUOUS
  0
LAYER
  2
167
 70
64
 62
7
  6
CONTINUOUS
  0
LAYER
  2
168
 70
64
 62
7
  6
CONTINUOUS
  0
LAYER
  2
169
 70
64
 62
7
  6
CONTINUOUS
  0
LAYER
  2
170
 70
64
 62
7
  6
CONTINUOUS
  0
LAYER
  2
171
 70
64
 62
7
  6
CONTINUOUS
  0
LAYER
  2
172
 70
64
 62
7
  6
CONTINUOUS
  0
LAYER
  2
173
 70
64
 62
7
  6
CONTINUOUS
  0
LAYER
  2
174
 70
64
 62
7
  6
CONTINUOUS
  0
LAYER
  2
175
 70
64
 62
7
  6
CONTINUOUS
  0
LAYER
  2
176
 70
64
 62
7
  6
CONTINUOUS
  0
LAYER
  2
177
 70
64
 62
7
  6
CONTINUOUS
  0
LAYER
  2
178
 70
64
 62
7
  6
CONTINUOUS
  0
LAYER
  2
179
 70
64
 62
7
  6
CONTINUOUS
  0
LAYER
  2
180
 70
64
 62
7
  6
CONTINUOUS
  0
LAYER
  2
181
 70
64
 62
7
  6
CONTINUOUS
  0
LAYER
  2
182
 70
64
 62
7
  6
CONTINUOUS
  0
LAYER
  2
183
 70
64
 62
7
  6
CONTINUOUS
  0
LAYER
  2
184
 70
64
 62
7
  6
CONTINUOUS
  0
LAYER
  2
185
 70
64
 62
7
  6
CONTINUOUS
  0
LAYER
  2
186
 70
64
 62
7
  6
CONTINUOUS
  0
LAYER
  2
187
 70
64
 62
7
  6
CONTINUOUS
  0
LAYER
  2
188
 70
64
 62
7
  6
CONTINUOUS
  0
LAYER
  2
189
 70
64
 62
7
  6
CONTINUOUS
  0
LAYER
  2
190
 70
64
 62
7
  6
CONTINUOUS
  0
LAYER
  2
191
 70
64
 62
7
  6
CONTINUOUS
  0
LAYER
  2
192
 70
64
 62
7
  6
CONTINUOUS
  0
LAYER
  2
193
 70
64
 62
7
  6
CONTINUOUS
  0
LAYER
  2
194
 70
64
 62
7
  6
CONTINUOUS
  0
LAYER
  2
195
 70
64
 62
7
  6
CONTINUOUS
  0
LAYER
  2
196
 70
64
 62
7
  6
CONTINUOUS
  0
LAYER
  2
197
 70
64
 62
7
  6
CONTINUOUS
  0
LAYER
  2
198
 70
64
 62
7
  6
CONTINUOUS
  0
LAYER
  2
199
 70
64
 62
7
  6
CONTINUOUS
  0
ENDTAB
  0
ENDSEC
  0
SECTION
  2
BLOCKS
  0
BLOCK
  8
0
  2
bf37m6
 70
 0
 10
0.0
 20
0.0
 30
0.0
  0
SOLID
  8
31
 62
255
  6
L000000020000FFFFFF
 10
27.000000
 20
5.700000
 11
27.000000
 21
28.200000
 12
23.000000
 22
5.700000
 13
23.000000
 23
28.200000
  0
POLYLINE
  8
31
 62
255
  6
L000000020000FFFFFF
 70
1
 66
1
  0
VERTEX
 10
27.000000
 20
5.700000
 30
0.000000
  8
31
 62
255
  6
L000000020000FFFFFF
  0
VERTEX
 10
27.000000
 20
28.200000
 30
0.000000
  8
31
 62
255
  6
L000000020000FFFFFF
  0
VERTEX
 10
23.000000
 20
28.200000
 30
0.000000
  8
31
 62
255
  6
L000000020000FFFFFF
  0
VERTEX
 10
23.000000
 20
5.700000
 30
0.000000
  8
31
 62
255
  6
L000000020000FFFFFF
  0
SEQEND
  0
LINE
  8
31
 62
7
  6
L014100020032000000
 10
23.300000
 20
28.200000
 11
26.700000
 21
28.200000
  0
LINE
  8
31
 62
7
  6
L014100020032000000
 10
26.700000
 20
28.100000
 11
26.700000
 21
5.700000
  0
LINE
  8
31
 62
7
  6
L014100020032000000
 10
23.300000
 20
28.100000
 11
23.300000
 21
5.700000
  0
LINE
  8
31
 62
7
  6
L014100020032000000
 10
23.300000
 20
5.700000
 11
26.600000
 21
5.700000
  0
SOLID
  8
31
 62
255
  6
L000000020000FFFFFF
 10
1.700000
 20
5.700000
 11
1.700000
 21
28.200000
 12
0.600000
 22
5.700000
 13
0.600000
 23
28.200000
  0
POLYLINE
  8
31
 62
255
  6
L000000020000FFFFFF
 70
1
 66
1
  0
VERTEX
 10
1.700000
 20
5.700000
 30
0.000000
  8
31
 62
255
  6
L000000020000FFFFFF
  0
VERTEX
 10
1.700000
 20
28.200000
 30
0.000000
  8
31
 62
255
  6
L000000020000FFFFFF
  0
VERTEX
 10
0.600000
 20
28.200000
 30
0.000000
  8
31
 62
255
  6
L000000020000FFFFFF
  0
VERTEX
 10
0.600000
 20
5.700000
 30
0.000000
  8
31
 62
255
  6
L000000020000FFFFFF
  0
SEQEND
  0
LINE
  8
31
 62
7
  6
CONTINUOUS
 10
0.700000
 20
28.200000
 11
1.700000
 21
28.200000
  0
SOLID
  8
31
 62
255
  6
L000000020000FFFFFF
 10
1.700000
 20
5.700000
 11
1.700000
 21
28.200000
 12
0.700000
 22
5.700000
 13
0.700000
 23
28.200000
  0
POLYLINE
  8
31
 62
255
  6
L000000020000FFFFFF
 70
1
 66
1
  0
VERTEX
 10
1.700000
 20
5.700000
 30
0.000000
  8
31
 62
255
  6
L000000020000FFFFFF
  0
VERTEX
 10
1.700000
 20
28.200000
 30
0.000000
  8
31
 62
255
  6
L000000020000FFFFFF
  0
VERTEX
 10
0.700000
 20
28.200000
 30
0.000000
  8
31
 62
255
  6
L000000020000FFFFFF
  0
VERTEX
 10
0.700000
 20
5.700000
 30
0.000000
  8
31
 62
255
  6
L000000020000FFFFFF
  0
SEQEND
  0
LINE
  8
31
 62
7
  6
CONTINUOUS
 10
0.700000
 20
5.700000
 11
1.700000
 21
5.700000
  0
LINE
  8
31
 62
7
  6
L014100020032000000
 10
0.700000
 20
28.200000
 11
0.700000
 21
5.700000
  0
SOLID
  8
31
 62
255
  6
L000000020000FFFFFF
 10
74.300000
 20
5.700000
 11
74.300000
 21
28.200000
 12
73.300000
 22
5.700000
 13
73.300000
 23
28.200000
  0
POLYLINE
  8
31
 62
255
  6
L000000020000FFFFFF
 70
1
 66
1
  0
VERTEX
 10
74.300000
 20
5.700000
 30
0.000000
  8
31
 62
255
  6
L000000020000FFFFFF
  0
VERTEX
 10
74.300000
 20
28.200000
 30
0.000000
  8
31
 62
255
  6
L000000020000FFFFFF
  0
VERTEX
 10
73.300000
 20
28.200000
 30
0.000000
  8
31
 62
255
  6
L000000020000FFFFFF
  0
VERTEX
 10
73.300000
 20
5.700000
 30
0.000000
  8
31
 62
255
  6
L000000020000FFFFFF
  0
SEQEND
  0
LINE
  8
31
 62
7
  6
CONTINUOUS
 10
73.300000
 20
28.200000
 11
74.300000
 21
28.200000
  0
LINE
  8
31
 62
7
  6
L014100020032000000
 10
74.300000
 20
28.200000
 11
74.300000
 21
5.700000
  0
LINE
  8
31
 62
7
  6
L014100020032000000
 10
73.300000
 20
28.200000
 11
73.300000
 21
5.700000
  0
LINE
  8
31
 62
7
  6
CONTINUOUS
 10
73.300000
 20
5.700000
 11
74.300000
 21
5.700000
  0
SOLID
  8
31
 62
255
  6
L000000020000FFFFFF
 10
52.000000
 20
5.700000
 11
52.000000
 21
28.200000
 12
48.000000
 22
5.700000
 13
48.000000
 23
28.200000
  0
POLYLINE
  8
31
 62
255
  6
L000000020000FFFFFF
 70
1
 66
1
  0
VERTEX
 10
52.000000
 20
5.700000
 30
0.000000
  8
31
 62
255
  6
L000000020000FFFFFF
  0
VERTEX
 10
52.000000
 20
28.200000
 30
0.000000
  8
31
 62
255
  6
L000000020000FFFFFF
  0
VERTEX
 10
48.000000
 20
28.200000
 30
0.000000
  8
31
 62
255
  6
L000000020000FFFFFF
  0
VERTEX
 10
48.000000
 20
5.700000
 30
0.000000
  8
31
 62
255
  6
L000000020000FFFFFF
  0
SEQEND
  0
LINE
  8
31
 62
7
  6
L014100020032000000
 10
48.300000
 20
28.200000
 11
51.700000
 21
28.200000
  0
LINE
  8
31
 62
7
  6
L014100020032000000
 10
51.700000
 20
28.100000
 11
51.700000
 21
5.700000
  0
LINE
  8
31
 62
7
  6
L014100020032000000
 10
48.300000
 20
28.100000
 11
48.300000
 21
5.700000
  0
LINE
  8
31
 62
7
  6
L014100020032000000
 10
48.300000
 20
5.700000
 11
51.600000
 21
5.700000
  0
SOLID
  8
1
 62
255
  6
CONTINUOUS
 10
74.800000
 20
0.100000
 11
74.800000
 21
104.800000
 12
0.200000
 22
0.100000
 13
0.200000
 23
104.800000
  0
POLYLINE
  8
1
 62
7
  6
CONTINUOUS
 70
1
 66
1
  0
VERTEX
 10
74.800000
 20
0.100000
 30
0.000000
  8
1
 62
7
  6
CONTINUOUS
  0
VERTEX
 10
74.800000
 20
104.800000
 30
0.000000
  8
1
 62
7
  6
CONTINUOUS
  0
VERTEX
 10
0.200000
 20
104.800000
 30
0.000000
  8
1
 62
7
  6
CONTINUOUS
  0
VERTEX
 10
0.200000
 20
0.100000
 30
0.000000
  8
1
 62
7
  6
CONTINUOUS
  0
SEQEND
  0
POLYLINE
  8
1
 62
7
  6
CONTINUOUS
 70
0
 66
1
  0
VERTEX
 10
0.200000
 20
30.000000
  8
1
 62
7
  6
CONTINUOUS
  0
VERTEX
 10
74.800000
 20
30.000000
  8
1
 62
7
  6
CONTINUOUS
  0
SEQEND
  0
POLYLINE
  8
1
 62
7
  6
CONTINUOUS
 70
0
 66
1
  0
VERTEX
 10
0.200000
 20
75.000000
  8
1
 62
7
  6
CONTINUOUS
  0
VERTEX
 10
74.800000
 20
75.000000
  8
1
 62
7
  6
CONTINUOUS
  0
SEQEND
  0
POLYLINE
  8
1
 62
7
  6
CONTINUOUS
 70
0
 66
1
  0
VERTEX
 10
25.000000
 20
30.000000
  8
1
 62
7
  6
CONTINUOUS
  0
VERTEX
 10
25.000000
 20
0.200000
  8
1
 62
7
  6
CONTINUOUS
  0
SEQEND
  0
POLYLINE
  8
1
 62
7
  6
CONTINUOUS
 70
1
 66
1
  0
VERTEX
 10
23.300000
 20
97.200000
 30
0.000000
  8
1
 62
7
  6
CONTINUOUS
  0
VERTEX
 10
23.300000
 20
92.600000
 30
0.000000
  8
1
 62
7
  6
CONTINUOUS
  0
VERTEX
 10
1.700000
 20
92.600000
 30
0.000000
  8
1
 62
7
  6
CONTINUOUS
  0
VERTEX
 10
1.700000
 20
97.200000
 30
0.000000
  8
1
 62
7
  6
CONTINUOUS
  0
SEQEND
  0
POLYLINE
  8
1
 62
7
  6
CONTINUOUS
 70
0
 66
1
  0
VERTEX
 10
3.500000
 20
92.600000
  8
1
 62
7
  6
CONTINUOUS
  0
VERTEX
 10
3.500000
 20
93.700000
  8
1
 62
7
  6
CONTINUOUS
  0
SEQEND
  0
POLYLINE
  8
1
 62
7
  6
CONTINUOUS
 70
0
 66
1
  0
VERTEX
 10
5.300000
 20
92.600000
  8
1
 62
7
  6
CONTINUOUS
  0
VERTEX
 10
5.300000
 20
93.700000
  8
1
 62
7
  6
CONTINUOUS
  0
VERTEX
 10
5.300000
 20
93.700000
  8
1
 62
7
  6
CONTINUOUS
  0
SEQEND
  0
POLYLINE
  8
1
 62
7
  6
CONTINUOUS
 70
0
 66
1
  0
VERTEX
 10
7.100000
 20
92.600000
  8
1
 62
7
  6
CONTINUOUS
  0
VERTEX
 10
7.100000
 20
93.700000
  8
1
 62
7
  6
CONTINUOUS
  0
SEQEND
  0
POLYLINE
  8
1
 62
7
  6
CONTINUOUS
 70
0
 66
1
  0
VERTEX
 10
8.900000
 20
92.600000
  8
1
 62
7
  6
CONTINUOUS
  0
VERTEX
 10
8.900000
 20
93.700000
  8
1
 62
7
  6
CONTINUOUS
  0
SEQEND
  0
POLYLINE
  8
1
 62
7
  6
CONTINUOUS
 70
0
 66
1
  0
VERTEX
 10
10.700000
 20
92.600000
  8
1
 62
7
  6
CONTINUOUS
  0
VERTEX
 10
10.700000
 20
93.700000
  8
1
 62
7
  6
CONTINUOUS
  0
SEQEND
  0
POLYLINE
  8
1
 62
7
  6
CONTINUOUS
 70
0
 66
1
  0
VERTEX
 10
12.500000
 20
92.600000
  8
1
 62
7
  6
CONTINUOUS
  0
VERTEX
 10
12.500000
 20
93.700000
  8
1
 62
7
  6
CONTINUOUS
  0
SEQEND
  0
POLYLINE
  8
1
 62
7
  6
CONTINUOUS
 70
0
 66
1
  0
VERTEX
 10
14.300000
 20
92.600000
  8
1
 62
7
  6
CONTINUOUS
  0
VERTEX
 10
14.300000
 20
93.700000
  8
1
 62
7
  6
CONTINUOUS
  0
SEQEND
  0
POLYLINE
  8
1
 62
7
  6
CONTINUOUS
 70
0
 66
1
  0
VERTEX
 10
16.100000
 20
92.600000
  8
1
 62
7
  6
CONTINUOUS
  0
VERTEX
 10
16.100000
 20
93.700000
  8
1
 62
7
  6
CONTINUOUS
  0
SEQEND
  0
POLYLINE
  8
1
 62
7
  6
CONTINUOUS
 70
0
 66
1
  0
VERTEX
 10
17.900000
 20
92.600000
  8
1
 62
7
  6
CONTINUOUS
  0
VERTEX
 10
17.900000
 20
93.700000
  8
1
 62
7
  6
CONTINUOUS
  0
SEQEND
  0
POLYLINE
  8
1
 62
7
  6
CONTINUOUS
 70
0
 66
1
  0
VERTEX
 10
19.700000
 20
92.600000
  8
1
 62
7
  6
CONTINUOUS
  0
VERTEX
 10
19.700000
 20
93.700000
  8
1
 62
7
  6
CONTINUOUS
  0
SEQEND
  0
POLYLINE
  8
1
 62
7
  6
CONTINUOUS
 70
0
 66
1
  0
VERTEX
 10
21.500000
 20
92.600000
  8
1
 62
7
  6
CONTINUOUS
  0
VERTEX
 10
21.500000
 20
93.700000
  8
1
 62
7
  6
CONTINUOUS
  0
SEQEND
  0
POLYLINE
  8
1
 62
7
  6
CONTINUOUS
 70
1
 66
1
  0
VERTEX
 10
48.300000
 20
97.200000
 30
0.000000
  8
1
 62
7
  6
CONTINUOUS
  0
VERTEX
 10
48.300000
 20
92.600000
 30
0.000000
  8
1
 62
7
  6
CONTINUOUS
  0
VERTEX
 10
26.700000
 20
92.600000
 30
0.000000
  8
1
 62
7
  6
CONTINUOUS
  0
VERTEX
 10
26.700000
 20
97.200000
 30
0.000000
  8
1
 62
7
  6
CONTINUOUS
  0
SEQEND
  0
POLYLINE
  8
1
 62
7
  6
CONTINUOUS
 70
0
 66
1
  0
VERTEX
 10
28.500000
 20
92.600000
  8
1
 62
7
  6
CONTINUOUS
  0
VERTEX
 10
28.500000
 20
93.700000
  8
1
 62
7
  6
CONTINUOUS
  0
SEQEND
  0
POLYLINE
  8
1
 62
7
  6
CONTINUOUS
 70
0
 66
1
  0
VERTEX
 10
30.300000
 20
92.600000
  8
1
 62
7
  6
CONTINUOUS
  0
VERTEX
 10
30.300000
 20
93.700000
  8
1
 62
7
  6
CONTINUOUS
  0
VERTEX
 10
30.300000
 20
93.700000
  8
1
 62
7
  6
CONTINUOUS
  0
SEQEND
  0
POLYLINE
  8
1
 62
7
  6
CONTINUOUS
 70
0
 66
1
  0
VERTEX
 10
32.100000
 20
92.600000
  8
1
 62
7
  6
CONTINUOUS
  0
VERTEX
 10
32.100000
 20
93.700000
  8
1
 62
7
  6
CONTINUOUS
  0
SEQEND
  0
POLYLINE
  8
1
 62
7
  6
CONTINUOUS
 70
0
 66
1
  0
VERTEX
 10
33.900000
 20
92.600000
  8
1
 62
7
  6
CONTINUOUS
  0
VERTEX
 10
33.900000
 20
93.700000
  8
1
 62
7
  6
CONTINUOUS
  0
SEQEND
  0
POLYLINE
  8
1
 62
7
  6
CONTINUOUS
 70
0
 66
1
  0
VERTEX
 10
35.700000
 20
92.600000
  8
1
 62
7
  6
CONTINUOUS
  0
VERTEX
 10
35.700000
 20
93.700000
  8
1
 62
7
  6
CONTINUOUS
  0
SEQEND
  0
POLYLINE
  8
1
 62
7
  6
CONTINUOUS
 70
0
 66
1
  0
VERTEX
 10
37.500000
 20
92.600000
  8
1
 62
7
  6
CONTINUOUS
  0
VERTEX
 10
37.500000
 20
93.700000
  8
1
 62
7
  6
CONTINUOUS
  0
SEQEND
  0
POLYLINE
  8
1
 62
7
  6
CONTINUOUS
 70
0
 66
1
  0
VERTEX
 10
39.300000
 20
92.600000
  8
1
 62
7
  6
CONTINUOUS
  0
VERTEX
 10
39.300000
 20
93.700000
  8
1
 62
7
  6
CONTINUOUS
  0
SEQEND
  0
POLYLINE
  8
1
 62
7
  6
CONTINUOUS
 70
0
 66
1
  0
VERTEX
 10
41.100000
 20
92.600000
  8
1
 62
7
  6
CONTINUOUS
  0
VERTEX
 10
41.100000
 20
93.700000
  8
1
 62
7
  6
CONTINUOUS
  0
SEQEND
  0
POLYLINE
  8
1
 62
7
  6
CONTINUOUS
 70
0
 66
1
  0
VERTEX
 10
42.900000
 20
92.600000
  8
1
 62
7
  6
CONTINUOUS
  0
VERTEX
 10
42.900000
 20
93.700000
  8
1
 62
7
  6
CONTINUOUS
  0
SEQEND
  0
POLYLINE
  8
1
 62
7
  6
CONTINUOUS
 70
0
 66
1
  0
VERTEX
 10
44.700000
 20
92.600000
  8
1
 62
7
  6
CONTINUOUS
  0
VERTEX
 10
44.700000
 20
93.700000
  8
1
 62
7
  6
CONTINUOUS
  0
SEQEND
  0
POLYLINE
  8
1
 62
7
  6
CONTINUOUS
 70
0
 66
1
  0
VERTEX
 10
46.500000
 20
92.600000
  8
1
 62
7
  6
CONTINUOUS
  0
VERTEX
 10
46.500000
 20
93.700000
  8
1
 62
7
  6
CONTINUOUS
  0
SEQEND
  0
POLYLINE
  8
1
 62
7
  6
CONTINUOUS
 70
0
 66
1
  0
VERTEX
 10
50.000000
 20
104.800000
  8
1
 62
7
  6
CONTINUOUS
  0
VERTEX
 10
50.000000
 20
60.000000
  8
1
 62
7
  6
CONTINUOUS
  0
SEQEND
  0
POLYLINE
  8
1
 62
7
  6
CONTINUOUS
 70
0
 66
1
  0
VERTEX
 10
50.000000
 20
30.000000
  8
1
 62
7
  6
CONTINUOUS
  0
VERTEX
 10
50.000000
 20
0.200000
  8
1
 62
7
  6
CONTINUOUS
  0
SEQEND
  0
POLYLINE
  8
1
 62
7
  6
CONTINUOUS
 70
0
 66
1
  0
VERTEX
 10
0.200000
 20
60.000000
  8
1
 62
7
  6
CONTINUOUS
  0
VERTEX
 10
74.800000
 20
60.000000
  8
1
 62
7
  6
CONTINUOUS
  0
SEQEND
  0
POLYLINE
  8
1
 62
7
  6
L014100020032000000
 70
1
 66
1
  0
VERTEX
 10
23.300000
 20
69.700000
 30
0.000000
  8
1
 62
7
  6
L014100020032000000
  0
VERTEX
 10
23.300000
 20
65.100000
 30
0.000000
  8
1
 62
7
  6
L014100020032000000
  0
VERTEX
 10
1.700000
 20
65.100000
 30
0.000000
  8
1
 62
7
  6
L014100020032000000
  0
VERTEX
 10
1.700000
 20
69.700000
 30
0.000000
  8
1
 62
7
  6
L014100020032000000
  0
SEQEND
  0
POLYLINE
  8
1
 62
7
  6
L014100020032000000
 70
1
 66
1
  0
VERTEX
 10
48.300000
 20
69.700000
 30
0.000000
  8
1
 62
7
  6
L014100020032000000
  0
VERTEX
 10
48.300000
 20
65.100000
 30
0.000000
  8
1
 62
7
  6
L014100020032000000
  0
VERTEX
 10
26.700000
 20
65.100000
 30
0.000000
  8
1
 62
7
  6
L014100020032000000
  0
VERTEX
 10
26.700000
 20
69.700000
 30
0.000000
  8
1
 62
7
  6
L014100020032000000
  0
SEQEND
  0
POLYLINE
  8
1
 62
7
  6
L014100020032000000
 70
1
 66
1
  0
VERTEX
 10
73.300000
 20
69.700000
 30
0.000000
  8
1
 62
7
  6
L014100020032000000
  0
VERTEX
 10
73.300000
 20
65.100000
 30
0.000000
  8
1
 62
7
  6
L014100020032000000
  0
VERTEX
 10
51.700000
 20
65.100000
 30
0.000000
  8
1
 62
7
  6
L014100020032000000
  0
VERTEX
 10
51.700000
 20
69.700000
 30
0.000000
  8
1
 62
7
  6
L014100020032000000
  0
SEQEND
  0
LINE
  8
1
 62
7
  6
CONTINUOUS
 10
13.000000
 20
74.400000
 11
12.000000
 21
74.400000
  0
CIRCLE
  8
1
 62
7
  6
CONTINUOUS
 10
12.500000
 20
73.900000
 30
0.0
 40
0.700000
  0
LINE
  8
1
 62
7
  6
CONTINUOUS
 10
13.000000
 20
60.400000
 11
12.000000
 21
60.400000
  0
CIRCLE
  8
1
 62
7
  6
CONTINUOUS
 10
12.500000
 20
60.900000
 30
0.0
 40
0.700000
  0
LINE
  8
1
 62
7
  6
CONTINUOUS
 10
13.000000
 20
75.400000
 11
12.000000
 21
75.400000
  0
CIRCLE
  8
1
 62
7
  6
CONTINUOUS
 10
12.500000
 20
75.900000
 30
0.0
 40
0.700000
  0
LINE
  8
1
 62
7
  6
CONTINUOUS
 10
13.000000
 20
29.400000
 11
12.000000
 21
29.400000
  0
CIRCLE
  8
1
 62
7
  6
CONTINUOUS
 10
12.500000
 20
28.900000
 30
0.0
 40
0.700000
  0
LINE
  8
1
 62
7
  6
CONTINUOUS
 10
38.000000
 20
74.400000
 11
37.000000
 21
74.400000
  0
CIRCLE
  8
1
 62
7
  6
CONTINUOUS
 10
37.500000
 20
73.900000
 30
0.0
 40
0.700000
  0
LINE
  8
1
 62
7
  6
CONTINUOUS
 10
38.000000
 20
60.400000
 11
37.000000
 21
60.400000
  0
CIRCLE
  8
1
 62
7
  6
CONTINUOUS
 10
37.500000
 20
60.900000
 30
0.0
 40
0.700000
  0
LINE
  8
1
 62
7
  6
CONTINUOUS
 10
38.000000
 20
75.500000
 11
37.000000
 21
75.500000
  0
CIRCLE
  8
1
 62
7
  6
CONTINUOUS
 10
37.500000
 20
76.000000
 30
0.0
 40
0.700000
  0
LINE
  8
1
 62
7
  6
CONTINUOUS
 10
38.000000
 20
29.400000
 11
37.000000
 21
29.400000
  0
CIRCLE
  8
1
 62
7
  6
CONTINUOUS
 10
37.500000
 20
28.900000
 30
0.0
 40
0.700000
  0
LINE
  8
1
 62
7
  6
CONTINUOUS
 10
63.000000
 20
74.400000
 11
62.000000
 21
74.400000
  0
CIRCLE
  8
1
 62
7
  6
CONTINUOUS
 10
62.500000
 20
73.900000
 30
0.0
 40
0.700000
  0
LINE
  8
1
 62
7
  6
CONTINUOUS
 10
63.000000
 20
60.400000
 11
62.000000
 21
60.400000
  0
CIRCLE
  8
1
 62
7
  6
CONTINUOUS
 10
62.500000
 20
60.900000
 30
0.0
 40
0.700000
  0
LINE
  8
1
 62
7
  6
CONTINUOUS
 10
63.000000
 20
29.400000
 11
62.000000
 21
29.400000
  0
CIRCLE
  8
1
 62
7
  6
CONTINUOUS
 10
62.500000
 20
28.900000
 30
0.0
 40
0.700000
  0
POLYLINE
  8
1
 62
7
  6
CONTINUOUS
 70
1
 66
1
  0
VERTEX
 10
73.300000
 20
97.100000
 30
0.000000
  8
1
 62
7
  6
CONTINUOUS
  0
VERTEX
 10
73.300000
 20
92.500000
 30
0.000000
  8
1
 62
7
  6
CONTINUOUS
  0
VERTEX
 10
51.700000
 20
92.500000
 30
0.000000
  8
1
 62
7
  6
CONTINUOUS
  0
VERTEX
 10
51.700000
 20
97.100000
 30
0.000000
  8
1
 62
7
  6
CONTINUOUS
  0
SEQEND
  0
POLYLINE
  8
1
 62
7
  6
CONTINUOUS
 70
0
 66
1
  0
VERTEX
 10
53.500000
 20
92.500000
  8
1
 62
7
  6
CONTINUOUS
  0
VERTEX
 10
53.500000
 20
93.600000
  8
1
 62
7
  6
CONTINUOUS
  0
SEQEND
  0
POLYLINE
  8
1
 62
7
  6
CONTINUOUS
 70
0
 66
1
  0
VERTEX
 10
55.300000
 20
92.500000
  8
1
 62
7
  6
CONTINUOUS
  0
VERTEX
 10
55.300000
 20
93.600000
  8
1
 62
7
  6
CONTINUOUS
  0
VERTEX
 10
55.300000
 20
93.600000
  8
1
 62
7
  6
CONTINUOUS
  0
SEQEND
  0
POLYLINE
  8
1
 62
7
  6
CONTINUOUS
 70
0
 66
1
  0
VERTEX
 10
57.100000
 20
92.500000
  8
1
 62
7
  6
CONTINUOUS
  0
VERTEX
 10
57.100000
 20
93.600000
  8
1
 62
7
  6
CONTINUOUS
  0
SEQEND
  0
POLYLINE
  8
1
 62
7
  6
CONTINUOUS
 70
0
 66
1
  0
VERTEX
 10
58.900000
 20
92.500000
  8
1
 62
7
  6
CONTINUOUS
  0
VERTEX
 10
58.900000
 20
93.600000
  8
1
 62
7
  6
CONTINUOUS
  0
SEQEND
  0
POLYLINE
  8
1
 62
7
  6
CONTINUOUS
 70
0
 66
1
  0
VERTEX
 10
60.700000
 20
92.500000
  8
1
 62
7
  6
CONTINUOUS
  0
VERTEX
 10
60.700000
 20
93.600000
  8
1
 62
7
  6
CONTINUOUS
  0
SEQEND
  0
POLYLINE
  8
1
 62
7
  6
CONTINUOUS
 70
0
 66
1
  0
VERTEX
 10
62.500000
 20
92.500000
  8
1
 62
7
  6
CONTINUOUS
  0
VERTEX
 10
62.500000
 20
93.600000
  8
1
 62
7
  6
CONTINUOUS
  0
SEQEND
  0
POLYLINE
  8
1
 62
7
  6
CONTINUOUS
 70
0
 66
1
  0
VERTEX
 10
64.300000
 20
92.500000
  8
1
 62
7
  6
CONTINUOUS
  0
VERTEX
 10
64.300000
 20
93.600000
  8
1
 62
7
  6
CONTINUOUS
  0
SEQEND
  0
POLYLINE
  8
1
 62
7
  6
CONTINUOUS
 70
0
 66
1
  0
VERTEX
 10
66.100000
 20
92.500000
  8
1
 62
7
  6
CONTINUOUS
  0
VERTEX
 10
66.100000
 20
93.600000
  8
1
 62
7
  6
CONTINUOUS
  0
SEQEND
  0
POLYLINE
  8
1
 62
7
  6
CONTINUOUS
 70
0
 66
1
  0
VERTEX
 10
67.900000
 20
92.500000
  8
1
 62
7
  6
CONTINUOUS
  0
VERTEX
 10
67.900000
 20
93.600000
  8
1
 62
7
  6
CONTINUOUS
  0
SEQEND
  0
POLYLINE
  8
1
 62
7
  6
CONTINUOUS
 70
0
 66
1
  0
VERTEX
 10
69.700000
 20
92.500000
  8
1
 62
7
  6
CONTINUOUS
  0
VERTEX
 10
69.700000
 20
93.600000
  8
1
 62
7
  6
CONTINUOUS
  0
SEQEND
  0
POLYLINE
  8
1
 62
7
  6
CONTINUOUS
 70
0
 66
1
  0
VERTEX
 10
71.500000
 20
92.500000
  8
1
 62
7
  6
CONTINUOUS
  0
VERTEX
 10
71.500000
 20
93.600000
  8
1
 62
7
  6
CONTINUOUS
  0
SEQEND
  0
LINE
  8
1
 62
7
  6
CONTINUOUS
 10
63.000000
 20
75.400000
 11
62.000000
 21
75.400000
  0
CIRCLE
  8
1
 62
7
  6
CONTINUOUS
 10
62.500000
 20
75.900000
 30
0.0
 40
0.700000
  0
POLYLINE
  8
1
 62
7
  6
L014100020032000000
 70
1
 66
1
  0
VERTEX
 10
23.300000
 20
84.700000
 30
0.000000
  8
1
 62
7
  6
L014100020032000000
  0
VERTEX
 10
23.300000
 20
80.100000
 30
0.000000
  8
1
 62
7
  6
L014100020032000000
  0
VERTEX
 10
1.700000
 20
80.100000
 30
0.000000
  8
1
 62
7
  6
L014100020032000000
  0
VERTEX
 10
1.700000
 20
84.700000
 30
0.000000
  8
1
 62
7
  6
L014100020032000000
  0
SEQEND
  0
POLYLINE
  8
1
 62
7
  6
L014100020032000000
 70
1
 66
1
  0
VERTEX
 10
48.300000
 20
84.700000
 30
0.000000
  8
1
 62
7
  6
L014100020032000000
  0
VERTEX
 10
48.300000
 20
80.100000
 30
0.000000
  8
1
 62
7
  6
L014100020032000000
  0
VERTEX
 10
26.700000
 20
80.100000
 30
0.000000
  8
1
 62
7
  6
L014100020032000000
  0
VERTEX
 10
26.700000
 20
84.700000
 30
0.000000
  8
1
 62
7
  6
L014100020032000000
  0
SEQEND
  0
POLYLINE
  8
1
 62
7
  6
L014100020032000000
 70
1
 66
1
  0
VERTEX
 10
73.300000
 20
84.700000
 30
0.000000
  8
1
 62
7
  6
L014100020032000000
  0
VERTEX
 10
73.300000
 20
80.100000
 30
0.000000
  8
1
 62
7
  6
L014100020032000000
  0
VERTEX
 10
51.700000
 20
80.100000
 30
0.000000
  8
1
 62
7
  6
L014100020032000000
  0
VERTEX
 10
51.700000
 20
84.700000
 30
0.000000
  8
1
 62
7
  6
L014100020032000000
  0
SEQEND
  0
POLYLINE
  8
1
 62
7
  6
CONTINUOUS
 70
0
 66
1
  0
VERTEX
 10
25.000000
 20
104.800000
  8
1
 62
7
  6
CONTINUOUS
  0
VERTEX
 10
25.000000
 20
60.000000
  8
1
 62
7
  6
CONTINUOUS
  0
SEQEND
  0
POLYLINE
  8
1
 62
7
  6
CONTINUOUS
 70
1
 66
1
  0
VERTEX
 10
11.500000
 20
38.900000
 30
0.000000
  8
1
 62
7
  6
CONTINUOUS
  0
VERTEX
 10
11.500000
 20
53.900000
 30
0.000000
  8
1
 62
7
  6
CONTINUOUS
  0
VERTEX
 10
1.500000
 20
53.900000
 30
0.000000
  8
1
 62
7
  6
CONTINUOUS
  0
VERTEX
 10
1.500000
 20
38.900000
 30
0.000000
  8
1
 62
7
  6
CONTINUOUS
  0
SEQEND
  0
SOLID
  8
1
 62
7
  6
CONTINUOUS
 10
11.500000
 20
40.400000
 11
11.500000
 21
42.400000
 12
11.300000
 22
40.400000
 13
11.300000
 23
42.400000
  0
POLYLINE
  8
1
 62
7
  6
CONTINUOUS
 70
1
 66
1
  0
VERTEX
 10
11.500000
 20
40.400000
 30
0.000000
  8
1
 62
7
  6
CONTINUOUS
  0
VERTEX
 10
11.500000
 20
42.400000
 30
0.000000
  8
1
 62
7
  6
CONTINUOUS
  0
VERTEX
 10
11.300000
 20
42.400000
 30
0.000000
  8
1
 62
7
  6
CONTINUOUS
  0
VERTEX
 10
11.300000
 20
40.400000
 30
0.000000
  8
1
 62
7
  6
CONTINUOUS
  0
SEQEND
  0
SOLID
  8
1
 62
7
  6
CONTINUOUS
 10
1.700000
 20
40.400000
 11
1.700000
 21
42.400000
 12
1.500000
 22
40.400000
 13
1.500000
 23
42.400000
  0
POLYLINE
  8
1
 62
7
  6
CONTINUOUS
 70
1
 66
1
  0
VERTEX
 10
1.700000
 20
40.400000
 30
0.000000
  8
1
 62
7
  6
CONTINUOUS
  0
VERTEX
 10
1.700000
 20
42.400000
 30
0.000000
  8
1
 62
7
  6
CONTINUOUS
  0
VERTEX
 10
1.500000
 20
42.400000
 30
0.000000
  8
1
 62
7
  6
CONTINUOUS
  0
VERTEX
 10
1.500000
 20
40.400000
 30
0.000000
  8
1
 62
7
  6
CONTINUOUS
  0
SEQEND
  0
SOLID
  8
1
 62
7
  6
CONTINUOUS
 10
11.500000
 20
50.400000
 11
11.500000
 21
52.400000
 12
11.300000
 22
50.400000
 13
11.300000
 23
52.400000
  0
POLYLINE
  8
1
 62
7
  6
CONTINUOUS
 70
1
 66
1
  0
VERTEX
 10
11.500000
 20
50.400000
 30
0.000000
  8
1
 62
7
  6
CONTINUOUS
  0
VERTEX
 10
11.500000
 20
52.400000
 30
0.000000
  8
1
 62
7
  6
CONTINUOUS
  0
VERTEX
 10
11.300000
 20
52.400000
 30
0.000000
  8
1
 62
7
  6
CONTINUOUS
  0
VERTEX
 10
11.300000
 20
50.400000
 30
0.000000
  8
1
 62
7
  6
CONTINUOUS
  0
SEQEND
  0
SOLID
  8
1
 62
7
  6
CONTINUOUS
 10
1.700000
 20
50.400000
 11
1.700000
 21
52.400000
 12
1.500000
 22
50.400000
 13
1.500000
 23
52.400000
  0
POLYLINE
  8
1
 62
7
  6
CONTINUOUS
 70
1
 66
1
  0
VERTEX
 10
1.700000
 20
50.400000
 30
0.000000
  8
1
 62
7
  6
CONTINUOUS
  0
VERTEX
 10
1.700000
 20
52.400000
 30
0.000000
  8
1
 62
7
  6
CONTINUOUS
  0
VERTEX
 10
1.500000
 20
52.400000
 30
0.000000
  8
1
 62
7
  6
CONTINUOUS
  0
VERTEX
 10
1.500000
 20
50.400000
 30
0.000000
  8
1
 62
7
  6
CONTINUOUS
  0
SEQEND
  0
POLYLINE
  8
1
 62
7
  6
CONTINUOUS
 70
1
 66
1
  0
VERTEX
 10
3.400000
 20
47.600000
 30
0.000000
  8
1
 62
7
  6
CONTINUOUS
  0
VERTEX
 10
3.400000
 20
50.900000
 30
0.000000
  8
1
 62
7
  6
CONTINUOUS
  0
VERTEX
 10
2.700000
 20
50.900000
 30
0.000000
  8
1
 62
7
  6
CONTINUOUS
  0
VERTEX
 10
2.700000
 20
47.600000
 30
0.000000
  8
1
 62
7
  6
CONTINUOUS
  0
SEQEND
  0
POLYLINE
  8
1
 62
7
  6
L000000040000000000
 70
1
 66
1
  0
VERTEX
 10
8.400000
 20
40.300000
 30
0.000000
  8
1
 62
7
  6
L000000040000000000
  0
VERTEX
 10
8.400000
 20
42.600000
 30
0.000000
  8
1
 62
7
  6
L000000040000000000
  0
VERTEX
 10
8.200000
 20
42.600000
 30
0.000000
  8
1
 62
7
  6
L000000040000000000
  0
VERTEX
 10
8.200000
 20
40.300000
 30
0.000000
  8
1
 62
7
  6
L000000040000000000
  0
SEQEND
  0
POLYLINE
  8
1
 62
7
  6
L000000040000000000
 70
1
 66
1
  0
VERTEX
 10
8.500000
 20
45.200000
 30
0.000000
  8
1
 62
7
  6
L000000040000000000
  0
VERTEX
 10
8.500000
 20
47.500000
 30
0.000000
  8
1
 62
7
  6
L000000040000000000
  0
VERTEX
 10
8.300000
 20
47.500000
 30
0.000000
  8
1
 62
7
  6
L000000040000000000
  0
VERTEX
 10
8.300000
 20
45.200000
 30
0.000000
  8
1
 62
7
  6
L000000040000000000
  0
SEQEND
  0
POLYLINE
  8
1
 62
7
  6
L000000040000000000
 70
1
 66
1
  0
VERTEX
 10
4.500000
 20
45.200000
 30
0.000000
  8
1
 62
7
  6
L000000040000000000
  0
VERTEX
 10
4.500000
 20
47.500000
 30
0.000000
  8
1
 62
7
  6
L000000040000000000
  0
VERTEX
 10
4.300000
 20
47.500000
 30
0.000000
  8
1
 62
7
  6
L000000040000000000
  0
VERTEX
 10
4.300000
 20
45.200000
 30
0.000000
  8
1
 62
7
  6
L000000040000000000
  0
SEQEND
  0
POLYLINE
  8
1
 62
7
  6
L000000040000000000
 70
1
 66
1
  0
VERTEX
 10
4.400000
 20
40.300000
 30
0.000000
  8
1
 62
7
  6
L000000040000000000
  0
VERTEX
 10
4.400000
 20
42.600000
 30
0.000000
  8
1
 62
7
  6
L000000040000000000
  0
VERTEX
 10
4.200000
 20
42.600000
 30
0.000000
  8
1
 62
7
  6
L000000040000000000
  0
VERTEX
 10
4.200000
 20
40.300000
 30
0.000000
  8
1
 62
7
  6
L000000040000000000
  0
SEQEND
  0
POLYLINE
  8
1
 62
7
  6
L000000040000000000
 70
1
 66
1
  0
VERTEX
 10
10.300000
 20
47.500000
 30
0.000000
  8
1
 62
7
  6
L000000040000000000
  0
VERTEX
 10
10.300000
 20
49.800000
 30
0.000000
  8
1
 62
7
  6
L000000040000000000
  0
VERTEX
 10
10.100000
 20
49.800000
 30
0.000000
  8
1
 62
7
  6
L000000040000000000
  0
VERTEX
 10
10.100000
 20
47.500000
 30
0.000000
  8
1
 62
7
  6
L000000040000000000
  0
SEQEND
  0
POLYLINE
  8
1
 62
7
  6
L000000040000000000
 70
1
 66
1
  0
VERTEX
 10
6.400000
 20
42.600000
 30
0.000000
  8
1
 62
7
  6
L000000040000000000
  0
VERTEX
 10
6.400000
 20
44.900000
 30
0.000000
  8
1
 62
7
  6
L000000040000000000
  0
VERTEX
 10
6.200000
 20
44.900000
 30
0.000000
  8
1
 62
7
  6
L000000040000000000
  0
VERTEX
 10
6.200000
 20
42.600000
 30
0.000000
  8
1
 62
7
  6
L000000040000000000
  0
SEQEND
  0
POLYLINE
  8
1
 62
7
  6
L000000040000000000
 70
1
 66
1
  0
VERTEX
 10
6.500000
 20
47.500000
 30
0.000000
  8
1
 62
7
  6
L000000040000000000
  0
VERTEX
 10
6.500000
 20
49.800000
 30
0.000000
  8
1
 62
7
  6
L000000040000000000
  0
VERTEX
 10
6.300000
 20
49.800000
 30
0.000000
  8
1
 62
7
  6
L000000040000000000
  0
VERTEX
 10
6.300000
 20
47.500000
 30
0.000000
  8
1
 62
7
  6
L000000040000000000
  0
SEQEND
  0
LINE
  8
1
 62
7
  6
CONTINUOUS
 10
3.400000
 20
47.600000
 11
2.700000
 21
50.900000
  0
LINE
  8
1
 62
7
  6
CONTINUOUS
 10
2.700000
 20
47.600000
 11
3.400000
 21
50.900000
  0
POLYLINE
  8
1
 62
7
  6
L000000040000000000
 70
1
 66
1
  0
VERTEX
 10
11.500000
 20
38.900000
 30
0.000000
  8
1
 62
7
  6
L000000040000000000
  0
VERTEX
 10
11.500000
 20
53.900000
 30
0.000000
  8
1
 62
7
  6
L000000040000000000
  0
VERTEX
 10
1.500000
 20
53.900000
 30
0.000000
  8
1
 62
7
  6
L000000040000000000
  0
VERTEX
 10
1.500000
 20
38.900000
 30
0.000000
  8
1
 62
7
  6
L000000040000000000
  0
SEQEND
  0
SOLID
  8
1
 62
7
  6
CONTINUOUS
 10
11.500000
 20
40.400000
 11
11.500000
 21
42.400000
 12
11.300000
 22
40.400000
 13
11.300000
 23
42.400000
  0
POLYLINE
  8
1
 62
7
  6
CONTINUOUS
 70
1
 66
1
  0
VERTEX
 10
11.500000
 20
40.400000
 30
0.000000
  8
1
 62
7
  6
CONTINUOUS
  0
VERTEX
 10
11.500000
 20
42.400000
 30
0.000000
  8
1
 62
7
  6
CONTINUOUS
  0
VERTEX
 10
11.300000
 20
42.400000
 30
0.000000
  8
1
 62
7
  6
CONTINUOUS
  0
VERTEX
 10
11.300000
 20
40.400000
 30
0.000000
  8
1
 62
7
  6
CONTINUOUS
  0
SEQEND
  0
SOLID
  8
1
 62
7
  6
CONTINUOUS
 10
1.700000
 20
40.400000
 11
1.700000
 21
42.400000
 12
1.500000
 22
40.400000
 13
1.500000
 23
42.400000
  0
POLYLINE
  8
1
 62
7
  6
CONTINUOUS
 70
1
 66
1
  0
VERTEX
 10
1.700000
 20
40.400000
 30
0.000000
  8
1
 62
7
  6
CONTINUOUS
  0
VERTEX
 10
1.700000
 20
42.400000
 30
0.000000
  8
1
 62
7
  6
CONTINUOUS
  0
VERTEX
 10
1.500000
 20
42.400000
 30
0.000000
  8
1
 62
7
  6
CONTINUOUS
  0
VERTEX
 10
1.500000
 20
40.400000
 30
0.000000
  8
1
 62
7
  6
CONTINUOUS
  0
SEQEND
  0
SOLID
  8
1
 62
7
  6
CONTINUOUS
 10
11.500000
 20
50.400000
 11
11.500000
 21
52.400000
 12
11.300000
 22
50.400000
 13
11.300000
 23
52.400000
  0
POLYLINE
  8
1
 62
7
  6
CONTINUOUS
 70
1
 66
1
  0
VERTEX
 10
11.500000
 20
50.400000
 30
0.000000
  8
1
 62
7
  6
CONTINUOUS
  0
VERTEX
 10
11.500000
 20
52.400000
 30
0.000000
  8
1
 62
7
  6
CONTINUOUS
  0
VERTEX
 10
11.300000
 20
52.400000
 30
0.000000
  8
1
 62
7
  6
CONTINUOUS
  0
VERTEX
 10
11.300000
 20
50.400000
 30
0.000000
  8
1
 62
7
  6
CONTINUOUS
  0
SEQEND
  0
SOLID
  8
1
 62
7
  6
CONTINUOUS
 10
1.700000
 20
50.400000
 11
1.700000
 21
52.400000
 12
1.500000
 22
50.400000
 13
1.500000
 23
52.400000
  0
POLYLINE
  8
1
 62
7
  6
CONTINUOUS
 70
1
 66
1
  0
VERTEX
 10
1.700000
 20
50.400000
 30
0.000000
  8
1
 62
7
  6
CONTINUOUS
  0
VERTEX
 10
1.700000
 20
52.400000
 30
0.000000
  8
1
 62
7
  6
CONTINUOUS
  0
VERTEX
 10
1.500000
 20
52.400000
 30
0.000000
  8
1
 62
7
  6
CONTINUOUS
  0
VERTEX
 10
1.500000
 20
50.400000
 30
0.000000
  8
1
 62
7
  6
CONTINUOUS
  0
SEQEND
  0
POLYLINE
  8
1
 62
7
  6
CONTINUOUS
 70
1
 66
1
  0
VERTEX
 10
3.400000
 20
47.600000
 30
0.000000
  8
1
 62
7
  6
CONTINUOUS
  0
VERTEX
 10
3.400000
 20
50.900000
 30
0.000000
  8
1
 62
7
  6
CONTINUOUS
  0
VERTEX
 10
2.700000
 20
50.900000
 30
0.000000
  8
1
 62
7
  6
CONTINUOUS
  0
VERTEX
 10
2.700000
 20
47.600000
 30
0.000000
  8
1
 62
7
  6
CONTINUOUS
  0
SEQEND
  0
POLYLINE
  8
1
 62
7
  6
L000000040000000000
 70
1
 66
1
  0
VERTEX
 10
8.400000
 20
40.300000
 30
0.000000
  8
1
 62
7
  6
L000000040000000000
  0
VERTEX
 10
8.400000
 20
42.600000
 30
0.000000
  8
1
 62
7
  6
L000000040000000000
  0
VERTEX
 10
8.200000
 20
42.600000
 30
0.000000
  8
1
 62
7
  6
L000000040000000000
  0
VERTEX
 10
8.200000
 20
40.300000
 30
0.000000
  8
1
 62
7
  6
L000000040000000000
  0
SEQEND
  0
POLYLINE
  8
1
 62
7
  6
L000000040000000000
 70
1
 66
1
  0
VERTEX
 10
8.500000
 20
45.200000
 30
0.000000
  8
1
 62
7
  6
L000000040000000000
  0
VERTEX
 10
8.500000
 20
47.500000
 30
0.000000
  8
1
 62
7
  6
L000000040000000000
  0
VERTEX
 10
8.300000
 20
47.500000
 30
0.000000
  8
1
 62
7
  6
L000000040000000000
  0
VERTEX
 10
8.300000
 20
45.200000
 30
0.000000
  8
1
 62
7
  6
L000000040000000000
  0
SEQEND
  0
POLYLINE
  8
1
 62
7
  6
L000000040000000000
 70
1
 66
1
  0
VERTEX
 10
4.500000
 20
45.200000
 30
0.000000
  8
1
 62
7
  6
L000000040000000000
  0
VERTEX
 10
4.500000
 20
47.500000
 30
0.000000
  8
1
 62
7
  6
L000000040000000000
  0
VERTEX
 10
4.300000
 20
47.500000
 30
0.000000
  8
1
 62
7
  6
L000000040000000000
  0
VERTEX
 10
4.300000
 20
45.200000
 30
0.000000
  8
1
 62
7
  6
L000000040000000000
  0
SEQEND
  0
POLYLINE
  8
1
 62
7
  6
L000000040000000000
 70
1
 66
1
  0
VERTEX
 10
4.400000
 20
40.300000
 30
0.000000
  8
1
 62
7
  6
L000000040000000000
  0
VERTEX
 10
4.400000
 20
42.600000
 30
0.000000
  8
1
 62
7
  6
L000000040000000000
  0
VERTEX
 10
4.200000
 20
42.600000
 30
0.000000
  8
1
 62
7
  6
L000000040000000000
  0
VERTEX
 10
4.200000
 20
40.300000
 30
0.000000
  8
1
 62
7
  6
L000000040000000000
  0
SEQEND
  0
POLYLINE
  8
1
 62
7
  6
L000000040000000000
 70
1
 66
1
  0
VERTEX
 10
10.300000
 20
47.500000
 30
0.000000
  8
1
 62
7
  6
L000000040000000000
  0
VERTEX
 10
10.300000
 20
49.800000
 30
0.000000
  8
1
 62
7
  6
L000000040000000000
  0
VERTEX
 10
10.100000
 20
49.800000
 30
0.000000
  8
1
 62
7
  6
L000000040000000000
  0
VERTEX
 10
10.100000
 20
47.500000
 30
0.000000
  8
1
 62
7
  6
L000000040000000000
  0
SEQEND
  0
POLYLINE
  8
1
 62
7
  6
L000000040000000000
 70
1
 66
1
  0
VERTEX
 10
6.400000
 20
42.600000
 30
0.000000
  8
1
 62
7
  6
L000000040000000000
  0
VERTEX
 10
6.400000
 20
44.900000
 30
0.000000
  8
1
 62
7
  6
L000000040000000000
  0
VERTEX
 10
6.200000
 20
44.900000
 30
0.000000
  8
1
 62
7
  6
L000000040000000000
  0
VERTEX
 10
6.200000
 20
42.600000
 30
0.000000
  8
1
 62
7
  6
L000000040000000000
  0
SEQEND
  0
POLYLINE
  8
1
 62
7
  6
L000000040000000000
 70
1
 66
1
  0
VERTEX
 10
6.500000
 20
47.500000
 30
0.000000
  8
1
 62
7
  6
L000000040000000000
  0
VERTEX
 10
6.500000
 20
49.800000
 30
0.000000
  8
1
 62
7
  6
L000000040000000000
  0
VERTEX
 10
6.300000
 20
49.800000
 30
0.000000
  8
1
 62
7
  6
L000000040000000000
  0
VERTEX
 10
6.300000
 20
47.500000
 30
0.000000
  8
1
 62
7
  6
L000000040000000000
  0
SEQEND
  0
LINE
  8
1
 62
7
  6
CONTINUOUS
 10
3.400000
 20
47.600000
 11
2.700000
 21
50.900000
  0
LINE
  8
1
 62
7
  6
CONTINUOUS
 10
2.700000
 20
47.600000
 11
3.400000
 21
50.900000
  0
POLYLINE
  8
1
 62
7
  6
L000000040000000000
 70
1
 66
1
  0
VERTEX
 10
23.500000
 20
38.900000
 30
0.000000
  8
1
 62
7
  6
L000000040000000000
  0
VERTEX
 10
23.500000
 20
53.900000
 30
0.000000
  8
1
 62
7
  6
L000000040000000000
  0
VERTEX
 10
13.500000
 20
53.900000
 30
0.000000
  8
1
 62
7
  6
L000000040000000000
  0
VERTEX
 10
13.500000
 20
38.900000
 30
0.000000
  8
1
 62
7
  6
L000000040000000000
  0
SEQEND
  0
SOLID
  8
1
 62
7
  6
CONTINUOUS
 10
23.500000
 20
40.400000
 11
23.500000
 21
42.400000
 12
23.300000
 22
40.400000
 13
23.300000
 23
42.400000
  0
POLYLINE
  8
1
 62
7
  6
CONTINUOUS
 70
1
 66
1
  0
VERTEX
 10
23.500000
 20
40.400000
 30
0.000000
  8
1
 62
7
  6
CONTINUOUS
  0
VERTEX
 10
23.500000
 20
42.400000
 30
0.000000
  8
1
 62
7
  6
CONTINUOUS
  0
VERTEX
 10
23.300000
 20
42.400000
 30
0.000000
  8
1
 62
7
  6
CONTINUOUS
  0
VERTEX
 10
23.300000
 20
40.400000
 30
0.000000
  8
1
 62
7
  6
CONTINUOUS
  0
SEQEND
  0
SOLID
  8
1
 62
7
  6
CONTINUOUS
 10
13.700000
 20
40.400000
 11
13.700000
 21
42.400000
 12
13.500000
 22
40.400000
 13
13.500000
 23
42.400000
  0
POLYLINE
  8
1
 62
7
  6
CONTINUOUS
 70
1
 66
1
  0
VERTEX
 10
13.700000
 20
40.400000
 30
0.000000
  8
1
 62
7
  6
CONTINUOUS
  0
VERTEX
 10
13.700000
 20
42.400000
 30
0.000000
  8
1
 62
7
  6
CONTINUOUS
  0
VERTEX
 10
13.500000
 20
42.400000
 30
0.000000
  8
1
 62
7
  6
CONTINUOUS
  0
VERTEX
 10
13.500000
 20
40.400000
 30
0.000000
  8
1
 62
7
  6
CONTINUOUS
  0
SEQEND
  0
SOLID
  8
1
 62
7
  6
CONTINUOUS
 10
23.500000
 20
50.400000
 11
23.500000
 21
52.400000
 12
23.300000
 22
50.400000
 13
23.300000
 23
52.400000
  0
POLYLINE
  8
1
 62
7
  6
CONTINUOUS
 70
1
 66
1
  0
VERTEX
 10
23.500000
 20
50.400000
 30
0.000000
  8
1
 62
7
  6
CONTINUOUS
  0
VERTEX
 10
23.500000
 20
52.400000
 30
0.000000
  8
1
 62
7
  6
CONTINUOUS
  0
VERTEX
 10
23.300000
 20
52.400000
 30
0.000000
  8
1
 62
7
  6
CONTINUOUS
  0
VERTEX
 10
23.300000
 20
50.400000
 30
0.000000
  8
1
 62
7
  6
CONTINUOUS
  0
SEQEND
  0
SOLID
  8
1
 62
7
  6
CONTINUOUS
 10
13.700000
 20
50.400000
 11
13.700000
 21
52.400000
 12
13.500000
 22
50.400000
 13
13.500000
 23
52.400000
  0
POLYLINE
  8
1
 62
7
  6
CONTINUOUS
 70
1
 66
1
  0
VERTEX
 10
13.700000
 20
50.400000
 30
0.000000
  8
1
 62
7
  6
CONTINUOUS
  0
VERTEX
 10
13.700000
 20
52.400000
 30
0.000000
  8
1
 62
7
  6
CONTINUOUS
  0
VERTEX
 10
13.500000
 20
52.400000
 30
0.000000
  8
1
 62
7
  6
CONTINUOUS
  0
VERTEX
 10
13.500000
 20
50.400000
 30
0.000000
  8
1
 62
7
  6
CONTINUOUS
  0
SEQEND
  0
POLYLINE
  8
1
 62
7
  6
CONTINUOUS
 70
1
 66
1
  0
VERTEX
 10
15.400000
 20
47.600000
 30
0.000000
  8
1
 62
7
  6
CONTINUOUS
  0
VERTEX
 10
15.400000
 20
50.900000
 30
0.000000
  8
1
 62
7
  6
CONTINUOUS
  0
VERTEX
 10
14.700000
 20
50.900000
 30
0.000000
  8
1
 62
7
  6
CONTINUOUS
  0
VERTEX
 10
14.700000
 20
47.600000
 30
0.000000
  8
1
 62
7
  6
CONTINUOUS
  0
SEQEND
  0
POLYLINE
  8
1
 62
7
  6
L000000040000000000
 70
1
 66
1
  0
VERTEX
 10
20.400000
 20
40.300000
 30
0.000000
  8
1
 62
7
  6
L000000040000000000
  0
VERTEX
 10
20.400000
 20
42.600000
 30
0.000000
  8
1
 62
7
  6
L000000040000000000
  0
VERTEX
 10
20.200000
 20
42.600000
 30
0.000000
  8
1
 62
7
  6
L000000040000000000
  0
VERTEX
 10
20.200000
 20
40.300000
 30
0.000000
  8
1
 62
7
  6
L000000040000000000
  0
SEQEND
  0
POLYLINE
  8
1
 62
7
  6
L000000040000000000
 70
1
 66
1
  0
VERTEX
 10
20.500000
 20
45.200000
 30
0.000000
  8
1
 62
7
  6
L000000040000000000
  0
VERTEX
 10
20.500000
 20
47.500000
 30
0.000000
  8
1
 62
7
  6
L000000040000000000
  0
VERTEX
 10
20.300000
 20
47.500000
 30
0.000000
  8
1
 62
7
  6
L000000040000000000
  0
VERTEX
 10
20.300000
 20
45.200000
 30
0.000000
  8
1
 62
7
  6
L000000040000000000
  0
SEQEND
  0
POLYLINE
  8
1
 62
7
  6
L000000040000000000
 70
1
 66
1
  0
VERTEX
 10
16.500000
 20
45.200000
 30
0.000000
  8
1
 62
7
  6
L000000040000000000
  0
VERTEX
 10
16.500000
 20
47.500000
 30
0.000000
  8
1
 62
7
  6
L000000040000000000
  0
VERTEX
 10
16.300000
 20
47.500000
 30
0.000000
  8
1
 62
7
  6
L000000040000000000
  0
VERTEX
 10
16.300000
 20
45.200000
 30
0.000000
  8
1
 62
7
  6
L000000040000000000
  0
SEQEND
  0
POLYLINE
  8
1
 62
7
  6
L000000040000000000
 70
1
 66
1
  0
VERTEX
 10
16.400000
 20
40.300000
 30
0.000000
  8
1
 62
7
  6
L000000040000000000
  0
VERTEX
 10
16.400000
 20
42.600000
 30
0.000000
  8
1
 62
7
  6
L000000040000000000
  0
VERTEX
 10
16.200000
 20
42.600000
 30
0.000000
  8
1
 62
7
  6
L000000040000000000
  0
VERTEX
 10
16.200000
 20
40.300000
 30
0.000000
  8
1
 62
7
  6
L000000040000000000
  0
SEQEND
  0
POLYLINE
  8
1
 62
7
  6
L000000040000000000
 70
1
 66
1
  0
VERTEX
 10
22.300000
 20
47.500000
 30
0.000000
  8
1
 62
7
  6
L000000040000000000
  0
VERTEX
 10
22.300000
 20
49.800000
 30
0.000000
  8
1
 62
7
  6
L000000040000000000
  0
VERTEX
 10
22.100000
 20
49.800000
 30
0.000000
  8
1
 62
7
  6
L000000040000000000
  0
VERTEX
 10
22.100000
 20
47.500000
 30
0.000000
  8
1
 62
7
  6
L000000040000000000
  0
SEQEND
  0
POLYLINE
  8
1
 62
7
  6
L000000040000000000
 70
1
 66
1
  0
VERTEX
 10
18.400000
 20
42.600000
 30
0.000000
  8
1
 62
7
  6
L000000040000000000
  0
VERTEX
 10
18.400000
 20
44.900000
 30
0.000000
  8
1
 62
7
  6
L000000040000000000
  0
VERTEX
 10
18.200000
 20
44.900000
 30
0.000000
  8
1
 62
7
  6
L000000040000000000
  0
VERTEX
 10
18.200000
 20
42.600000
 30
0.000000
  8
1
 62
7
  6
L000000040000000000
  0
SEQEND
  0
POLYLINE
  8
1
 62
7
  6
L000000040000000000
 70
1
 66
1
  0
VERTEX
 10
18.500000
 20
47.500000
 30
0.000000
  8
1
 62
7
  6
L000000040000000000
  0
VERTEX
 10
18.500000
 20
49.800000
 30
0.000000
  8
1
 62
7
  6
L000000040000000000
  0
VERTEX
 10
18.300000
 20
49.800000
 30
0.000000
  8
1
 62
7
  6
L000000040000000000
  0
VERTEX
 10
18.300000
 20
47.500000
 30
0.000000
  8
1
 62
7
  6
L000000040000000000
  0
SEQEND
  0
LINE
  8
1
 62
7
  6
CONTINUOUS
 10
15.400000
 20
47.600000
 11
14.700000
 21
50.900000
  0
LINE
  8
1
 62
7
  6
CONTINUOUS
 10
14.700000
 20
47.600000
 11
15.400000
 21
50.900000
  0
POLYLINE
  8
1
 62
7
  6
CONTINUOUS
 70
1
 66
1
  0
VERTEX
 10
3.400000
 20
47.600000
 30
0.000000
  8
1
 62
7
  6
CONTINUOUS
  0
VERTEX
 10
3.400000
 20
50.900000
 30
0.000000
  8
1
 62
7
  6
CONTINUOUS
  0
VERTEX
 10
2.700000
 20
50.900000
 30
0.000000
  8
1
 62
7
  6
CONTINUOUS
  0
VERTEX
 10
2.700000
 20
47.600000
 30
0.000000
  8
1
 62
7
  6
CONTINUOUS
  0
SEQEND
  0
LINE
  8
1
 62
7
  6
CONTINUOUS
 10
3.400000
 20
47.600000
 11
2.700000
 21
50.900000
  0
LINE
  8
1
 62
7
  6
CONTINUOUS
 10
2.700000
 20
47.600000
 11
3.400000
 21
50.900000
  0
POLYLINE
  8
1
 62
7
  6
CONTINUOUS
 70
1
 66
1
  0
VERTEX
 10
3.400000
 20
47.600000
 30
0.000000
  8
1
 62
7
  6
CONTINUOUS
  0
VERTEX
 10
3.400000
 20
50.900000
 30
0.000000
  8
1
 62
7
  6
CONTINUOUS
  0
VERTEX
 10
2.700000
 20
50.900000
 30
0.000000
  8
1
 62
7
  6
CONTINUOUS
  0
VERTEX
 10
2.700000
 20
47.600000
 30
0.000000
  8
1
 62
7
  6
CONTINUOUS
  0
SEQEND
  0
LINE
  8
1
 62
7
  6
CONTINUOUS
 10
3.400000
 20
47.600000
 11
2.700000
 21
50.900000
  0
LINE
  8
1
 62
7
  6
CONTINUOUS
 10
2.700000
 20
47.600000
 11
3.400000
 21
50.900000
  0
POLYLINE
  8
1
 62
7
  6
CONTINUOUS
 70
1
 66
1
  0
VERTEX
 10
15.400000
 20
47.600000
 30
0.000000
  8
1
 62
7
  6
CONTINUOUS
  0
VERTEX
 10
15.400000
 20
50.900000
 30
0.000000
  8
1
 62
7
  6
CONTINUOUS
  0
VERTEX
 10
14.700000
 20
50.900000
 30
0.000000
  8
1
 62
7
  6
CONTINUOUS
  0
VERTEX
 10
14.700000
 20
47.600000
 30
0.000000
  8
1
 62
7
  6
CONTINUOUS
  0
SEQEND
  0
LINE
  8
1
 62
7
  6
CONTINUOUS
 10
15.400000
 20
47.600000
 11
14.700000
 21
50.900000
  0
LINE
  8
1
 62
7
  6
CONTINUOUS
 10
14.700000
 20
47.600000
 11
15.400000
 21
50.900000
  0
POLYLINE
  8
1
 62
7
  6
CONTINUOUS
 70
1
 66
1
  0
VERTEX
 10
15.400000
 20
47.600000
 30
0.000000
  8
1
 62
7
  6
CONTINUOUS
  0
VERTEX
 10
15.400000
 20
50.900000
 30
0.000000
  8
1
 62
7
  6
CONTINUOUS
  0
VERTEX
 10
14.700000
 20
50.900000
 30
0.000000
  8
1
 62
7
  6
CONTINUOUS
  0
VERTEX
 10
14.700000
 20
47.600000
 30
0.000000
  8
1
 62
7
  6
CONTINUOUS
  0
SEQEND
  0
LINE
  8
1
 62
7
  6
CONTINUOUS
 10
15.400000
 20
47.600000
 11
14.700000
 21
50.900000
  0
LINE
  8
1
 62
7
  6
CONTINUOUS
 10
14.700000
 20
47.600000
 11
15.400000
 21
50.900000
  0
POLYLINE
  8
1
 62
7
  6
CONTINUOUS
 70
1
 66
1
  0
VERTEX
 10
36.500000
 20
38.900000
 30
0.000000
  8
1
 62
7
  6
CONTINUOUS
  0
VERTEX
 10
36.500000
 20
53.900000
 30
0.000000
  8
1
 62
7
  6
CONTINUOUS
  0
VERTEX
 10
26.500000
 20
53.900000
 30
0.000000
  8
1
 62
7
  6
CONTINUOUS
  0
VERTEX
 10
26.500000
 20
38.900000
 30
0.000000
  8
1
 62
7
  6
CONTINUOUS
  0
SEQEND
  0
SOLID
  8
1
 62
7
  6
CONTINUOUS
 10
36.500000
 20
40.400000
 11
36.500000
 21
42.400000
 12
36.300000
 22
40.400000
 13
36.300000
 23
42.400000
  0
POLYLINE
  8
1
 62
7
  6
CONTINUOUS
 70
1
 66
1
  0
VERTEX
 10
36.500000
 20
40.400000
 30
0.000000
  8
1
 62
7
  6
CONTINUOUS
  0
VERTEX
 10
36.500000
 20
42.400000
 30
0.000000
  8
1
 62
7
  6
CONTINUOUS
  0
VERTEX
 10
36.300000
 20
42.400000
 30
0.000000
  8
1
 62
7
  6
CONTINUOUS
  0
VERTEX
 10
36.300000
 20
40.400000
 30
0.000000
  8
1
 62
7
  6
CONTINUOUS
  0
SEQEND
  0
SOLID
  8
1
 62
7
  6
CONTINUOUS
 10
26.700000
 20
40.400000
 11
26.700000
 21
42.400000
 12
26.500000
 22
40.400000
 13
26.500000
 23
42.400000
  0
POLYLINE
  8
1
 62
7
  6
CONTINUOUS
 70
1
 66
1
  0
VERTEX
 10
26.700000
 20
40.400000
 30
0.000000
  8
1
 62
7
  6
CONTINUOUS
  0
VERTEX
 10
26.700000
 20
42.400000
 30
0.000000
  8
1
 62
7
  6
CONTINUOUS
  0
VERTEX
 10
26.500000
 20
42.400000
 30
0.000000
  8
1
 62
7
  6
CONTINUOUS
  0
VERTEX
 10
26.500000
 20
40.400000
 30
0.000000
  8
1
 62
7
  6
CONTINUOUS
  0
SEQEND
  0
SOLID
  8
1
 62
7
  6
CONTINUOUS
 10
36.500000
 20
50.400000
 11
36.500000
 21
52.400000
 12
36.300000
 22
50.400000
 13
36.300000
 23
52.400000
  0
POLYLINE
  8
1
 62
7
  6
CONTINUOUS
 70
1
 66
1
  0
VERTEX
 10
36.500000
 20
50.400000
 30
0.000000
  8
1
 62
7
  6
CONTINUOUS
  0
VERTEX
 10
36.500000
 20
52.400000
 30
0.000000
  8
1
 62
7
  6
CONTINUOUS
  0
VERTEX
 10
36.300000
 20
52.400000
 30
0.000000
  8
1
 62
7
  6
CONTINUOUS
  0
VERTEX
 10
36.300000
 20
50.400000
 30
0.000000
  8
1
 62
7
  6
CONTINUOUS
  0
SEQEND
  0
SOLID
  8
1
 62
7
  6
CONTINUOUS
 10
26.700000
 20
50.400000
 11
26.700000
 21
52.400000
 12
26.500000
 22
50.400000
 13
26.500000
 23
52.400000
  0
POLYLINE
  8
1
 62
7
  6
CONTINUOUS
 70
1
 66
1
  0
VERTEX
 10
26.700000
 20
50.400000
 30
0.000000
  8
1
 62
7
  6
CONTINUOUS
  0
VERTEX
 10
26.700000
 20
52.400000
 30
0.000000
  8
1
 62
7
  6
CONTINUOUS
  0
VERTEX
 10
26.500000
 20
52.400000
 30
0.000000
  8
1
 62
7
  6
CONTINUOUS
  0
VERTEX
 10
26.500000
 20
50.400000
 30
0.000000
  8
1
 62
7
  6
CONTINUOUS
  0
SEQEND
  0
POLYLINE
  8
1
 62
7
  6
CONTINUOUS
 70
1
 66
1
  0
VERTEX
 10
28.400000
 20
47.600000
 30
0.000000
  8
1
 62
7
  6
CONTINUOUS
  0
VERTEX
 10
28.400000
 20
50.900000
 30
0.000000
  8
1
 62
7
  6
CONTINUOUS
  0
VERTEX
 10
27.700000
 20
50.900000
 30
0.000000
  8
1
 62
7
  6
CONTINUOUS
  0
VERTEX
 10
27.700000
 20
47.600000
 30
0.000000
  8
1
 62
7
  6
CONTINUOUS
  0
SEQEND
  0
POLYLINE
  8
1
 62
7
  6
L000000040000000000
 70
1
 66
1
  0
VERTEX
 10
33.400000
 20
40.300000
 30
0.000000
  8
1
 62
7
  6
L000000040000000000
  0
VERTEX
 10
33.400000
 20
42.600000
 30
0.000000
  8
1
 62
7
  6
L000000040000000000
  0
VERTEX
 10
33.200000
 20
42.600000
 30
0.000000
  8
1
 62
7
  6
L000000040000000000
  0
VERTEX
 10
33.200000
 20
40.300000
 30
0.000000
  8
1
 62
7
  6
L000000040000000000
  0
SEQEND
  0
POLYLINE
  8
1
 62
7
  6
L000000040000000000
 70
1
 66
1
  0
VERTEX
 10
33.500000
 20
45.200000
 30
0.000000
  8
1
 62
7
  6
L000000040000000000
  0
VERTEX
 10
33.500000
 20
47.500000
 30
0.000000
  8
1
 62
7
  6
L000000040000000000
  0
VERTEX
 10
33.300000
 20
47.500000
 30
0.000000
  8
1
 62
7
  6
L000000040000000000
  0
VERTEX
 10
33.300000
 20
45.200000
 30
0.000000
  8
1
 62
7
  6
L000000040000000000
  0
SEQEND
  0
POLYLINE
  8
1
 62
7
  6
L000000040000000000
 70
1
 66
1
  0
VERTEX
 10
29.500000
 20
45.200000
 30
0.000000
  8
1
 62
7
  6
L000000040000000000
  0
VERTEX
 10
29.500000
 20
47.500000
 30
0.000000
  8
1
 62
7
  6
L000000040000000000
  0
VERTEX
 10
29.300000
 20
47.500000
 30
0.000000
  8
1
 62
7
  6
L000000040000000000
  0
VERTEX
 10
29.300000
 20
45.200000
 30
0.000000
  8
1
 62
7
  6
L000000040000000000
  0
SEQEND
  0
POLYLINE
  8
1
 62
7
  6
L000000040000000000
 70
1
 66
1
  0
VERTEX
 10
29.400000
 20
40.300000
 30
0.000000
  8
1
 62
7
  6
L000000040000000000
  0
VERTEX
 10
29.400000
 20
42.600000
 30
0.000000
  8
1
 62
7
  6
L000000040000000000
  0
VERTEX
 10
29.200000
 20
42.600000
 30
0.000000
  8
1
 62
7
  6
L000000040000000000
  0
VERTEX
 10
29.200000
 20
40.300000
 30
0.000000
  8
1
 62
7
  6
L000000040000000000
  0
SEQEND
  0
POLYLINE
  8
1
 62
7
  6
L000000040000000000
 70
1
 66
1
  0
VERTEX
 10
35.300000
 20
47.500000
 30
0.000000
  8
1
 62
7
  6
L000000040000000000
  0
VERTEX
 10
35.300000
 20
49.800000
 30
0.000000
  8
1
 62
7
  6
L000000040000000000
  0
VERTEX
 10
35.100000
 20
49.800000
 30
0.000000
  8
1
 62
7
  6
L000000040000000000
  0
VERTEX
 10
35.100000
 20
47.500000
 30
0.000000
  8
1
 62
7
  6
L000000040000000000
  0
SEQEND
  0
POLYLINE
  8
1
 62
7
  6
L000000040000000000
 70
1
 66
1
  0
VERTEX
 10
31.400000
 20
42.600000
 30
0.000000
  8
1
 62
7
  6
L000000040000000000
  0
VERTEX
 10
31.400000
 20
44.900000
 30
0.000000
  8
1
 62
7
  6
L000000040000000000
  0
VERTEX
 10
31.200000
 20
44.900000
 30
0.000000
  8
1
 62
7
  6
L000000040000000000
  0
VERTEX
 10
31.200000
 20
42.600000
 30
0.000000
  8
1
 62
7
  6
L000000040000000000
  0
SEQEND
  0
POLYLINE
  8
1
 62
7
  6
L000000040000000000
 70
1
 66
1
  0
VERTEX
 10
31.500000
 20
47.500000
 30
0.000000
  8
1
 62
7
  6
L000000040000000000
  0
VERTEX
 10
31.500000
 20
49.800000
 30
0.000000
  8
1
 62
7
  6
L000000040000000000
  0
VERTEX
 10
31.300000
 20
49.800000
 30
0.000000
  8
1
 62
7
  6
L000000040000000000
  0
VERTEX
 10
31.300000
 20
47.500000
 30
0.000000
  8
1
 62
7
  6
L000000040000000000
  0
SEQEND
  0
LINE
  8
1
 62
7
  6
CONTINUOUS
 10
28.400000
 20
47.600000
 11
27.700000
 21
50.900000
  0
LINE
  8
1
 62
7
  6
CONTINUOUS
 10
27.700000
 20
47.600000
 11
28.400000
 21
50.900000
  0
POLYLINE
  8
1
 62
7
  6
L000000040000000000
 70
1
 66
1
  0
VERTEX
 10
36.500000
 20
38.900000
 30
0.000000
  8
1
 62
7
  6
L000000040000000000
  0
VERTEX
 10
36.500000
 20
53.900000
 30
0.000000
  8
1
 62
7
  6
L000000040000000000
  0
VERTEX
 10
26.500000
 20
53.900000
 30
0.000000
  8
1
 62
7
  6
L000000040000000000
  0
VERTEX
 10
26.500000
 20
38.900000
 30
0.000000
  8
1
 62
7
  6
L000000040000000000
  0
SEQEND
  0
SOLID
  8
1
 62
7
  6
CONTINUOUS
 10
36.500000
 20
40.400000
 11
36.500000
 21
42.400000
 12
36.300000
 22
40.400000
 13
36.300000
 23
42.400000
  0
POLYLINE
  8
1
 62
7
  6
CONTINUOUS
 70
1
 66
1
  0
VERTEX
 10
36.500000
 20
40.400000
 30
0.000000
  8
1
 62
7
  6
CONTINUOUS
  0
VERTEX
 10
36.500000
 20
42.400000
 30
0.000000
  8
1
 62
7
  6
CONTINUOUS
  0
VERTEX
 10
36.300000
 20
42.400000
 30
0.000000
  8
1
 62
7
  6
CONTINUOUS
  0
VERTEX
 10
36.300000
 20
40.400000
 30
0.000000
  8
1
 62
7
  6
CONTINUOUS
  0
SEQEND
  0
SOLID
  8
1
 62
7
  6
CONTINUOUS
 10
26.700000
 20
40.400000
 11
26.700000
 21
42.400000
 12
26.500000
 22
40.400000
 13
26.500000
 23
42.400000
  0
POLYLINE
  8
1
 62
7
  6
CONTINUOUS
 70
1
 66
1
  0
VERTEX
 10
26.700000
 20
40.400000
 30
0.000000
  8
1
 62
7
  6
CONTINUOUS
  0
VERTEX
 10
26.700000
 20
42.400000
 30
0.000000
  8
1
 62
7
  6
CONTINUOUS
  0
VERTEX
 10
26.500000
 20
42.400000
 30
0.000000
  8
1
 62
7
  6
CONTINUOUS
  0
VERTEX
 10
26.500000
 20
40.400000
 30
0.000000
  8
1
 62
7
  6
CONTINUOUS
  0
SEQEND
  0
SOLID
  8
1
 62
7
  6
CONTINUOUS
 10
36.500000
 20
50.400000
 11
36.500000
 21
52.400000
 12
36.300000
 22
50.400000
 13
36.300000
 23
52.400000
  0
POLYLINE
  8
1
 62
7
  6
CONTINUOUS
 70
1
 66
1
  0
VERTEX
 10
36.500000
 20
50.400000
 30
0.000000
  8
1
 62
7
  6
CONTINUOUS
  0
VERTEX
 10
36.500000
 20
52.400000
 30
0.000000
  8
1
 62
7
  6
CONTINUOUS
  0
VERTEX
 10
36.300000
 20
52.400000
 30
0.000000
  8
1
 62
7
  6
CONTINUOUS
  0
VERTEX
 10
36.300000
 20
50.400000
 30
0.000000
  8
1
 62
7
  6
CONTINUOUS
  0
SEQEND
  0
SOLID
  8
1
 62
7
  6
CONTINUOUS
 10
26.700000
 20
50.400000
 11
26.700000
 21
52.400000
 12
26.500000
 22
50.400000
 13
26.500000
 23
52.400000
  0
POLYLINE
  8
1
 62
7
  6
CONTINUOUS
 70
1
 66
1
  0
VERTEX
 10
26.700000
 20
50.400000
 30
0.000000
  8
1
 62
7
  6
CONTINUOUS
  0
VERTEX
 10
26.700000
 20
52.400000
 30
0.000000
  8
1
 62
7
  6
CONTINUOUS
  0
VERTEX
 10
26.500000
 20
52.400000
 30
0.000000
  8
1
 62
7
  6
CONTINUOUS
  0
VERTEX
 10
26.500000
 20
50.400000
 30
0.000000
  8
1
 62
7
  6
CONTINUOUS
  0
SEQEND
  0
POLYLINE
  8
1
 62
7
  6
CONTINUOUS
 70
1
 66
1
  0
VERTEX
 10
28.400000
 20
47.600000
 30
0.000000
  8
1
 62
7
  6
CONTINUOUS
  0
VERTEX
 10
28.400000
 20
50.900000
 30
0.000000
  8
1
 62
7
  6
CONTINUOUS
  0
VERTEX
 10
27.700000
 20
50.900000
 30
0.000000
  8
1
 62
7
  6
CONTINUOUS
  0
VERTEX
 10
27.700000
 20
47.600000
 30
0.000000
  8
1
 62
7
  6
CONTINUOUS
  0
SEQEND
  0
POLYLINE
  8
1
 62
7
  6
L000000040000000000
 70
1
 66
1
  0
VERTEX
 10
33.400000
 20
40.300000
 30
0.000000
  8
1
 62
7
  6
L000000040000000000
  0
VERTEX
 10
33.400000
 20
42.600000
 30
0.000000
  8
1
 62
7
  6
L000000040000000000
  0
VERTEX
 10
33.200000
 20
42.600000
 30
0.000000
  8
1
 62
7
  6
L000000040000000000
  0
VERTEX
 10
33.200000
 20
40.300000
 30
0.000000
  8
1
 62
7
  6
L000000040000000000
  0
SEQEND
  0
POLYLINE
  8
1
 62
7
  6
L000000040000000000
 70
1
 66
1
  0
VERTEX
 10
33.500000
 20
45.200000
 30
0.000000
  8
1
 62
7
  6
L000000040000000000
  0
VERTEX
 10
33.500000
 20
47.500000
 30
0.000000
  8
1
 62
7
  6
L000000040000000000
  0
VERTEX
 10
33.300000
 20
47.500000
 30
0.000000
  8
1
 62
7
  6
L000000040000000000
  0
VERTEX
 10
33.300000
 20
45.200000
 30
0.000000
  8
1
 62
7
  6
L000000040000000000
  0
SEQEND
  0
POLYLINE
  8
1
 62
7
  6
L000000040000000000
 70
1
 66
1
  0
VERTEX
 10
29.500000
 20
45.200000
 30
0.000000
  8
1
 62
7
  6
L000000040000000000
  0
VERTEX
 10
29.500000
 20
47.500000
 30
0.000000
  8
1
 62
7
  6
L000000040000000000
  0
VERTEX
 10
29.300000
 20
47.500000
 30
0.000000
  8
1
 62
7
  6
L000000040000000000
  0
VERTEX
 10
29.300000
 20
45.200000
 30
0.000000
  8
1
 62
7
  6
L000000040000000000
  0
SEQEND
  0
POLYLINE
  8
1
 62
7
  6
L000000040000000000
 70
1
 66
1
  0
VERTEX
 10
29.400000
 20
40.300000
 30
0.000000
  8
1
 62
7
  6
L000000040000000000
  0
VERTEX
 10
29.400000
 20
42.600000
 30
0.000000
  8
1
 62
7
  6
L000000040000000000
  0
VERTEX
 10
29.200000
 20
42.600000
 30
0.000000
  8
1
 62
7
  6
L000000040000000000
  0
VERTEX
 10
29.200000
 20
40.300000
 30
0.000000
  8
1
 62
7
  6
L000000040000000000
  0
SEQEND
  0
POLYLINE
  8
1
 62
7
  6
L000000040000000000
 70
1
 66
1
  0
VERTEX
 10
35.300000
 20
47.500000
 30
0.000000
  8
1
 62
7
  6
L000000040000000000
  0
VERTEX
 10
35.300000
 20
49.800000
 30
0.000000
  8
1
 62
7
  6
L000000040000000000
  0
VERTEX
 10
35.100000
 20
49.800000
 30
0.000000
  8
1
 62
7
  6
L000000040000000000
  0
VERTEX
 10
35.100000
 20
47.500000
 30
0.000000
  8
1
 62
7
  6
L000000040000000000
  0
SEQEND
  0
POLYLINE
  8
1
 62
7
  6
L000000040000000000
 70
1
 66
1
  0
VERTEX
 10
31.400000
 20
42.600000
 30
0.000000
  8
1
 62
7
  6
L000000040000000000
  0
VERTEX
 10
31.400000
 20
44.900000
 30
0.000000
  8
1
 62
7
  6
L000000040000000000
  0
VERTEX
 10
31.200000
 20
44.900000
 30
0.000000
  8
1
 62
7
  6
L000000040000000000
  0
VERTEX
 10
31.200000
 20
42.600000
 30
0.000000
  8
1
 62
7
  6
L000000040000000000
  0
SEQEND
  0
POLYLINE
  8
1
 62
7
  6
L000000040000000000
 70
1
 66
1
  0
VERTEX
 10
31.500000
 20
47.500000
 30
0.000000
  8
1
 62
7
  6
L000000040000000000
  0
VERTEX
 10
31.500000
 20
49.800000
 30
0.000000
  8
1
 62
7
  6
L000000040000000000
  0
VERTEX
 10
31.300000
 20
49.800000
 30
0.000000
  8
1
 62
7
  6
L000000040000000000
  0
VERTEX
 10
31.300000
 20
47.500000
 30
0.000000
  8
1
 62
7
  6
L000000040000000000
  0
SEQEND
  0
LINE
  8
1
 62
7
  6
CONTINUOUS
 10
28.400000
 20
47.600000
 11
27.700000
 21
50.900000
  0
LINE
  8
1
 62
7
  6
CONTINUOUS
 10
27.700000
 20
47.600000
 11
28.400000
 21
50.900000
  0
POLYLINE
  8
1
 62
7
  6
L000000040000000000
 70
1
 66
1
  0
VERTEX
 10
48.500000
 20
38.900000
 30
0.000000
  8
1
 62
7
  6
L000000040000000000
  0
VERTEX
 10
48.500000
 20
53.900000
 30
0.000000
  8
1
 62
7
  6
L000000040000000000
  0
VERTEX
 10
38.500000
 20
53.900000
 30
0.000000
  8
1
 62
7
  6
L000000040000000000
  0
VERTEX
 10
38.500000
 20
38.900000
 30
0.000000
  8
1
 62
7
  6
L000000040000000000
  0
SEQEND
  0
SOLID
  8
1
 62
7
  6
CONTINUOUS
 10
48.500000
 20
40.400000
 11
48.500000
 21
42.400000
 12
48.300000
 22
40.400000
 13
48.300000
 23
42.400000
  0
POLYLINE
  8
1
 62
7
  6
CONTINUOUS
 70
1
 66
1
  0
VERTEX
 10
48.500000
 20
40.400000
 30
0.000000
  8
1
 62
7
  6
CONTINUOUS
  0
VERTEX
 10
48.500000
 20
42.400000
 30
0.000000
  8
1
 62
7
  6
CONTINUOUS
  0
VERTEX
 10
48.300000
 20
42.400000
 30
0.000000
  8
1
 62
7
  6
CONTINUOUS
  0
VERTEX
 10
48.300000
 20
40.400000
 30
0.000000
  8
1
 62
7
  6
CONTINUOUS
  0
SEQEND
  0
SOLID
  8
1
 62
7
  6
CONTINUOUS
 10
38.700000
 20
40.400000
 11
38.700000
 21
42.400000
 12
38.500000
 22
40.400000
 13
38.500000
 23
42.400000
  0
POLYLINE
  8
1
 62
7
  6
CONTINUOUS
 70
1
 66
1
  0
VERTEX
 10
38.700000
 20
40.400000
 30
0.000000
  8
1
 62
7
  6
CONTINUOUS
  0
VERTEX
 10
38.700000
 20
42.400000
 30
0.000000
  8
1
 62
7
  6
CONTINUOUS
  0
VERTEX
 10
38.500000
 20
42.400000
 30
0.000000
  8
1
 62
7
  6
CONTINUOUS
  0
VERTEX
 10
38.500000
 20
40.400000
 30
0.000000
  8
1
 62
7
  6
CONTINUOUS
  0
SEQEND
  0
SOLID
  8
1
 62
7
  6
CONTINUOUS
 10
48.500000
 20
50.400000
 11
48.500000
 21
52.400000
 12
48.300000
 22
50.400000
 13
48.300000
 23
52.400000
  0
POLYLINE
  8
1
 62
7
  6
CONTINUOUS
 70
1
 66
1
  0
VERTEX
 10
48.500000
 20
50.400000
 30
0.000000
  8
1
 62
7
  6
CONTINUOUS
  0
VERTEX
 10
48.500000
 20
52.400000
 30
0.000000
  8
1
 62
7
  6
CONTINUOUS
  0
VERTEX
 10
48.300000
 20
52.400000
 30
0.000000
  8
1
 62
7
  6
CONTINUOUS
  0
VERTEX
 10
48.300000
 20
50.400000
 30
0.000000
  8
1
 62
7
  6
CONTINUOUS
  0
SEQEND
  0
SOLID
  8
1
 62
7
  6
CONTINUOUS
 10
38.700000
 20
50.400000
 11
38.700000
 21
52.400000
 12
38.500000
 22
50.400000
 13
38.500000
 23
52.400000
  0
POLYLINE
  8
1
 62
7
  6
CONTINUOUS
 70
1
 66
1
  0
VERTEX
 10
38.700000
 20
50.400000
 30
0.000000
  8
1
 62
7
  6
CONTINUOUS
  0
VERTEX
 10
38.700000
 20
52.400000
 30
0.000000
  8
1
 62
7
  6
CONTINUOUS
  0
VERTEX
 10
38.500000
 20
52.400000
 30
0.000000
  8
1
 62
7
  6
CONTINUOUS
  0
VERTEX
 10
38.500000
 20
50.400000
 30
0.000000
  8
1
 62
7
  6
CONTINUOUS
  0
SEQEND
  0
POLYLINE
  8
1
 62
7
  6
CONTINUOUS
 70
1
 66
1
  0
VERTEX
 10
40.400000
 20
47.600000
 30
0.000000
  8
1
 62
7
  6
CONTINUOUS
  0
VERTEX
 10
40.400000
 20
50.900000
 30
0.000000
  8
1
 62
7
  6
CONTINUOUS
  0
VERTEX
 10
39.700000
 20
50.900000
 30
0.000000
  8
1
 62
7
  6
CONTINUOUS
  0
VERTEX
 10
39.700000
 20
47.600000
 30
0.000000
  8
1
 62
7
  6
CONTINUOUS
  0
SEQEND
  0
POLYLINE
  8
1
 62
7
  6
L000000040000000000
 70
1
 66
1
  0
VERTEX
 10
45.400000
 20
40.300000
 30
0.000000
  8
1
 62
7
  6
L000000040000000000
  0
VERTEX
 10
45.400000
 20
42.600000
 30
0.000000
  8
1
 62
7
  6
L000000040000000000
  0
VERTEX
 10
45.200000
 20
42.600000
 30
0.000000
  8
1
 62
7
  6
L000000040000000000
  0
VERTEX
 10
45.200000
 20
40.300000
 30
0.000000
  8
1
 62
7
  6
L000000040000000000
  0
SEQEND
  0
POLYLINE
  8
1
 62
7
  6
L000000040000000000
 70
1
 66
1
  0
VERTEX
 10
45.500000
 20
45.200000
 30
0.000000
  8
1
 62
7
  6
L000000040000000000
  0
VERTEX
 10
45.500000
 20
47.500000
 30
0.000000
  8
1
 62
7
  6
L000000040000000000
  0
VERTEX
 10
45.300000
 20
47.500000
 30
0.000000
  8
1
 62
7
  6
L000000040000000000
  0
VERTEX
 10
45.300000
 20
45.200000
 30
0.000000
  8
1
 62
7
  6
L000000040000000000
  0
SEQEND
  0
POLYLINE
  8
1
 62
7
  6
L000000040000000000
 70
1
 66
1
  0
VERTEX
 10
41.500000
 20
45.200000
 30
0.000000
  8
1
 62
7
  6
L000000040000000000
  0
VERTEX
 10
41.500000
 20
47.500000
 30
0.000000
  8
1
 62
7
  6
L000000040000000000
  0
VERTEX
 10
41.300000
 20
47.500000
 30
0.000000
  8
1
 62
7
  6
L000000040000000000
  0
VERTEX
 10
41.300000
 20
45.200000
 30
0.000000
  8
1
 62
7
  6
L000000040000000000
  0
SEQEND
  0
POLYLINE
  8
1
 62
7
  6
L000000040000000000
 70
1
 66
1
  0
VERTEX
 10
41.400000
 20
40.300000
 30
0.000000
  8
1
 62
7
  6
L000000040000000000
  0
VERTEX
 10
41.400000
 20
42.600000
 30
0.000000
  8
1
 62
7
  6
L000000040000000000
  0
VERTEX
 10
41.200000
 20
42.600000
 30
0.000000
  8
1
 62
7
  6
L000000040000000000
  0
VERTEX
 10
41.200000
 20
40.300000
 30
0.000000
  8
1
 62
7
  6
L000000040000000000
  0
SEQEND
  0
POLYLINE
  8
1
 62
7
  6
L000000040000000000
 70
1
 66
1
  0
VERTEX
 10
47.300000
 20
47.500000
 30
0.000000
  8
1
 62
7
  6
L000000040000000000
  0
VERTEX
 10
47.300000
 20
49.800000
 30
0.000000
  8
1
 62
7
  6
L000000040000000000
  0
VERTEX
 10
47.100000
 20
49.800000
 30
0.000000
  8
1
 62
7
  6
L000000040000000000
  0
VERTEX
 10
47.100000
 20
47.500000
 30
0.000000
  8
1
 62
7
  6
L000000040000000000
  0
SEQEND
  0
POLYLINE
  8
1
 62
7
  6
L000000040000000000
 70
1
 66
1
  0
VERTEX
 10
43.400000
 20
42.600000
 30
0.000000
  8
1
 62
7
  6
L000000040000000000
  0
VERTEX
 10
43.400000
 20
44.900000
 30
0.000000
  8
1
 62
7
  6
L000000040000000000
  0
VERTEX
 10
43.200000
 20
44.900000
 30
0.000000
  8
1
 62
7
  6
L000000040000000000
  0
VERTEX
 10
43.200000
 20
42.600000
 30
0.000000
  8
1
 62
7
  6
L000000040000000000
  0
SEQEND
  0
POLYLINE
  8
1
 62
7
  6
L000000040000000000
 70
1
 66
1
  0
VERTEX
 10
43.500000
 20
47.500000
 30
0.000000
  8
1
 62
7
  6
L000000040000000000
  0
VERTEX
 10
43.500000
 20
49.800000
 30
0.000000
  8
1
 62
7
  6
L000000040000000000
  0
VERTEX
 10
43.300000
 20
49.800000
 30
0.000000
  8
1
 62
7
  6
L000000040000000000
  0
VERTEX
 10
43.300000
 20
47.500000
 30
0.000000
  8
1
 62
7
  6
L000000040000000000
  0
SEQEND
  0
LINE
  8
1
 62
7
  6
CONTINUOUS
 10
40.400000
 20
47.600000
 11
39.700000
 21
50.900000
  0
LINE
  8
1
 62
7
  6
CONTINUOUS
 10
39.700000
 20
47.600000
 11
40.400000
 21
50.900000
  0
POLYLINE
  8
1
 62
7
  6
CONTINUOUS
 70
1
 66
1
  0
VERTEX
 10
28.400000
 20
47.600000
 30
0.000000
  8
1
 62
7
  6
CONTINUOUS
  0
VERTEX
 10
28.400000
 20
50.900000
 30
0.000000
  8
1
 62
7
  6
CONTINUOUS
  0
VERTEX
 10
27.700000
 20
50.900000
 30
0.000000
  8
1
 62
7
  6
CONTINUOUS
  0
VERTEX
 10
27.700000
 20
47.600000
 30
0.000000
  8
1
 62
7
  6
CONTINUOUS
  0
SEQEND
  0
LINE
  8
1
 62
7
  6
CONTINUOUS
 10
28.400000
 20
47.600000
 11
27.700000
 21
50.900000
  0
LINE
  8
1
 62
7
  6
CONTINUOUS
 10
27.700000
 20
47.600000
 11
28.400000
 21
50.900000
  0
POLYLINE
  8
1
 62
7
  6
CONTINUOUS
 70
1
 66
1
  0
VERTEX
 10
28.400000
 20
47.600000
 30
0.000000
  8
1
 62
7
  6
CONTINUOUS
  0
VERTEX
 10
28.400000
 20
50.900000
 30
0.000000
  8
1
 62
7
  6
CONTINUOUS
  0
VERTEX
 10
27.700000
 20
50.900000
 30
0.000000
  8
1
 62
7
  6
CONTINUOUS
  0
VERTEX
 10
27.700000
 20
47.600000
 30
0.000000
  8
1
 62
7
  6
CONTINUOUS
  0
SEQEND
  0
LINE
  8
1
 62
7
  6
CONTINUOUS
 10
28.400000
 20
47.600000
 11
27.700000
 21
50.900000
  0
LINE
  8
1
 62
7
  6
CONTINUOUS
 10
27.700000
 20
47.600000
 11
28.400000
 21
50.900000
  0
POLYLINE
  8
1
 62
7
  6
CONTINUOUS
 70
1
 66
1
  0
VERTEX
 10
40.400000
 20
47.600000
 30
0.000000
  8
1
 62
7
  6
CONTINUOUS
  0
VERTEX
 10
40.400000
 20
50.900000
 30
0.000000
  8
1
 62
7
  6
CONTINUOUS
  0
VERTEX
 10
39.700000
 20
50.900000
 30
0.000000
  8
1
 62
7
  6
CONTINUOUS
  0
VERTEX
 10
39.700000
 20
47.600000
 30
0.000000
  8
1
 62
7
  6
CONTINUOUS
  0
SEQEND
  0
LINE
  8
1
 62
7
  6
CONTINUOUS
 10
40.400000
 20
47.600000
 11
39.700000
 21
50.900000
  0
LINE
  8
1
 62
7
  6
CONTINUOUS
 10
39.700000
 20
47.600000
 11
40.400000
 21
50.900000
  0
POLYLINE
  8
1
 62
7
  6
CONTINUOUS
 70
1
 66
1
  0
VERTEX
 10
40.400000
 20
47.600000
 30
0.000000
  8
1
 62
7
  6
CONTINUOUS
  0
VERTEX
 10
40.400000
 20
50.900000
 30
0.000000
  8
1
 62
7
  6
CONTINUOUS
  0
VERTEX
 10
39.700000
 20
50.900000
 30
0.000000
  8
1
 62
7
  6
CONTINUOUS
  0
VERTEX
 10
39.700000
 20
47.600000
 30
0.000000
  8
1
 62
7
  6
CONTINUOUS
  0
SEQEND
  0
LINE
  8
1
 62
7
  6
CONTINUOUS
 10
40.400000
 20
47.600000
 11
39.700000
 21
50.900000
  0
LINE
  8
1
 62
7
  6
CONTINUOUS
 10
39.700000
 20
47.600000
 11
40.400000
 21
50.900000
  0
POLYLINE
  8
1
 62
7
  6
CONTINUOUS
 70
1
 66
1
  0
VERTEX
 10
61.500000
 20
38.900000
 30
0.000000
  8
1
 62
7
  6
CONTINUOUS
  0
VERTEX
 10
61.500000
 20
53.900000
 30
0.000000
  8
1
 62
7
  6
CONTINUOUS
  0
VERTEX
 10
51.500000
 20
53.900000
 30
0.000000
  8
1
 62
7
  6
CONTINUOUS
  0
VERTEX
 10
51.500000
 20
38.900000
 30
0.000000
  8
1
 62
7
  6
CONTINUOUS
  0
SEQEND
  0
SOLID
  8
1
 62
7
  6
CONTINUOUS
 10
61.500000
 20
40.400000
 11
61.500000
 21
42.400000
 12
61.300000
 22
40.400000
 13
61.300000
 23
42.400000
  0
POLYLINE
  8
1
 62
7
  6
CONTINUOUS
 70
1
 66
1
  0
VERTEX
 10
61.500000
 20
40.400000
 30
0.000000
  8
1
 62
7
  6
CONTINUOUS
  0
VERTEX
 10
61.500000
 20
42.400000
 30
0.000000
  8
1
 62
7
  6
CONTINUOUS
  0
VERTEX
 10
61.300000
 20
42.400000
 30
0.000000
  8
1
 62
7
  6
CONTINUOUS
  0
VERTEX
 10
61.300000
 20
40.400000
 30
0.000000
  8
1
 62
7
  6
CONTINUOUS
  0
SEQEND
  0
SOLID
  8
1
 62
7
  6
CONTINUOUS
 10
51.700000
 20
40.400000
 11
51.700000
 21
42.400000
 12
51.500000
 22
40.400000
 13
51.500000
 23
42.400000
  0
POLYLINE
  8
1
 62
7
  6
CONTINUOUS
 70
1
 66
1
  0
VERTEX
 10
51.700000
 20
40.400000
 30
0.000000
  8
1
 62
7
  6
CONTINUOUS
  0
VERTEX
 10
51.700000
 20
42.400000
 30
0.000000
  8
1
 62
7
  6
CONTINUOUS
  0
VERTEX
 10
51.500000
 20
42.400000
 30
0.000000
  8
1
 62
7
  6
CONTINUOUS
  0
VERTEX
 10
51.500000
 20
40.400000
 30
0.000000
  8
1
 62
7
  6
CONTINUOUS
  0
SEQEND
  0
SOLID
  8
1
 62
7
  6
CONTINUOUS
 10
61.500000
 20
50.400000
 11
61.500000
 21
52.400000
 12
61.300000
 22
50.400000
 13
61.300000
 23
52.400000
  0
POLYLINE
  8
1
 62
7
  6
CONTINUOUS
 70
1
 66
1
  0
VERTEX
 10
61.500000
 20
50.400000
 30
0.000000
  8
1
 62
7
  6
CONTINUOUS
  0
VERTEX
 10
61.500000
 20
52.400000
 30
0.000000
  8
1
 62
7
  6
CONTINUOUS
  0
VERTEX
 10
61.300000
 20
52.400000
 30
0.000000
  8
1
 62
7
  6
CONTINUOUS
  0
VERTEX
 10
61.300000
 20
50.400000
 30
0.000000
  8
1
 62
7
  6
CONTINUOUS
  0
SEQEND
  0
SOLID
  8
1
 62
7
  6
CONTINUOUS
 10
51.700000
 20
50.400000
 11
51.700000
 21
52.400000
 12
51.500000
 22
50.400000
 13
51.500000
 23
52.400000
  0
POLYLINE
  8
1
 62
7
  6
CONTINUOUS
 70
1
 66
1
  0
VERTEX
 10
51.700000
 20
50.400000
 30
0.000000
  8
1
 62
7
  6
CONTINUOUS
  0
VERTEX
 10
51.700000
 20
52.400000
 30
0.000000
  8
1
 62
7
  6
CONTINUOUS
  0
VERTEX
 10
51.500000
 20
52.400000
 30
0.000000
  8
1
 62
7
  6
CONTINUOUS
  0
VERTEX
 10
51.500000
 20
50.400000
 30
0.000000
  8
1
 62
7
  6
CONTINUOUS
  0
SEQEND
  0
POLYLINE
  8
1
 62
7
  6
CONTINUOUS
 70
1
 66
1
  0
VERTEX
 10
53.400000
 20
47.600000
 30
0.000000
  8
1
 62
7
  6
CONTINUOUS
  0
VERTEX
 10
53.400000
 20
50.900000
 30
0.000000
  8
1
 62
7
  6
CONTINUOUS
  0
VERTEX
 10
52.700000
 20
50.900000
 30
0.000000
  8
1
 62
7
  6
CONTINUOUS
  0
VERTEX
 10
52.700000
 20
47.600000
 30
0.000000
  8
1
 62
7
  6
CONTINUOUS
  0
SEQEND
  0
POLYLINE
  8
1
 62
7
  6
L000000040000000000
 70
1
 66
1
  0
VERTEX
 10
58.400000
 20
40.300000
 30
0.000000
  8
1
 62
7
  6
L000000040000000000
  0
VERTEX
 10
58.400000
 20
42.600000
 30
0.000000
  8
1
 62
7
  6
L000000040000000000
  0
VERTEX
 10
58.200000
 20
42.600000
 30
0.000000
  8
1
 62
7
  6
L000000040000000000
  0
VERTEX
 10
58.200000
 20
40.300000
 30
0.000000
  8
1
 62
7
  6
L000000040000000000
  0
SEQEND
  0
POLYLINE
  8
1
 62
7
  6
L000000040000000000
 70
1
 66
1
  0
VERTEX
 10
58.500000
 20
45.200000
 30
0.000000
  8
1
 62
7
  6
L000000040000000000
  0
VERTEX
 10
58.500000
 20
47.500000
 30
0.000000
  8
1
 62
7
  6
L000000040000000000
  0
VERTEX
 10
58.300000
 20
47.500000
 30
0.000000
  8
1
 62
7
  6
L000000040000000000
  0
VERTEX
 10
58.300000
 20
45.200000
 30
0.000000
  8
1
 62
7
  6
L000000040000000000
  0
SEQEND
  0
POLYLINE
  8
1
 62
7
  6
L000000040000000000
 70
1
 66
1
  0
VERTEX
 10
54.500000
 20
45.200000
 30
0.000000
  8
1
 62
7
  6
L000000040000000000
  0
VERTEX
 10
54.500000
 20
47.500000
 30
0.000000
  8
1
 62
7
  6
L000000040000000000
  0
VERTEX
 10
54.300000
 20
47.500000
 30
0.000000
  8
1
 62
7
  6
L000000040000000000
  0
VERTEX
 10
54.300000
 20
45.200000
 30
0.000000
  8
1
 62
7
  6
L000000040000000000
  0
SEQEND
  0
POLYLINE
  8
1
 62
7
  6
L000000040000000000
 70
1
 66
1
  0
VERTEX
 10
54.400000
 20
40.300000
 30
0.000000
  8
1
 62
7
  6
L000000040000000000
  0
VERTEX
 10
54.400000
 20
42.600000
 30
0.000000
  8
1
 62
7
  6
L000000040000000000
  0
VERTEX
 10
54.200000
 20
42.600000
 30
0.000000
  8
1
 62
7
  6
L000000040000000000
  0
VERTEX
 10
54.200000
 20
40.300000
 30
0.000000
  8
1
 62
7
  6
L000000040000000000
  0
SEQEND
  0
POLYLINE
  8
1
 62
7
  6
L000000040000000000
 70
1
 66
1
  0
VERTEX
 10
60.300000
 20
47.500000
 30
0.000000
  8
1
 62
7
  6
L000000040000000000
  0
VERTEX
 10
60.300000
 20
49.800000
 30
0.000000
  8
1
 62
7
  6
L000000040000000000
  0
VERTEX
 10
60.100000
 20
49.800000
 30
0.000000
  8
1
 62
7
  6
L000000040000000000
  0
VERTEX
 10
60.100000
 20
47.500000
 30
0.000000
  8
1
 62
7
  6
L000000040000000000
  0
SEQEND
  0
POLYLINE
  8
1
 62
7
  6
L000000040000000000
 70
1
 66
1
  0
VERTEX
 10
56.400000
 20
42.600000
 30
0.000000
  8
1
 62
7
  6
L000000040000000000
  0
VERTEX
 10
56.400000
 20
44.900000
 30
0.000000
  8
1
 62
7
  6
L000000040000000000
  0
VERTEX
 10
56.200000
 20
44.900000
 30
0.000000
  8
1
 62
7
  6
L000000040000000000
  0
VERTEX
 10
56.200000
 20
42.600000
 30
0.000000
  8
1
 62
7
  6
L000000040000000000
  0
SEQEND
  0
POLYLINE
  8
1
 62
7
  6
L000000040000000000
 70
1
 66
1
  0
VERTEX
 10
56.500000
 20
47.500000
 30
0.000000
  8
1
 62
7
  6
L000000040000000000
  0
VERTEX
 10
56.500000
 20
49.800000
 30
0.000000
  8
1
 62
7
  6
L000000040000000000
  0
VERTEX
 10
56.300000
 20
49.800000
 30
0.000000
  8
1
 62
7
  6
L000000040000000000
  0
VERTEX
 10
56.300000
 20
47.500000
 30
0.000000
  8
1
 62
7
  6
L000000040000000000
  0
SEQEND
  0
LINE
  8
1
 62
7
  6
CONTINUOUS
 10
53.400000
 20
47.600000
 11
52.700000
 21
50.900000
  0
LINE
  8
1
 62
7
  6
CONTINUOUS
 10
52.700000
 20
47.600000
 11
53.400000
 21
50.900000
  0
POLYLINE
  8
1
 62
7
  6
L000000040000000000
 70
1
 66
1
  0
VERTEX
 10
61.500000
 20
38.900000
 30
0.000000
  8
1
 62
7
  6
L000000040000000000
  0
VERTEX
 10
61.500000
 20
53.900000
 30
0.000000
  8
1
 62
7
  6
L000000040000000000
  0
VERTEX
 10
51.500000
 20
53.900000
 30
0.000000
  8
1
 62
7
  6
L000000040000000000
  0
VERTEX
 10
51.500000
 20
38.900000
 30
0.000000
  8
1
 62
7
  6
L000000040000000000
  0
SEQEND
  0
SOLID
  8
1
 62
7
  6
CONTINUOUS
 10
61.500000
 20
40.400000
 11
61.500000
 21
42.400000
 12
61.300000
 22
40.400000
 13
61.300000
 23
42.400000
  0
POLYLINE
  8
1
 62
7
  6
CONTINUOUS
 70
1
 66
1
  0
VERTEX
 10
61.500000
 20
40.400000
 30
0.000000
  8
1
 62
7
  6
CONTINUOUS
  0
VERTEX
 10
61.500000
 20
42.400000
 30
0.000000
  8
1
 62
7
  6
CONTINUOUS
  0
VERTEX
 10
61.300000
 20
42.400000
 30
0.000000
  8
1
 62
7
  6
CONTINUOUS
  0
VERTEX
 10
61.300000
 20
40.400000
 30
0.000000
  8
1
 62
7
  6
CONTINUOUS
  0
SEQEND
  0
SOLID
  8
1
 62
7
  6
CONTINUOUS
 10
51.700000
 20
40.400000
 11
51.700000
 21
42.400000
 12
51.500000
 22
40.400000
 13
51.500000
 23
42.400000
  0
POLYLINE
  8
1
 62
7
  6
CONTINUOUS
 70
1
 66
1
  0
VERTEX
 10
51.700000
 20
40.400000
 30
0.000000
  8
1
 62
7
  6
CONTINUOUS
  0
VERTEX
 10
51.700000
 20
42.400000
 30
0.000000
  8
1
 62
7
  6
CONTINUOUS
  0
VERTEX
 10
51.500000
 20
42.400000
 30
0.000000
  8
1
 62
7
  6
CONTINUOUS
  0
VERTEX
 10
51.500000
 20
40.400000
 30
0.000000
  8
1
 62
7
  6
CONTINUOUS
  0
SEQEND
  0
SOLID
  8
1
 62
7
  6
CONTINUOUS
 10
61.500000
 20
50.400000
 11
61.500000
 21
52.400000
 12
61.300000
 22
50.400000
 13
61.300000
 23
52.400000
  0
POLYLINE
  8
1
 62
7
  6
CONTINUOUS
 70
1
 66
1
  0
VERTEX
 10
61.500000
 20
50.400000
 30
0.000000
  8
1
 62
7
  6
CONTINUOUS
  0
VERTEX
 10
61.500000
 20
52.400000
 30
0.000000
  8
1
 62
7
  6
CONTINUOUS
  0
VERTEX
 10
61.300000
 20
52.400000
 30
0.000000
  8
1
 62
7
  6
CONTINUOUS
  0
VERTEX
 10
61.300000
 20
50.400000
 30
0.000000
  8
1
 62
7
  6
CONTINUOUS
  0
SEQEND
  0
SOLID
  8
1
 62
7
  6
CONTINUOUS
 10
51.700000
 20
50.400000
 11
51.700000
 21
52.400000
 12
51.500000
 22
50.400000
 13
51.500000
 23
52.400000
  0
POLYLINE
  8
1
 62
7
  6
CONTINUOUS
 70
1
 66
1
  0
VERTEX
 10
51.700000
 20
50.400000
 30
0.000000
  8
1
 62
7
  6
CONTINUOUS
  0
VERTEX
 10
51.700000
 20
52.400000
 30
0.000000
  8
1
 62
7
  6
CONTINUOUS
  0
VERTEX
 10
51.500000
 20
52.400000
 30
0.000000
  8
1
 62
7
  6
CONTINUOUS
  0
VERTEX
 10
51.500000
 20
50.400000
 30
0.000000
  8
1
 62
7
  6
CONTINUOUS
  0
SEQEND
  0
POLYLINE
  8
1
 62
7
  6
CONTINUOUS
 70
1
 66
1
  0
VERTEX
 10
53.400000
 20
47.600000
 30
0.000000
  8
1
 62
7
  6
CONTINUOUS
  0
VERTEX
 10
53.400000
 20
50.900000
 30
0.000000
  8
1
 62
7
  6
CONTINUOUS
  0
VERTEX
 10
52.700000
 20
50.900000
 30
0.000000
  8
1
 62
7
  6
CONTINUOUS
  0
VERTEX
 10
52.700000
 20
47.600000
 30
0.000000
  8
1
 62
7
  6
CONTINUOUS
  0
SEQEND
  0
POLYLINE
  8
1
 62
7
  6
L000000040000000000
 70
1
 66
1
  0
VERTEX
 10
58.400000
 20
40.300000
 30
0.000000
  8
1
 62
7
  6
L000000040000000000
  0
VERTEX
 10
58.400000
 20
42.600000
 30
0.000000
  8
1
 62
7
  6
L000000040000000000
  0
VERTEX
 10
58.200000
 20
42.600000
 30
0.000000
  8
1
 62
7
  6
L000000040000000000
  0
VERTEX
 10
58.200000
 20
40.300000
 30
0.000000
  8
1
 62
7
  6
L000000040000000000
  0
SEQEND
  0
POLYLINE
  8
1
 62
7
  6
L000000040000000000
 70
1
 66
1
  0
VERTEX
 10
58.500000
 20
45.200000
 30
0.000000
  8
1
 62
7
  6
L000000040000000000
  0
VERTEX
 10
58.500000
 20
47.500000
 30
0.000000
  8
1
 62
7
  6
L000000040000000000
  0
VERTEX
 10
58.300000
 20
47.500000
 30
0.000000
  8
1
 62
7
  6
L000000040000000000
  0
VERTEX
 10
58.300000
 20
45.200000
 30
0.000000
  8
1
 62
7
  6
L000000040000000000
  0
SEQEND
  0
POLYLINE
  8
1
 62
7
  6
L000000040000000000
 70
1
 66
1
  0
VERTEX
 10
54.500000
 20
45.200000
 30
0.000000
  8
1
 62
7
  6
L000000040000000000
  0
VERTEX
 10
54.500000
 20
47.500000
 30
0.000000
  8
1
 62
7
  6
L000000040000000000
  0
VERTEX
 10
54.300000
 20
47.500000
 30
0.000000
  8
1
 62
7
  6
L000000040000000000
  0
VERTEX
 10
54.300000
 20
45.200000
 30
0.000000
  8
1
 62
7
  6
L000000040000000000
  0
SEQEND
  0
POLYLINE
  8
1
 62
7
  6
L000000040000000000
 70
1
 66
1
  0
VERTEX
 10
54.400000
 20
40.300000
 30
0.000000
  8
1
 62
7
  6
L000000040000000000
  0
VERTEX
 10
54.400000
 20
42.600000
 30
0.000000
  8
1
 62
7
  6
L000000040000000000
  0
VERTEX
 10
54.200000
 20
42.600000
 30
0.000000
  8
1
 62
7
  6
L000000040000000000
  0
VERTEX
 10
54.200000
 20
40.300000
 30
0.000000
  8
1
 62
7
  6
L000000040000000000
  0
SEQEND
  0
POLYLINE
  8
1
 62
7
  6
L000000040000000000
 70
1
 66
1
  0
VERTEX
 10
60.300000
 20
47.500000
 30
0.000000
  8
1
 62
7
  6
L000000040000000000
  0
VERTEX
 10
60.300000
 20
49.800000
 30
0.000000
  8
1
 62
7
  6
L000000040000000000
  0
VERTEX
 10
60.100000
 20
49.800000
 30
0.000000
  8
1
 62
7
  6
L000000040000000000
  0
VERTEX
 10
60.100000
 20
47.500000
 30
0.000000
  8
1
 62
7
  6
L000000040000000000
  0
SEQEND
  0
POLYLINE
  8
1
 62
7
  6
L000000040000000000
 70
1
 66
1
  0
VERTEX
 10
56.400000
 20
42.600000
 30
0.000000
  8
1
 62
7
  6
L000000040000000000
  0
VERTEX
 10
56.400000
 20
44.900000
 30
0.000000
  8
1
 62
7
  6
L000000040000000000
  0
VERTEX
 10
56.200000
 20
44.900000
 30
0.000000
  8
1
 62
7
  6
L000000040000000000
  0
VERTEX
 10
56.200000
 20
42.600000
 30
0.000000
  8
1
 62
7
  6
L000000040000000000
  0
SEQEND
  0
POLYLINE
  8
1
 62
7
  6
L000000040000000000
 70
1
 66
1
  0
VERTEX
 10
56.500000
 20
47.500000
 30
0.000000
  8
1
 62
7
  6
L000000040000000000
  0
VERTEX
 10
56.500000
 20
49.800000
 30
0.000000
  8
1
 62
7
  6
L000000040000000000
  0
VERTEX
 10
56.300000
 20
49.800000
 30
0.000000
  8
1
 62
7
  6
L000000040000000000
  0
VERTEX
 10
56.300000
 20
47.500000
 30
0.000000
  8
1
 62
7
  6
L000000040000000000
  0
SEQEND
  0
LINE
  8
1
 62
7
  6
CONTINUOUS
 10
53.400000
 20
47.600000
 11
52.700000
 21
50.900000
  0
LINE
  8
1
 62
7
  6
CONTINUOUS
 10
52.700000
 20
47.600000
 11
53.400000
 21
50.900000
  0
POLYLINE
  8
1
 62
7
  6
L000000040000000000
 70
1
 66
1
  0
VERTEX
 10
73.500000
 20
38.900000
 30
0.000000
  8
1
 62
7
  6
L000000040000000000
  0
VERTEX
 10
73.500000
 20
53.900000
 30
0.000000
  8
1
 62
7
  6
L000000040000000000
  0
VERTEX
 10
63.500000
 20
53.900000
 30
0.000000
  8
1
 62
7
  6
L000000040000000000
  0
VERTEX
 10
63.500000
 20
38.900000
 30
0.000000
  8
1
 62
7
  6
L000000040000000000
  0
SEQEND
  0
SOLID
  8
1
 62
7
  6
CONTINUOUS
 10
73.500000
 20
40.400000
 11
73.500000
 21
42.400000
 12
73.300000
 22
40.400000
 13
73.300000
 23
42.400000
  0
POLYLINE
  8
1
 62
7
  6
CONTINUOUS
 70
1
 66
1
  0
VERTEX
 10
73.500000
 20
40.400000
 30
0.000000
  8
1
 62
7
  6
CONTINUOUS
  0
VERTEX
 10
73.500000
 20
42.400000
 30
0.000000
  8
1
 62
7
  6
CONTINUOUS
  0
VERTEX
 10
73.300000
 20
42.400000
 30
0.000000
  8
1
 62
7
  6
CONTINUOUS
  0
VERTEX
 10
73.300000
 20
40.400000
 30
0.000000
  8
1
 62
7
  6
CONTINUOUS
  0
SEQEND
  0
SOLID
  8
1
 62
7
  6
CONTINUOUS
 10
63.700000
 20
40.400000
 11
63.700000
 21
42.400000
 12
63.500000
 22
40.400000
 13
63.500000
 23
42.400000
  0
POLYLINE
  8
1
 62
7
  6
CONTINUOUS
 70
1
 66
1
  0
VERTEX
 10
63.700000
 20
40.400000
 30
0.000000
  8
1
 62
7
  6
CONTINUOUS
  0
VERTEX
 10
63.700000
 20
42.400000
 30
0.000000
  8
1
 62
7
  6
CONTINUOUS
  0
VERTEX
 10
63.500000
 20
42.400000
 30
0.000000
  8
1
 62
7
  6
CONTINUOUS
  0
VERTEX
 10
63.500000
 20
40.400000
 30
0.000000
  8
1
 62
7
  6
CONTINUOUS
  0
SEQEND
  0
SOLID
  8
1
 62
7
  6
CONTINUOUS
 10
73.500000
 20
50.400000
 11
73.500000
 21
52.400000
 12
73.300000
 22
50.400000
 13
73.300000
 23
52.400000
  0
POLYLINE
  8
1
 62
7
  6
CONTINUOUS
 70
1
 66
1
  0
VERTEX
 10
73.500000
 20
50.400000
 30
0.000000
  8
1
 62
7
  6
CONTINUOUS
  0
VERTEX
 10
73.500000
 20
52.400000
 30
0.000000
  8
1
 62
7
  6
CONTINUOUS
  0
VERTEX
 10
73.300000
 20
52.400000
 30
0.000000
  8
1
 62
7
  6
CONTINUOUS
  0
VERTEX
 10
73.300000
 20
50.400000
 30
0.000000
  8
1
 62
7
  6
CONTINUOUS
  0
SEQEND
  0
SOLID
  8
1
 62
7
  6
CONTINUOUS
 10
63.700000
 20
50.400000
 11
63.700000
 21
52.400000
 12
63.500000
 22
50.400000
 13
63.500000
 23
52.400000
  0
POLYLINE
  8
1
 62
7
  6
CONTINUOUS
 70
1
 66
1
  0
VERTEX
 10
63.700000
 20
50.400000
 30
0.000000
  8
1
 62
7
  6
CONTINUOUS
  0
VERTEX
 10
63.700000
 20
52.400000
 30
0.000000
  8
1
 62
7
  6
CONTINUOUS
  0
VERTEX
 10
63.500000
 20
52.400000
 30
0.000000
  8
1
 62
7
  6
CONTINUOUS
  0
VERTEX
 10
63.500000
 20
50.400000
 30
0.000000
  8
1
 62
7
  6
CONTINUOUS
  0
SEQEND
  0
POLYLINE
  8
1
 62
7
  6
CONTINUOUS
 70
1
 66
1
  0
VERTEX
 10
65.400000
 20
47.600000
 30
0.000000
  8
1
 62
7
  6
CONTINUOUS
  0
VERTEX
 10
65.400000
 20
50.900000
 30
0.000000
  8
1
 62
7
  6
CONTINUOUS
  0
VERTEX
 10
64.700000
 20
50.900000
 30
0.000000
  8
1
 62
7
  6
CONTINUOUS
  0
VERTEX
 10
64.700000
 20
47.600000
 30
0.000000
  8
1
 62
7
  6
CONTINUOUS
  0
SEQEND
  0
POLYLINE
  8
1
 62
7
  6
L000000040000000000
 70
1
 66
1
  0
VERTEX
 10
70.400000
 20
40.300000
 30
0.000000
  8
1
 62
7
  6
L000000040000000000
  0
VERTEX
 10
70.400000
 20
42.600000
 30
0.000000
  8
1
 62
7
  6
L000000040000000000
  0
VERTEX
 10
70.200000
 20
42.600000
 30
0.000000
  8
1
 62
7
  6
L000000040000000000
  0
VERTEX
 10
70.200000
 20
40.300000
 30
0.000000
  8
1
 62
7
  6
L000000040000000000
  0
SEQEND
  0
POLYLINE
  8
1
 62
7
  6
L000000040000000000
 70
1
 66
1
  0
VERTEX
 10
70.500000
 20
45.200000
 30
0.000000
  8
1
 62
7
  6
L000000040000000000
  0
VERTEX
 10
70.500000
 20
47.500000
 30
0.000000
  8
1
 62
7
  6
L000000040000000000
  0
VERTEX
 10
70.300000
 20
47.500000
 30
0.000000
  8
1
 62
7
  6
L000000040000000000
  0
VERTEX
 10
70.300000
 20
45.200000
 30
0.000000
  8
1
 62
7
  6
L000000040000000000
  0
SEQEND
  0
POLYLINE
  8
1
 62
7
  6
L000000040000000000
 70
1
 66
1
  0
VERTEX
 10
66.500000
 20
45.200000
 30
0.000000
  8
1
 62
7
  6
L000000040000000000
  0
VERTEX
 10
66.500000
 20
47.500000
 30
0.000000
  8
1
 62
7
  6
L000000040000000000
  0
VERTEX
 10
66.300000
 20
47.500000
 30
0.000000
  8
1
 62
7
  6
L000000040000000000
  0
VERTEX
 10
66.300000
 20
45.200000
 30
0.000000
  8
1
 62
7
  6
L000000040000000000
  0
SEQEND
  0
POLYLINE
  8
1
 62
7
  6
L000000040000000000
 70
1
 66
1
  0
VERTEX
 10
66.400000
 20
40.300000
 30
0.000000
  8
1
 62
7
  6
L000000040000000000
  0
VERTEX
 10
66.400000
 20
42.600000
 30
0.000000
  8
1
 62
7
  6
L000000040000000000
  0
VERTEX
 10
66.200000
 20
42.600000
 30
0.000000
  8
1
 62
7
  6
L000000040000000000
  0
VERTEX
 10
66.200000
 20
40.300000
 30
0.000000
  8
1
 62
7
  6
L000000040000000000
  0
SEQEND
  0
POLYLINE
  8
1
 62
7
  6
L000000040000000000
 70
1
 66
1
  0
VERTEX
 10
72.300000
 20
47.500000
 30
0.000000
  8
1
 62
7
  6
L000000040000000000
  0
VERTEX
 10
72.300000
 20
49.800000
 30
0.000000
  8
1
 62
7
  6
L000000040000000000
  0
VERTEX
 10
72.100000
 20
49.800000
 30
0.000000
  8
1
 62
7
  6
L000000040000000000
  0
VERTEX
 10
72.100000
 20
47.500000
 30
0.000000
  8
1
 62
7
  6
L000000040000000000
  0
SEQEND
  0
POLYLINE
  8
1
 62
7
  6
L000000040000000000
 70
1
 66
1
  0
VERTEX
 10
68.400000
 20
42.600000
 30
0.000000
  8
1
 62
7
  6
L000000040000000000
  0
VERTEX
 10
68.400000
 20
44.900000
 30
0.000000
  8
1
 62
7
  6
L000000040000000000
  0
VERTEX
 10
68.200000
 20
44.900000
 30
0.000000
  8
1
 62
7
  6
L000000040000000000
  0
VERTEX
 10
68.200000
 20
42.600000
 30
0.000000
  8
1
 62
7
  6
L000000040000000000
  0
SEQEND
  0
POLYLINE
  8
1
 62
7
  6
L000000040000000000
 70
1
 66
1
  0
VERTEX
 10
68.500000
 20
47.500000
 30
0.000000
  8
1
 62
7
  6
L000000040000000000
  0
VERTEX
 10
68.500000
 20
49.800000
 30
0.000000
  8
1
 62
7
  6
L000000040000000000
  0
VERTEX
 10
68.300000
 20
49.800000
 30
0.000000
  8
1
 62
7
  6
L000000040000000000
  0
VERTEX
 10
68.300000
 20
47.500000
 30
0.000000
  8
1
 62
7
  6
L000000040000000000
  0
SEQEND
  0
LINE
  8
1
 62
7
  6
CONTINUOUS
 10
65.400000
 20
47.600000
 11
64.700000
 21
50.900000
  0
LINE
  8
1
 62
7
  6
CONTINUOUS
 10
64.700000
 20
47.600000
 11
65.400000
 21
50.900000
  0
POLYLINE
  8
1
 62
7
  6
CONTINUOUS
 70
1
 66
1
  0
VERTEX
 10
53.400000
 20
47.600000
 30
0.000000
  8
1
 62
7
  6
CONTINUOUS
  0
VERTEX
 10
53.400000
 20
50.900000
 30
0.000000
  8
1
 62
7
  6
CONTINUOUS
  0
VERTEX
 10
52.700000
 20
50.900000
 30
0.000000
  8
1
 62
7
  6
CONTINUOUS
  0
VERTEX
 10
52.700000
 20
47.600000
 30
0.000000
  8
1
 62
7
  6
CONTINUOUS
  0
SEQEND
  0
LINE
  8
1
 62
7
  6
CONTINUOUS
 10
53.400000
 20
47.600000
 11
52.700000
 21
50.900000
  0
LINE
  8
1
 62
7
  6
CONTINUOUS
 10
52.700000
 20
47.600000
 11
53.400000
 21
50.900000
  0
POLYLINE
  8
1
 62
7
  6
CONTINUOUS
 70
1
 66
1
  0
VERTEX
 10
53.400000
 20
47.600000
 30
0.000000
  8
1
 62
7
  6
CONTINUOUS
  0
VERTEX
 10
53.400000
 20
50.900000
 30
0.000000
  8
1
 62
7
  6
CONTINUOUS
  0
VERTEX
 10
52.700000
 20
50.900000
 30
0.000000
  8
1
 62
7
  6
CONTINUOUS
  0
VERTEX
 10
52.700000
 20
47.600000
 30
0.000000
  8
1
 62
7
  6
CONTINUOUS
  0
SEQEND
  0
LINE
  8
1
 62
7
  6
CONTINUOUS
 10
53.400000
 20
47.600000
 11
52.700000
 21
50.900000
  0
LINE
  8
1
 62
7
  6
CONTINUOUS
 10
52.700000
 20
47.600000
 11
53.400000
 21
50.900000
  0
POLYLINE
  8
1
 62
7
  6
CONTINUOUS
 70
1
 66
1
  0
VERTEX
 10
65.400000
 20
47.600000
 30
0.000000
  8
1
 62
7
  6
CONTINUOUS
  0
VERTEX
 10
65.400000
 20
50.900000
 30
0.000000
  8
1
 62
7
  6
CONTINUOUS
  0
VERTEX
 10
64.700000
 20
50.900000
 30
0.000000
  8
1
 62
7
  6
CONTINUOUS
  0
VERTEX
 10
64.700000
 20
47.600000
 30
0.000000
  8
1
 62
7
  6
CONTINUOUS
  0
SEQEND
  0
LINE
  8
1
 62
7
  6
CONTINUOUS
 10
65.400000
 20
47.600000
 11
64.700000
 21
50.900000
  0
LINE
  8
1
 62
7
  6
CONTINUOUS
 10
64.700000
 20
47.600000
 11
65.400000
 21
50.900000
  0
POLYLINE
  8
1
 62
7
  6
CONTINUOUS
 70
1
 66
1
  0
VERTEX
 10
65.400000
 20
47.600000
 30
0.000000
  8
1
 62
7
  6
CONTINUOUS
  0
VERTEX
 10
65.400000
 20
50.900000
 30
0.000000
  8
1
 62
7
  6
CONTINUOUS
  0
VERTEX
 10
64.700000
 20
50.900000
 30
0.000000
  8
1
 62
7
  6
CONTINUOUS
  0
VERTEX
 10
64.700000
 20
47.600000
 30
0.000000
  8
1
 62
7
  6
CONTINUOUS
  0
SEQEND
  0
LINE
  8
1
 62
7
  6
CONTINUOUS
 10
65.400000
 20
47.600000
 11
64.700000
 21
50.900000
  0
LINE
  8
1
 62
7
  6
CONTINUOUS
 10
64.700000
 20
47.600000
 11
65.400000
 21
50.900000
  0
SOLID
  8
57
 62
255
  6
L014100020032000000
 10
74.100000
 20
23.700000
 11
74.100000
 21
24.900000
 12
0.900000
 22
23.700000
 13
0.900000
 23
24.900000
  0
POLYLINE
  8
57
 62
7
  6
L014100020032000000
 70
1
 66
1
  0
VERTEX
 10
74.100000
 20
23.700000
 30
0.000000
  8
57
 62
7
  6
L014100020032000000
  0
VERTEX
 10
74.100000
 20
24.900000
 30
0.000000
  8
57
 62
7
  6
L014100020032000000
  0
VERTEX
 10
0.900000
 20
24.900000
 30
0.000000
  8
57
 62
7
  6
L014100020032000000
  0
VERTEX
 10
0.900000
 20
23.700000
 30
0.000000
  8
57
 62
7
  6
L014100020032000000
  0
SEQEND
  0
SOLID
  8
57
 62
255
  6
L014100020032000000
 10
74.100000
 20
7.700000
 11
74.100000
 21
8.900000
 12
0.900000
 22
7.700000
 13
0.900000
 23
8.900000
  0
POLYLINE
  8
57
 62
7
  6
L014100020032000000
 70
1
 66
1
  0
VERTEX
 10
74.100000
 20
7.700000
 30
0.000000
  8
57
 62
7
  6
L014100020032000000
  0
VERTEX
 10
74.100000
 20
8.900000
 30
0.000000
  8
57
 62
7
  6
L014100020032000000
  0
VERTEX
 10
0.900000
 20
8.900000
 30
0.000000
  8
57
 62
7
  6
L014100020032000000
  0
VERTEX
 10
0.900000
 20
7.700000
 30
0.000000
  8
57
 62
7
  6
L014100020032000000
  0
SEQEND
  0
SOLID
  8
57
 62
255
  6
L014100020032000000
 10
74.100000
 20
11.700000
 11
74.100000
 21
12.900000
 12
0.900000
 22
11.700000
 13
0.900000
 23
12.900000
  0
POLYLINE
  8
57
 62
7
  6
L014100020032000000
 70
1
 66
1
  0
VERTEX
 10
74.100000
 20
11.700000
 30
0.000000
  8
57
 62
7
  6
L014100020032000000
  0
VERTEX
 10
74.100000
 20
12.900000
 30
0.000000
  8
57
 62
7
  6
L014100020032000000
  0
VERTEX
 10
0.900000
 20
12.900000
 30
0.000000
  8
57
 62
7
  6
L014100020032000000
  0
VERTEX
 10
0.900000
 20
11.700000
 30
0.000000
  8
57
 62
7
  6
L014100020032000000
  0
SEQEND
  0
SOLID
  8
57
 62
255
  6
L014100020032000000
 10
74.100000
 20
15.700000
 11
74.100000
 21
16.900000
 12
0.900000
 22
15.700000
 13
0.900000
 23
16.900000
  0
POLYLINE
  8
57
 62
7
  6
L014100020032000000
 70
1
 66
1
  0
VERTEX
 10
74.100000
 20
15.700000
 30
0.000000
  8
57
 62
7
  6
L014100020032000000
  0
VERTEX
 10
74.100000
 20
16.900000
 30
0.000000
  8
57
 62
7
  6
L014100020032000000
  0
VERTEX
 10
0.900000
 20
16.900000
 30
0.000000
  8
57
 62
7
  6
L014100020032000000
  0
VERTEX
 10
0.900000
 20
15.700000
 30
0.000000
  8
57
 62
7
  6
L014100020032000000
  0
SEQEND
  0
SOLID
  8
57
 62
255
  6
L014100020032000000
 10
74.100000
 20
19.700000
 11
74.100000
 21
20.900000
 12
0.900000
 22
19.700000
 13
0.900000
 23
20.900000
  0
POLYLINE
  8
57
 62
7
  6
L014100020032000000
 70
1
 66
1
  0
VERTEX
 10
74.100000
 20
19.700000
 30
0.000000
  8
57
 62
7
  6
L014100020032000000
  0
VERTEX
 10
74.100000
 20
20.900000
 30
0.000000
  8
57
 62
7
  6
L014100020032000000
  0
VERTEX
 10
0.900000
 20
20.900000
 30
0.000000
  8
57
 62
7
  6
L014100020032000000
  0
VERTEX
 10
0.900000
 20
19.700000
 30
0.000000
  8
57
 62
7
  6
L014100020032000000
  0
SEQEND
  0
SOLID
  8
29
 62
255
  6
CONTINUOUS
 10
74.800000
 20
0.100000
 11
74.800000
 21
104.800000
 12
0.200000
 22
0.100000
 13
0.200000
 23
104.800000
  0
POLYLINE
  8
29
 62
7
  6
CONTINUOUS
 70
1
 66
1
  0
VERTEX
 10
74.800000
 20
0.100000
 30
0.000000
  8
29
 62
7
  6
CONTINUOUS
  0
VERTEX
 10
74.800000
 20
104.800000
 30
0.000000
  8
29
 62
7
  6
CONTINUOUS
  0
VERTEX
 10
0.200000
 20
104.800000
 30
0.000000
  8
29
 62
7
  6
CONTINUOUS
  0
VERTEX
 10
0.200000
 20
0.100000
 30
0.000000
  8
29
 62
7
  6
CONTINUOUS
  0
SEQEND
  0
POLYLINE
  8
29
 62
7
  6
CONTINUOUS
 70
0
 66
1
  0
VERTEX
 10
0.200000
 20
30.000000
  8
29
 62
7
  6
CONTINUOUS
  0
VERTEX
 10
74.800000
 20
30.000000
  8
29
 62
7
  6
CONTINUOUS
  0
SEQEND
  0
POLYLINE
  8
29
 62
7
  6
CONTINUOUS
 70
0
 66
1
  0
VERTEX
 10
0.200000
 20
75.000000
  8
29
 62
7
  6
CONTINUOUS
  0
VERTEX
 10
74.800000
 20
75.000000
  8
29
 62
7
  6
CONTINUOUS
  0
SEQEND
  0
POLYLINE
  8
29
 62
7
  6
CONTINUOUS
 70
0
 66
1
  0
VERTEX
 10
25.000000
 20
30.000000
  8
29
 62
7
  6
CONTINUOUS
  0
VERTEX
 10
25.000000
 20
0.200000
  8
29
 62
7
  6
CONTINUOUS
  0
SEQEND
  0
POLYLINE
  8
29
 62
7
  6
CONTINUOUS
 70
0
 66
1
  0
VERTEX
 10
25.000000
 20
104.800000
  8
29
 62
7
  6
CONTINUOUS
  0
VERTEX
 10
25.000000
 20
60.000000
  8
29
 62
7
  6
CONTINUOUS
  0
SEQEND
  0
POLYLINE
  8
29
 62
7
  6
CONTINUOUS
 70
1
 66
1
  0
VERTEX
 10
23.300000
 20
97.200000
 30
0.000000
  8
29
 62
7
  6
CONTINUOUS
  0
VERTEX
 10
23.300000
 20
92.600000
 30
0.000000
  8
29
 62
7
  6
CONTINUOUS
  0
VERTEX
 10
1.700000
 20
92.600000
 30
0.000000
  8
29
 62
7
  6
CONTINUOUS
  0
VERTEX
 10
1.700000
 20
97.200000
 30
0.000000
  8
29
 62
7
  6
CONTINUOUS
  0
SEQEND
  0
POLYLINE
  8
29
 62
7
  6
CONTINUOUS
 70
0
 66
1
  0
VERTEX
 10
3.500000
 20
92.600000
  8
29
 62
7
  6
CONTINUOUS
  0
VERTEX
 10
3.500000
 20
93.700000
  8
29
 62
7
  6
CONTINUOUS
  0
SEQEND
  0
POLYLINE
  8
29
 62
7
  6
CONTINUOUS
 70
0
 66
1
  0
VERTEX
 10
5.300000
 20
92.600000
  8
29
 62
7
  6
CONTINUOUS
  0
VERTEX
 10
5.300000
 20
93.700000
  8
29
 62
7
  6
CONTINUOUS
  0
VERTEX
 10
5.300000
 20
93.700000
  8
29
 62
7
  6
CONTINUOUS
  0
SEQEND
  0
POLYLINE
  8
29
 62
7
  6
CONTINUOUS
 70
0
 66
1
  0
VERTEX
 10
7.100000
 20
92.600000
  8
29
 62
7
  6
CONTINUOUS
  0
VERTEX
 10
7.100000
 20
93.700000
  8
29
 62
7
  6
CONTINUOUS
  0
SEQEND
  0
POLYLINE
  8
29
 62
7
  6
CONTINUOUS
 70
0
 66
1
  0
VERTEX
 10
8.900000
 20
92.600000
  8
29
 62
7
  6
CONTINUOUS
  0
VERTEX
 10
8.900000
 20
93.700000
  8
29
 62
7
  6
CONTINUOUS
  0
SEQEND
  0
POLYLINE
  8
29
 62
7
  6
CONTINUOUS
 70
0
 66
1
  0
VERTEX
 10
10.700000
 20
92.600000
  8
29
 62
7
  6
CONTINUOUS
  0
VERTEX
 10
10.700000
 20
93.700000
  8
29
 62
7
  6
CONTINUOUS
  0
SEQEND
  0
POLYLINE
  8
29
 62
7
  6
CONTINUOUS
 70
0
 66
1
  0
VERTEX
 10
12.500000
 20
92.600000
  8
29
 62
7
  6
CONTINUOUS
  0
VERTEX
 10
12.500000
 20
93.700000
  8
29
 62
7
  6
CONTINUOUS
  0
SEQEND
  0
POLYLINE
  8
29
 62
7
  6
CONTINUOUS
 70
0
 66
1
  0
VERTEX
 10
14.300000
 20
92.600000
  8
29
 62
7
  6
CONTINUOUS
  0
VERTEX
 10
14.300000
 20
93.700000
  8
29
 62
7
  6
CONTINUOUS
  0
SEQEND
  0
POLYLINE
  8
29
 62
7
  6
CONTINUOUS
 70
0
 66
1
  0
VERTEX
 10
16.100000
 20
92.600000
  8
29
 62
7
  6
CONTINUOUS
  0
VERTEX
 10
16.100000
 20
93.700000
  8
29
 62
7
  6
CONTINUOUS
  0
SEQEND
  0
POLYLINE
  8
29
 62
7
  6
CONTINUOUS
 70
0
 66
1
  0
VERTEX
 10
17.900000
 20
92.600000
  8
29
 62
7
  6
CONTINUOUS
  0
VERTEX
 10
17.900000
 20
93.700000
  8
29
 62
7
  6
CONTINUOUS
  0
SEQEND
  0
POLYLINE
  8
29
 62
7
  6
CONTINUOUS
 70
0
 66
1
  0
VERTEX
 10
19.700000
 20
92.600000
  8
29
 62
7
  6
CONTINUOUS
  0
VERTEX
 10
19.700000
 20
93.700000
  8
29
 62
7
  6
CONTINUOUS
  0
SEQEND
  0
POLYLINE
  8
29
 62
7
  6
CONTINUOUS
 70
0
 66
1
  0
VERTEX
 10
21.500000
 20
92.600000
  8
29
 62
7
  6
CONTINUOUS
  0
VERTEX
 10
21.500000
 20
93.700000
  8
29
 62
7
  6
CONTINUOUS
  0
SEQEND
  0
POLYLINE
  8
29
 62
7
  6
CONTINUOUS
 70
1
 66
1
  0
VERTEX
 10
48.300000
 20
97.200000
 30
0.000000
  8
29
 62
7
  6
CONTINUOUS
  0
VERTEX
 10
48.300000
 20
92.600000
 30
0.000000
  8
29
 62
7
  6
CONTINUOUS
  0
VERTEX
 10
26.700000
 20
92.600000
 30
0.000000
  8
29
 62
7
  6
CONTINUOUS
  0
VERTEX
 10
26.700000
 20
97.200000
 30
0.000000
  8
29
 62
7
  6
CONTINUOUS
  0
SEQEND
  0
POLYLINE
  8
29
 62
7
  6
CONTINUOUS
 70
0
 66
1
  0
VERTEX
 10
28.500000
 20
92.600000
  8
29
 62
7
  6
CONTINUOUS
  0
VERTEX
 10
28.500000
 20
93.700000
  8
29
 62
7
  6
CONTINUOUS
  0
SEQEND
  0
POLYLINE
  8
29
 62
7
  6
CONTINUOUS
 70
0
 66
1
  0
VERTEX
 10
30.300000
 20
92.600000
  8
29
 62
7
  6
CONTINUOUS
  0
VERTEX
 10
30.300000
 20
93.700000
  8
29
 62
7
  6
CONTINUOUS
  0
VERTEX
 10
30.300000
 20
93.700000
  8
29
 62
7
  6
CONTINUOUS
  0
SEQEND
  0
POLYLINE
  8
29
 62
7
  6
CONTINUOUS
 70
0
 66
1
  0
VERTEX
 10
32.100000
 20
92.600000
  8
29
 62
7
  6
CONTINUOUS
  0
VERTEX
 10
32.100000
 20
93.700000
  8
29
 62
7
  6
CONTINUOUS
  0
SEQEND
  0
POLYLINE
  8
29
 62
7
  6
CONTINUOUS
 70
0
 66
1
  0
VERTEX
 10
33.900000
 20
92.600000
  8
29
 62
7
  6
CONTINUOUS
  0
VERTEX
 10
33.900000
 20
93.700000
  8
29
 62
7
  6
CONTINUOUS
  0
SEQEND
  0
POLYLINE
  8
29
 62
7
  6
CONTINUOUS
 70
0
 66
1
  0
VERTEX
 10
35.700000
 20
92.600000
  8
29
 62
7
  6
CONTINUOUS
  0
VERTEX
 10
35.700000
 20
93.700000
  8
29
 62
7
  6
CONTINUOUS
  0
SEQEND
  0
POLYLINE
  8
29
 62
7
  6
CONTINUOUS
 70
0
 66
1
  0
VERTEX
 10
37.500000
 20
92.600000
  8
29
 62
7
  6
CONTINUOUS
  0
VERTEX
 10
37.500000
 20
93.700000
  8
29
 62
7
  6
CONTINUOUS
  0
SEQEND
  0
POLYLINE
  8
29
 62
7
  6
CONTINUOUS
 70
0
 66
1
  0
VERTEX
 10
39.300000
 20
92.600000
  8
29
 62
7
  6
CONTINUOUS
  0
VERTEX
 10
39.300000
 20
93.700000
  8
29
 62
7
  6
CONTINUOUS
  0
SEQEND
  0
POLYLINE
  8
29
 62
7
  6
CONTINUOUS
 70
0
 66
1
  0
VERTEX
 10
41.100000
 20
92.600000
  8
29
 62
7
  6
CONTINUOUS
  0
VERTEX
 10
41.100000
 20
93.700000
  8
29
 62
7
  6
CONTINUOUS
  0
SEQEND
  0
POLYLINE
  8
29
 62
7
  6
CONTINUOUS
 70
0
 66
1
  0
VERTEX
 10
42.900000
 20
92.600000
  8
29
 62
7
  6
CONTINUOUS
  0
VERTEX
 10
42.900000
 20
93.700000
  8
29
 62
7
  6
CONTINUOUS
  0
SEQEND
  0
POLYLINE
  8
29
 62
7
  6
CONTINUOUS
 70
0
 66
1
  0
VERTEX
 10
44.700000
 20
92.600000
  8
29
 62
7
  6
CONTINUOUS
  0
VERTEX
 10
44.700000
 20
93.700000
  8
29
 62
7
  6
CONTINUOUS
  0
SEQEND
  0
POLYLINE
  8
29
 62
7
  6
CONTINUOUS
 70
0
 66
1
  0
VERTEX
 10
46.500000
 20
92.600000
  8
29
 62
7
  6
CONTINUOUS
  0
VERTEX
 10
46.500000
 20
93.700000
  8
29
 62
7
  6
CONTINUOUS
  0
SEQEND
  0
POLYLINE
  8
29
 62
7
  6
CONTINUOUS
 70
0
 66
1
  0
VERTEX
 10
50.000000
 20
104.800000
  8
29
 62
7
  6
CONTINUOUS
  0
VERTEX
 10
50.000000
 20
60.000000
  8
29
 62
7
  6
CONTINUOUS
  0
SEQEND
  0
POLYLINE
  8
29
 62
7
  6
CONTINUOUS
 70
0
 66
1
  0
VERTEX
 10
50.000000
 20
30.000000
  8
29
 62
7
  6
CONTINUOUS
  0
VERTEX
 10
50.000000
 20
0.200000
  8
29
 62
7
  6
CONTINUOUS
  0
SEQEND
  0
POLYLINE
  8
29
 62
7
  6
CONTINUOUS
 70
0
 66
1
  0
VERTEX
 10
0.200000
 20
60.000000
  8
29
 62
7
  6
CONTINUOUS
  0
VERTEX
 10
74.800000
 20
60.000000
  8
29
 62
7
  6
CONTINUOUS
  0
SEQEND
  0
POLYLINE
  8
29
 62
7
  6
L014100020032000000
 70
1
 66
1
  0
VERTEX
 10
23.300000
 20
69.700000
 30
0.000000
  8
29
 62
7
  6
L014100020032000000
  0
VERTEX
 10
23.300000
 20
65.100000
 30
0.000000
  8
29
 62
7
  6
L014100020032000000
  0
VERTEX
 10
1.700000
 20
65.100000
 30
0.000000
  8
29
 62
7
  6
L014100020032000000
  0
VERTEX
 10
1.700000
 20
69.700000
 30
0.000000
  8
29
 62
7
  6
L014100020032000000
  0
SEQEND
  0
POLYLINE
  8
29
 62
7
  6
L014100020032000000
 70
1
 66
1
  0
VERTEX
 10
48.300000
 20
69.700000
 30
0.000000
  8
29
 62
7
  6
L014100020032000000
  0
VERTEX
 10
48.300000
 20
65.100000
 30
0.000000
  8
29
 62
7
  6
L014100020032000000
  0
VERTEX
 10
26.700000
 20
65.100000
 30
0.000000
  8
29
 62
7
  6
L014100020032000000
  0
VERTEX
 10
26.700000
 20
69.700000
 30
0.000000
  8
29
 62
7
  6
L014100020032000000
  0
SEQEND
  0
POLYLINE
  8
29
 62
7
  6
L014100020032000000
 70
1
 66
1
  0
VERTEX
 10
73.300000
 20
69.700000
 30
0.000000
  8
29
 62
7
  6
L014100020032000000
  0
VERTEX
 10
73.300000
 20
65.100000
 30
0.000000
  8
29
 62
7
  6
L014100020032000000
  0
VERTEX
 10
51.700000
 20
65.100000
 30
0.000000
  8
29
 62
7
  6
L014100020032000000
  0
VERTEX
 10
51.700000
 20
69.700000
 30
0.000000
  8
29
 62
7
  6
L014100020032000000
  0
SEQEND
  0
POLYLINE
  8
29
 62
7
  6
CONTINUOUS
 70
1
 66
1
  0
VERTEX
 10
73.300000
 20
97.100000
 30
0.000000
  8
29
 62
7
  6
CONTINUOUS
  0
VERTEX
 10
73.300000
 20
92.500000
 30
0.000000
  8
29
 62
7
  6
CONTINUOUS
  0
VERTEX
 10
51.700000
 20
92.500000
 30
0.000000
  8
29
 62
7
  6
CONTINUOUS
  0
VERTEX
 10
51.700000
 20
97.100000
 30
0.000000
  8
29
 62
7
  6
CONTINUOUS
  0
SEQEND
  0
POLYLINE
  8
29
 62
7
  6
CONTINUOUS
 70
0
 66
1
  0
VERTEX
 10
53.500000
 20
92.500000
  8
29
 62
7
  6
CONTINUOUS
  0
VERTEX
 10
53.500000
 20
93.600000
  8
29
 62
7
  6
CONTINUOUS
  0
SEQEND
  0
POLYLINE
  8
29
 62
7
  6
CONTINUOUS
 70
0
 66
1
  0
VERTEX
 10
55.300000
 20
92.500000
  8
29
 62
7
  6
CONTINUOUS
  0
VERTEX
 10
55.300000
 20
93.600000
  8
29
 62
7
  6
CONTINUOUS
  0
VERTEX
 10
55.300000
 20
93.600000
  8
29
 62
7
  6
CONTINUOUS
  0
SEQEND
  0
POLYLINE
  8
29
 62
7
  6
CONTINUOUS
 70
0
 66
1
  0
VERTEX
 10
57.100000
 20
92.500000
  8
29
 62
7
  6
CONTINUOUS
  0
VERTEX
 10
57.100000
 20
93.600000
  8
29
 62
7
  6
CONTINUOUS
  0
SEQEND
  0
POLYLINE
  8
29
 62
7
  6
CONTINUOUS
 70
0
 66
1
  0
VERTEX
 10
58.900000
 20
92.500000
  8
29
 62
7
  6
CONTINUOUS
  0
VERTEX
 10
58.900000
 20
93.600000
  8
29
 62
7
  6
CONTINUOUS
  0
SEQEND
  0
POLYLINE
  8
29
 62
7
  6
CONTINUOUS
 70
0
 66
1
  0
VERTEX
 10
60.700000
 20
92.500000
  8
29
 62
7
  6
CONTINUOUS
  0
VERTEX
 10
60.700000
 20
93.600000
  8
29
 62
7
  6
CONTINUOUS
  0
SEQEND
  0
POLYLINE
  8
29
 62
7
  6
CONTINUOUS
 70
0
 66
1
  0
VERTEX
 10
62.500000
 20
92.500000
  8
29
 62
7
  6
CONTINUOUS
  0
VERTEX
 10
62.500000
 20
93.600000
  8
29
 62
7
  6
CONTINUOUS
  0
SEQEND
  0
POLYLINE
  8
29
 62
7
  6
CONTINUOUS
 70
0
 66
1
  0
VERTEX
 10
64.300000
 20
92.500000
  8
29
 62
7
  6
CONTINUOUS
  0
VERTEX
 10
64.300000
 20
93.600000
  8
29
 62
7
  6
CONTINUOUS
  0
SEQEND
  0
POLYLINE
  8
29
 62
7
  6
CONTINUOUS
 70
0
 66
1
  0
VERTEX
 10
66.100000
 20
92.500000
  8
29
 62
7
  6
CONTINUOUS
  0
VERTEX
 10
66.100000
 20
93.600000
  8
29
 62
7
  6
CONTINUOUS
  0
SEQEND
  0
POLYLINE
  8
29
 62
7
  6
CONTINUOUS
 70
0
 66
1
  0
VERTEX
 10
67.900000
 20
92.500000
  8
29
 62
7
  6
CONTINUOUS
  0
VERTEX
 10
67.900000
 20
93.600000
  8
29
 62
7
  6
CONTINUOUS
  0
SEQEND
  0
POLYLINE
  8
29
 62
7
  6
CONTINUOUS
 70
0
 66
1
  0
VERTEX
 10
69.700000
 20
92.500000
  8
29
 62
7
  6
CONTINUOUS
  0
VERTEX
 10
69.700000
 20
93.600000
  8
29
 62
7
  6
CONTINUOUS
  0
SEQEND
  0
POLYLINE
  8
29
 62
7
  6
CONTINUOUS
 70
0
 66
1
  0
VERTEX
 10
71.500000
 20
92.500000
  8
29
 62
7
  6
CONTINUOUS
  0
VERTEX
 10
71.500000
 20
93.600000
  8
29
 62
7
  6
CONTINUOUS
  0
SEQEND
  0
POLYLINE
  8
29
 62
7
  6
L014100020032000000
 70
1
 66
1
  0
VERTEX
 10
23.300000
 20
84.700000
 30
0.000000
  8
29
 62
7
  6
L014100020032000000
  0
VERTEX
 10
23.300000
 20
80.100000
 30
0.000000
  8
29
 62
7
  6
L014100020032000000
  0
VERTEX
 10
1.700000
 20
80.100000
 30
0.000000
  8
29
 62
7
  6
L014100020032000000
  0
VERTEX
 10
1.700000
 20
84.700000
 30
0.000000
  8
29
 62
7
  6
L014100020032000000
  0
SEQEND
  0
POLYLINE
  8
29
 62
7
  6
L014100020032000000
 70
1
 66
1
  0
VERTEX
 10
48.300000
 20
84.700000
 30
0.000000
  8
29
 62
7
  6
L014100020032000000
  0
VERTEX
 10
48.300000
 20
80.100000
 30
0.000000
  8
29
 62
7
  6
L014100020032000000
  0
VERTEX
 10
26.700000
 20
80.100000
 30
0.000000
  8
29
 62
7
  6
L014100020032000000
  0
VERTEX
 10
26.700000
 20
84.700000
 30
0.000000
  8
29
 62
7
  6
L014100020032000000
  0
SEQEND
  0
POLYLINE
  8
29
 62
7
  6
L014100020032000000
 70
1
 66
1
  0
VERTEX
 10
73.300000
 20
84.700000
 30
0.000000
  8
29
 62
7
  6
L014100020032000000
  0
VERTEX
 10
73.300000
 20
80.100000
 30
0.000000
  8
29
 62
7
  6
L014100020032000000
  0
VERTEX
 10
51.700000
 20
80.100000
 30
0.000000
  8
29
 62
7
  6
L014100020032000000
  0
VERTEX
 10
51.700000
 20
84.700000
 30
0.000000
  8
29
 62
7
  6
L014100020032000000
  0
SEQEND
  0
POLYLINE
  8
29
 62
7
  6
CONTINUOUS
 70
1
 66
1
  0
VERTEX
 10
11.500000
 20
38.900000
 30
0.000000
  8
29
 62
7
  6
CONTINUOUS
  0
VERTEX
 10
11.500000
 20
53.900000
 30
0.000000
  8
29
 62
7
  6
CONTINUOUS
  0
VERTEX
 10
1.500000
 20
53.900000
 30
0.000000
  8
29
 62
7
  6
CONTINUOUS
  0
VERTEX
 10
1.500000
 20
38.900000
 30
0.000000
  8
29
 62
7
  6
CONTINUOUS
  0
SEQEND
  0
SOLID
  8
29
 62
7
  6
CONTINUOUS
 10
11.500000
 20
40.400000
 11
11.500000
 21
42.400000
 12
11.300000
 22
40.400000
 13
11.300000
 23
42.400000
  0
POLYLINE
  8
29
 62
7
  6
CONTINUOUS
 70
1
 66
1
  0
VERTEX
 10
11.500000
 20
40.400000
 30
0.000000
  8
29
 62
7
  6
CONTINUOUS
  0
VERTEX
 10
11.500000
 20
42.400000
 30
0.000000
  8
29
 62
7
  6
CONTINUOUS
  0
VERTEX
 10
11.300000
 20
42.400000
 30
0.000000
  8
29
 62
7
  6
CONTINUOUS
  0
VERTEX
 10
11.300000
 20
40.400000
 30
0.000000
  8
29
 62
7
  6
CONTINUOUS
  0
SEQEND
  0
SOLID
  8
29
 62
7
  6
CONTINUOUS
 10
1.700000
 20
40.400000
 11
1.700000
 21
42.400000
 12
1.500000
 22
40.400000
 13
1.500000
 23
42.400000
  0
POLYLINE
  8
29
 62
7
  6
CONTINUOUS
 70
1
 66
1
  0
VERTEX
 10
1.700000
 20
40.400000
 30
0.000000
  8
29
 62
7
  6
CONTINUOUS
  0
VERTEX
 10
1.700000
 20
42.400000
 30
0.000000
  8
29
 62
7
  6
CONTINUOUS
  0
VERTEX
 10
1.500000
 20
42.400000
 30
0.000000
  8
29
 62
7
  6
CONTINUOUS
  0
VERTEX
 10
1.500000
 20
40.400000
 30
0.000000
  8
29
 62
7
  6
CONTINUOUS
  0
SEQEND
  0
SOLID
  8
29
 62
7
  6
CONTINUOUS
 10
11.500000
 20
50.400000
 11
11.500000
 21
52.400000
 12
11.300000
 22
50.400000
 13
11.300000
 23
52.400000
  0
POLYLINE
  8
29
 62
7
  6
CONTINUOUS
 70
1
 66
1
  0
VERTEX
 10
11.500000
 20
50.400000
 30
0.000000
  8
29
 62
7
  6
CONTINUOUS
  0
VERTEX
 10
11.500000
 20
52.400000
 30
0.000000
  8
29
 62
7
  6
CONTINUOUS
  0
VERTEX
 10
11.300000
 20
52.400000
 30
0.000000
  8
29
 62
7
  6
CONTINUOUS
  0
VERTEX
 10
11.300000
 20
50.400000
 30
0.000000
  8
29
 62
7
  6
CONTINUOUS
  0
SEQEND
  0
SOLID
  8
29
 62
7
  6
CONTINUOUS
 10
1.700000
 20
50.400000
 11
1.700000
 21
52.400000
 12
1.500000
 22
50.400000
 13
1.500000
 23
52.400000
  0
POLYLINE
  8
29
 62
7
  6
CONTINUOUS
 70
1
 66
1
  0
VERTEX
 10
1.700000
 20
50.400000
 30
0.000000
  8
29
 62
7
  6
CONTINUOUS
  0
VERTEX
 10
1.700000
 20
52.400000
 30
0.000000
  8
29
 62
7
  6
CONTINUOUS
  0
VERTEX
 10
1.500000
 20
52.400000
 30
0.000000
  8
29
 62
7
  6
CONTINUOUS
  0
VERTEX
 10
1.500000
 20
50.400000
 30
0.000000
  8
29
 62
7
  6
CONTINUOUS
  0
SEQEND
  0
POLYLINE
  8
29
 62
7
  6
CONTINUOUS
 70
1
 66
1
  0
VERTEX
 10
3.400000
 20
47.600000
 30
0.000000
  8
29
 62
7
  6
CONTINUOUS
  0
VERTEX
 10
3.400000
 20
50.900000
 30
0.000000
  8
29
 62
7
  6
CONTINUOUS
  0
VERTEX
 10
2.700000
 20
50.900000
 30
0.000000
  8
29
 62
7
  6
CONTINUOUS
  0
VERTEX
 10
2.700000
 20
47.600000
 30
0.000000
  8
29
 62
7
  6
CONTINUOUS
  0
SEQEND
  0
POLYLINE
  8
29
 62
7
  6
CONTINUOUS
 70
1
 66
1
  0
VERTEX
 10
8.400000
 20
40.300000
 30
0.000000
  8
29
 62
7
  6
CONTINUOUS
  0
VERTEX
 10
8.400000
 20
42.600000
 30
0.000000
  8
29
 62
7
  6
CONTINUOUS
  0
VERTEX
 10
8.200000
 20
42.600000
 30
0.000000
  8
29
 62
7
  6
CONTINUOUS
  0
VERTEX
 10
8.200000
 20
40.300000
 30
0.000000
  8
29
 62
7
  6
CONTINUOUS
  0
SEQEND
  0
POLYLINE
  8
29
 62
7
  6
CONTINUOUS
 70
1
 66
1
  0
VERTEX
 10
8.500000
 20
45.200000
 30
0.000000
  8
29
 62
7
  6
CONTINUOUS
  0
VERTEX
 10
8.500000
 20
47.500000
 30
0.000000
  8
29
 62
7
  6
CONTINUOUS
  0
VERTEX
 10
8.300000
 20
47.500000
 30
0.000000
  8
29
 62
7
  6
CONTINUOUS
  0
VERTEX
 10
8.300000
 20
45.200000
 30
0.000000
  8
29
 62
7
  6
CONTINUOUS
  0
SEQEND
  0
POLYLINE
  8
29
 62
7
  6
CONTINUOUS
 70
1
 66
1
  0
VERTEX
 10
4.500000
 20
45.200000
 30
0.000000
  8
29
 62
7
  6
CONTINUOUS
  0
VERTEX
 10
4.500000
 20
47.500000
 30
0.000000
  8
29
 62
7
  6
CONTINUOUS
  0
VERTEX
 10
4.300000
 20
47.500000
 30
0.000000
  8
29
 62
7
  6
CONTINUOUS
  0
VERTEX
 10
4.300000
 20
45.200000
 30
0.000000
  8
29
 62
7
  6
CONTINUOUS
  0
SEQEND
  0
POLYLINE
  8
29
 62
7
  6
CONTINUOUS
 70
1
 66
1
  0
VERTEX
 10
4.400000
 20
40.300000
 30
0.000000
  8
29
 62
7
  6
CONTINUOUS
  0
VERTEX
 10
4.400000
 20
42.600000
 30
0.000000
  8
29
 62
7
  6
CONTINUOUS
  0
VERTEX
 10
4.200000
 20
42.600000
 30
0.000000
  8
29
 62
7
  6
CONTINUOUS
  0
VERTEX
 10
4.200000
 20
40.300000
 30
0.000000
  8
29
 62
7
  6
CONTINUOUS
  0
SEQEND
  0
POLYLINE
  8
29
 62
7
  6
CONTINUOUS
 70
1
 66
1
  0
VERTEX
 10
10.300000
 20
47.500000
 30
0.000000
  8
29
 62
7
  6
CONTINUOUS
  0
VERTEX
 10
10.300000
 20
49.800000
 30
0.000000
  8
29
 62
7
  6
CONTINUOUS
  0
VERTEX
 10
10.100000
 20
49.800000
 30
0.000000
  8
29
 62
7
  6
CONTINUOUS
  0
VERTEX
 10
10.100000
 20
47.500000
 30
0.000000
  8
29
 62
7
  6
CONTINUOUS
  0
SEQEND
  0
POLYLINE
  8
29
 62
7
  6
CONTINUOUS
 70
1
 66
1
  0
VERTEX
 10
6.400000
 20
42.600000
 30
0.000000
  8
29
 62
7
  6
CONTINUOUS
  0
VERTEX
 10
6.400000
 20
44.900000
 30
0.000000
  8
29
 62
7
  6
CONTINUOUS
  0
VERTEX
 10
6.200000
 20
44.900000
 30
0.000000
  8
29
 62
7
  6
CONTINUOUS
  0
VERTEX
 10
6.200000
 20
42.600000
 30
0.000000
  8
29
 62
7
  6
CONTINUOUS
  0
SEQEND
  0
POLYLINE
  8
29
 62
7
  6
CONTINUOUS
 70
1
 66
1
  0
VERTEX
 10
6.500000
 20
47.500000
 30
0.000000
  8
29
 62
7
  6
CONTINUOUS
  0
VERTEX
 10
6.500000
 20
49.800000
 30
0.000000
  8
29
 62
7
  6
CONTINUOUS
  0
VERTEX
 10
6.300000
 20
49.800000
 30
0.000000
  8
29
 62
7
  6
CONTINUOUS
  0
VERTEX
 10
6.300000
 20
47.500000
 30
0.000000
  8
29
 62
7
  6
CONTINUOUS
  0
SEQEND
  0
LINE
  8
29
 62
7
  6
CONTINUOUS
 10
3.400000
 20
47.600000
 11
2.700000
 21
50.900000
  0
LINE
  8
29
 62
7
  6
CONTINUOUS
 10
2.700000
 20
47.600000
 11
3.400000
 21
50.900000
  0
POLYLINE
  8
29
 62
7
  6
CONTINUOUS
 70
1
 66
1
  0
VERTEX
 10
23.500000
 20
38.900000
 30
0.000000
  8
29
 62
7
  6
CONTINUOUS
  0
VERTEX
 10
23.500000
 20
53.900000
 30
0.000000
  8
29
 62
7
  6
CONTINUOUS
  0
VERTEX
 10
13.500000
 20
53.900000
 30
0.000000
  8
29
 62
7
  6
CONTINUOUS
  0
VERTEX
 10
13.500000
 20
38.900000
 30
0.000000
  8
29
 62
7
  6
CONTINUOUS
  0
SEQEND
  0
SOLID
  8
29
 62
7
  6
CONTINUOUS
 10
23.500000
 20
40.400000
 11
23.500000
 21
42.400000
 12
23.300000
 22
40.400000
 13
23.300000
 23
42.400000
  0
POLYLINE
  8
29
 62
7
  6
CONTINUOUS
 70
1
 66
1
  0
VERTEX
 10
23.500000
 20
40.400000
 30
0.000000
  8
29
 62
7
  6
CONTINUOUS
  0
VERTEX
 10
23.500000
 20
42.400000
 30
0.000000
  8
29
 62
7
  6
CONTINUOUS
  0
VERTEX
 10
23.300000
 20
42.400000
 30
0.000000
  8
29
 62
7
  6
CONTINUOUS
  0
VERTEX
 10
23.300000
 20
40.400000
 30
0.000000
  8
29
 62
7
  6
CONTINUOUS
  0
SEQEND
  0
SOLID
  8
29
 62
7
  6
CONTINUOUS
 10
13.700000
 20
40.400000
 11
13.700000
 21
42.400000
 12
13.500000
 22
40.400000
 13
13.500000
 23
42.400000
  0
POLYLINE
  8
29
 62
7
  6
CONTINUOUS
 70
1
 66
1
  0
VERTEX
 10
13.700000
 20
40.400000
 30
0.000000
  8
29
 62
7
  6
CONTINUOUS
  0
VERTEX
 10
13.700000
 20
42.400000
 30
0.000000
  8
29
 62
7
  6
CONTINUOUS
  0
VERTEX
 10
13.500000
 20
42.400000
 30
0.000000
  8
29
 62
7
  6
CONTINUOUS
  0
VERTEX
 10
13.500000
 20
40.400000
 30
0.000000
  8
29
 62
7
  6
CONTINUOUS
  0
SEQEND
  0
SOLID
  8
29
 62
7
  6
CONTINUOUS
 10
23.500000
 20
50.400000
 11
23.500000
 21
52.400000
 12
23.300000
 22
50.400000
 13
23.300000
 23
52.400000
  0
POLYLINE
  8
29
 62
7
  6
CONTINUOUS
 70
1
 66
1
  0
VERTEX
 10
23.500000
 20
50.400000
 30
0.000000
  8
29
 62
7
  6
CONTINUOUS
  0
VERTEX
 10
23.500000
 20
52.400000
 30
0.000000
  8
29
 62
7
  6
CONTINUOUS
  0
VERTEX
 10
23.300000
 20
52.400000
 30
0.000000
  8
29
 62
7
  6
CONTINUOUS
  0
VERTEX
 10
23.300000
 20
50.400000
 30
0.000000
  8
29
 62
7
  6
CONTINUOUS
  0
SEQEND
  0
SOLID
  8
29
 62
7
  6
CONTINUOUS
 10
13.700000
 20
50.400000
 11
13.700000
 21
52.400000
 12
13.500000
 22
50.400000
 13
13.500000
 23
52.400000
  0
POLYLINE
  8
29
 62
7
  6
CONTINUOUS
 70
1
 66
1
  0
VERTEX
 10
13.700000
 20
50.400000
 30
0.000000
  8
29
 62
7
  6
CONTINUOUS
  0
VERTEX
 10
13.700000
 20
52.400000
 30
0.000000
  8
29
 62
7
  6
CONTINUOUS
  0
VERTEX
 10
13.500000
 20
52.400000
 30
0.000000
  8
29
 62
7
  6
CONTINUOUS
  0
VERTEX
 10
13.500000
 20
50.400000
 30
0.000000
  8
29
 62
7
  6
CONTINUOUS
  0
SEQEND
  0
POLYLINE
  8
29
 62
7
  6
CONTINUOUS
 70
1
 66
1
  0
VERTEX
 10
15.400000
 20
47.600000
 30
0.000000
  8
29
 62
7
  6
CONTINUOUS
  0
VERTEX
 10
15.400000
 20
50.900000
 30
0.000000
  8
29
 62
7
  6
CONTINUOUS
  0
VERTEX
 10
14.700000
 20
50.900000
 30
0.000000
  8
29
 62
7
  6
CONTINUOUS
  0
VERTEX
 10
14.700000
 20
47.600000
 30
0.000000
  8
29
 62
7
  6
CONTINUOUS
  0
SEQEND
  0
POLYLINE
  8
29
 62
7
  6
CONTINUOUS
 70
1
 66
1
  0
VERTEX
 10
20.400000
 20
40.300000
 30
0.000000
  8
29
 62
7
  6
CONTINUOUS
  0
VERTEX
 10
20.400000
 20
42.600000
 30
0.000000
  8
29
 62
7
  6
CONTINUOUS
  0
VERTEX
 10
20.200000
 20
42.600000
 30
0.000000
  8
29
 62
7
  6
CONTINUOUS
  0
VERTEX
 10
20.200000
 20
40.300000
 30
0.000000
  8
29
 62
7
  6
CONTINUOUS
  0
SEQEND
  0
POLYLINE
  8
29
 62
7
  6
CONTINUOUS
 70
1
 66
1
  0
VERTEX
 10
20.500000
 20
45.200000
 30
0.000000
  8
29
 62
7
  6
CONTINUOUS
  0
VERTEX
 10
20.500000
 20
47.500000
 30
0.000000
  8
29
 62
7
  6
CONTINUOUS
  0
VERTEX
 10
20.300000
 20
47.500000
 30
0.000000
  8
29
 62
7
  6
CONTINUOUS
  0
VERTEX
 10
20.300000
 20
45.200000
 30
0.000000
  8
29
 62
7
  6
CONTINUOUS
  0
SEQEND
  0
POLYLINE
  8
29
 62
7
  6
CONTINUOUS
 70
1
 66
1
  0
VERTEX
 10
16.500000
 20
45.200000
 30
0.000000
  8
29
 62
7
  6
CONTINUOUS
  0
VERTEX
 10
16.500000
 20
47.500000
 30
0.000000
  8
29
 62
7
  6
CONTINUOUS
  0
VERTEX
 10
16.300000
 20
47.500000
 30
0.000000
  8
29
 62
7
  6
CONTINUOUS
  0
VERTEX
 10
16.300000
 20
45.200000
 30
0.000000
  8
29
 62
7
  6
CONTINUOUS
  0
SEQEND
  0
POLYLINE
  8
29
 62
7
  6
CONTINUOUS
 70
1
 66
1
  0
VERTEX
 10
16.400000
 20
40.300000
 30
0.000000
  8
29
 62
7
  6
CONTINUOUS
  0
VERTEX
 10
16.400000
 20
42.600000
 30
0.000000
  8
29
 62
7
  6
CONTINUOUS
  0
VERTEX
 10
16.200000
 20
42.600000
 30
0.000000
  8
29
 62
7
  6
CONTINUOUS
  0
VERTEX
 10
16.200000
 20
40.300000
 30
0.000000
  8
29
 62
7
  6
CONTINUOUS
  0
SEQEND
  0
POLYLINE
  8
29
 62
7
  6
CONTINUOUS
 70
1
 66
1
  0
VERTEX
 10
22.300000
 20
47.500000
 30
0.000000
  8
29
 62
7
  6
CONTINUOUS
  0
VERTEX
 10
22.300000
 20
49.800000
 30
0.000000
  8
29
 62
7
  6
CONTINUOUS
  0
VERTEX
 10
22.100000
 20
49.800000
 30
0.000000
  8
29
 62
7
  6
CONTINUOUS
  0
VERTEX
 10
22.100000
 20
47.500000
 30
0.000000
  8
29
 62
7
  6
CONTINUOUS
  0
SEQEND
  0
POLYLINE
  8
29
 62
7
  6
CONTINUOUS
 70
1
 66
1
  0
VERTEX
 10
18.400000
 20
42.600000
 30
0.000000
  8
29
 62
7
  6
CONTINUOUS
  0
VERTEX
 10
18.400000
 20
44.900000
 30
0.000000
  8
29
 62
7
  6
CONTINUOUS
  0
VERTEX
 10
18.200000
 20
44.900000
 30
0.000000
  8
29
 62
7
  6
CONTINUOUS
  0
VERTEX
 10
18.200000
 20
42.600000
 30
0.000000
  8
29
 62
7
  6
CONTINUOUS
  0
SEQEND
  0
POLYLINE
  8
29
 62
7
  6
CONTINUOUS
 70
1
 66
1
  0
VERTEX
 10
18.500000
 20
47.500000
 30
0.000000
  8
29
 62
7
  6
CONTINUOUS
  0
VERTEX
 10
18.500000
 20
49.800000
 30
0.000000
  8
29
 62
7
  6
CONTINUOUS
  0
VERTEX
 10
18.300000
 20
49.800000
 30
0.000000
  8
29
 62
7
  6
CONTINUOUS
  0
VERTEX
 10
18.300000
 20
47.500000
 30
0.000000
  8
29
 62
7
  6
CONTINUOUS
  0
SEQEND
  0
LINE
  8
29
 62
7
  6
CONTINUOUS
 10
15.400000
 20
47.600000
 11
14.700000
 21
50.900000
  0
LINE
  8
29
 62
7
  6
CONTINUOUS
 10
14.700000
 20
47.600000
 11
15.400000
 21
50.900000
  0
POLYLINE
  8
29
 62
7
  6
CONTINUOUS
 70
1
 66
1
  0
VERTEX
 10
3.400000
 20
47.600000
 30
0.000000
  8
29
 62
7
  6
CONTINUOUS
  0
VERTEX
 10
3.400000
 20
50.900000
 30
0.000000
  8
29
 62
7
  6
CONTINUOUS
  0
VERTEX
 10
2.700000
 20
50.900000
 30
0.000000
  8
29
 62
7
  6
CONTINUOUS
  0
VERTEX
 10
2.700000
 20
47.600000
 30
0.000000
  8
29
 62
7
  6
CONTINUOUS
  0
SEQEND
  0
LINE
  8
29
 62
7
  6
CONTINUOUS
 10
3.400000
 20
47.600000
 11
2.700000
 21
50.900000
  0
LINE
  8
29
 62
7
  6
CONTINUOUS
 10
2.700000
 20
47.600000
 11
3.400000
 21
50.900000
  0
POLYLINE
  8
29
 62
7
  6
CONTINUOUS
 70
1
 66
1
  0
VERTEX
 10
15.400000
 20
47.600000
 30
0.000000
  8
29
 62
7
  6
CONTINUOUS
  0
VERTEX
 10
15.400000
 20
50.900000
 30
0.000000
  8
29
 62
7
  6
CONTINUOUS
  0
VERTEX
 10
14.700000
 20
50.900000
 30
0.000000
  8
29
 62
7
  6
CONTINUOUS
  0
VERTEX
 10
14.700000
 20
47.600000
 30
0.000000
  8
29
 62
7
  6
CONTINUOUS
  0
SEQEND
  0
LINE
  8
29
 62
7
  6
CONTINUOUS
 10
15.400000
 20
47.600000
 11
14.700000
 21
50.900000
  0
LINE
  8
29
 62
7
  6
CONTINUOUS
 10
14.700000
 20
47.600000
 11
15.400000
 21
50.900000
  0
POLYLINE
  8
29
 62
7
  6
CONTINUOUS
 70
1
 66
1
  0
VERTEX
 10
36.500000
 20
38.900000
 30
0.000000
  8
29
 62
7
  6
CONTINUOUS
  0
VERTEX
 10
36.500000
 20
53.900000
 30
0.000000
  8
29
 62
7
  6
CONTINUOUS
  0
VERTEX
 10
26.500000
 20
53.900000
 30
0.000000
  8
29
 62
7
  6
CONTINUOUS
  0
VERTEX
 10
26.500000
 20
38.900000
 30
0.000000
  8
29
 62
7
  6
CONTINUOUS
  0
SEQEND
  0
SOLID
  8
29
 62
7
  6
CONTINUOUS
 10
36.500000
 20
40.400000
 11
36.500000
 21
42.400000
 12
36.300000
 22
40.400000
 13
36.300000
 23
42.400000
  0
POLYLINE
  8
29
 62
7
  6
CONTINUOUS
 70
1
 66
1
  0
VERTEX
 10
36.500000
 20
40.400000
 30
0.000000
  8
29
 62
7
  6
CONTINUOUS
  0
VERTEX
 10
36.500000
 20
42.400000
 30
0.000000
  8
29
 62
7
  6
CONTINUOUS
  0
VERTEX
 10
36.300000
 20
42.400000
 30
0.000000
  8
29
 62
7
  6
CONTINUOUS
  0
VERTEX
 10
36.300000
 20
40.400000
 30
0.000000
  8
29
 62
7
  6
CONTINUOUS
  0
SEQEND
  0
SOLID
  8
29
 62
7
  6
CONTINUOUS
 10
26.700000
 20
40.400000
 11
26.700000
 21
42.400000
 12
26.500000
 22
40.400000
 13
26.500000
 23
42.400000
  0
POLYLINE
  8
29
 62
7
  6
CONTINUOUS
 70
1
 66
1
  0
VERTEX
 10
26.700000
 20
40.400000
 30
0.000000
  8
29
 62
7
  6
CONTINUOUS
  0
VERTEX
 10
26.700000
 20
42.400000
 30
0.000000
  8
29
 62
7
  6
CONTINUOUS
  0
VERTEX
 10
26.500000
 20
42.400000
 30
0.000000
  8
29
 62
7
  6
CONTINUOUS
  0
VERTEX
 10
26.500000
 20
40.400000
 30
0.000000
  8
29
 62
7
  6
CONTINUOUS
  0
SEQEND
  0
SOLID
  8
29
 62
7
  6
CONTINUOUS
 10
36.500000
 20
50.400000
 11
36.500000
 21
52.400000
 12
36.300000
 22
50.400000
 13
36.300000
 23
52.400000
  0
POLYLINE
  8
29
 62
7
  6
CONTINUOUS
 70
1
 66
1
  0
VERTEX
 10
36.500000
 20
50.400000
 30
0.000000
  8
29
 62
7
  6
CONTINUOUS
  0
VERTEX
 10
36.500000
 20
52.400000
 30
0.000000
  8
29
 62
7
  6
CONTINUOUS
  0
VERTEX
 10
36.300000
 20
52.400000
 30
0.000000
  8
29
 62
7
  6
CONTINUOUS
  0
VERTEX
 10
36.300000
 20
50.400000
 30
0.000000
  8
29
 62
7
  6
CONTINUOUS
  0
SEQEND
  0
SOLID
  8
29
 62
7
  6
CONTINUOUS
 10
26.700000
 20
50.400000
 11
26.700000
 21
52.400000
 12
26.500000
 22
50.400000
 13
26.500000
 23
52.400000
  0
POLYLINE
  8
29
 62
7
  6
CONTINUOUS
 70
1
 66
1
  0
VERTEX
 10
26.700000
 20
50.400000
 30
0.000000
  8
29
 62
7
  6
CONTINUOUS
  0
VERTEX
 10
26.700000
 20
52.400000
 30
0.000000
  8
29
 62
7
  6
CONTINUOUS
  0
VERTEX
 10
26.500000
 20
52.400000
 30
0.000000
  8
29
 62
7
  6
CONTINUOUS
  0
VERTEX
 10
26.500000
 20
50.400000
 30
0.000000
  8
29
 62
7
  6
CONTINUOUS
  0
SEQEND
  0
POLYLINE
  8
29
 62
7
  6
CONTINUOUS
 70
1
 66
1
  0
VERTEX
 10
28.400000
 20
47.600000
 30
0.000000
  8
29
 62
7
  6
CONTINUOUS
  0
VERTEX
 10
28.400000
 20
50.900000
 30
0.000000
  8
29
 62
7
  6
CONTINUOUS
  0
VERTEX
 10
27.700000
 20
50.900000
 30
0.000000
  8
29
 62
7
  6
CONTINUOUS
  0
VERTEX
 10
27.700000
 20
47.600000
 30
0.000000
  8
29
 62
7
  6
CONTINUOUS
  0
SEQEND
  0
POLYLINE
  8
29
 62
7
  6
CONTINUOUS
 70
1
 66
1
  0
VERTEX
 10
33.400000
 20
40.300000
 30
0.000000
  8
29
 62
7
  6
CONTINUOUS
  0
VERTEX
 10
33.400000
 20
42.600000
 30
0.000000
  8
29
 62
7
  6
CONTINUOUS
  0
VERTEX
 10
33.200000
 20
42.600000
 30
0.000000
  8
29
 62
7
  6
CONTINUOUS
  0
VERTEX
 10
33.200000
 20
40.300000
 30
0.000000
  8
29
 62
7
  6
CONTINUOUS
  0
SEQEND
  0
POLYLINE
  8
29
 62
7
  6
CONTINUOUS
 70
1
 66
1
  0
VERTEX
 10
33.500000
 20
45.200000
 30
0.000000
  8
29
 62
7
  6
CONTINUOUS
  0
VERTEX
 10
33.500000
 20
47.500000
 30
0.000000
  8
29
 62
7
  6
CONTINUOUS
  0
VERTEX
 10
33.300000
 20
47.500000
 30
0.000000
  8
29
 62
7
  6
CONTINUOUS
  0
VERTEX
 10
33.300000
 20
45.200000
 30
0.000000
  8
29
 62
7
  6
CONTINUOUS
  0
SEQEND
  0
POLYLINE
  8
29
 62
7
  6
CONTINUOUS
 70
1
 66
1
  0
VERTEX
 10
29.500000
 20
45.200000
 30
0.000000
  8
29
 62
7
  6
CONTINUOUS
  0
VERTEX
 10
29.500000
 20
47.500000
 30
0.000000
  8
29
 62
7
  6
CONTINUOUS
  0
VERTEX
 10
29.300000
 20
47.500000
 30
0.000000
  8
29
 62
7
  6
CONTINUOUS
  0
VERTEX
 10
29.300000
 20
45.200000
 30
0.000000
  8
29
 62
7
  6
CONTINUOUS
  0
SEQEND
  0
POLYLINE
  8
29
 62
7
  6
CONTINUOUS
 70
1
 66
1
  0
VERTEX
 10
29.400000
 20
40.300000
 30
0.000000
  8
29
 62
7
  6
CONTINUOUS
  0
VERTEX
 10
29.400000
 20
42.600000
 30
0.000000
  8
29
 62
7
  6
CONTINUOUS
  0
VERTEX
 10
29.200000
 20
42.600000
 30
0.000000
  8
29
 62
7
  6
CONTINUOUS
  0
VERTEX
 10
29.200000
 20
40.300000
 30
0.000000
  8
29
 62
7
  6
CONTINUOUS
  0
SEQEND
  0
POLYLINE
  8
29
 62
7
  6
CONTINUOUS
 70
1
 66
1
  0
VERTEX
 10
35.300000
 20
47.500000
 30
0.000000
  8
29
 62
7
  6
CONTINUOUS
  0
VERTEX
 10
35.300000
 20
49.800000
 30
0.000000
  8
29
 62
7
  6
CONTINUOUS
  0
VERTEX
 10
35.100000
 20
49.800000
 30
0.000000
  8
29
 62
7
  6
CONTINUOUS
  0
VERTEX
 10
35.100000
 20
47.500000
 30
0.000000
  8
29
 62
7
  6
CONTINUOUS
  0
SEQEND
  0
POLYLINE
  8
29
 62
7
  6
CONTINUOUS
 70
1
 66
1
  0
VERTEX
 10
31.400000
 20
42.600000
 30
0.000000
  8
29
 62
7
  6
CONTINUOUS
  0
VERTEX
 10
31.400000
 20
44.900000
 30
0.000000
  8
29
 62
7
  6
CONTINUOUS
  0
VERTEX
 10
31.200000
 20
44.900000
 30
0.000000
  8
29
 62
7
  6
CONTINUOUS
  0
VERTEX
 10
31.200000
 20
42.600000
 30
0.000000
  8
29
 62
7
  6
CONTINUOUS
  0
SEQEND
  0
POLYLINE
  8
29
 62
7
  6
CONTINUOUS
 70
1
 66
1
  0
VERTEX
 10
31.500000
 20
47.500000
 30
0.000000
  8
29
 62
7
  6
CONTINUOUS
  0
VERTEX
 10
31.500000
 20
49.800000
 30
0.000000
  8
29
 62
7
  6
CONTINUOUS
  0
VERTEX
 10
31.300000
 20
49.800000
 30
0.000000
  8
29
 62
7
  6
CONTINUOUS
  0
VERTEX
 10
31.300000
 20
47.500000
 30
0.000000
  8
29
 62
7
  6
CONTINUOUS
  0
SEQEND
  0
LINE
  8
29
 62
7
  6
CONTINUOUS
 10
28.400000
 20
47.600000
 11
27.700000
 21
50.900000
  0
LINE
  8
29
 62
7
  6
CONTINUOUS
 10
27.700000
 20
47.600000
 11
28.400000
 21
50.900000
  0
POLYLINE
  8
29
 62
7
  6
CONTINUOUS
 70
1
 66
1
  0
VERTEX
 10
48.500000
 20
38.900000
 30
0.000000
  8
29
 62
7
  6
CONTINUOUS
  0
VERTEX
 10
48.500000
 20
53.900000
 30
0.000000
  8
29
 62
7
  6
CONTINUOUS
  0
VERTEX
 10
38.500000
 20
53.900000
 30
0.000000
  8
29
 62
7
  6
CONTINUOUS
  0
VERTEX
 10
38.500000
 20
38.900000
 30
0.000000
  8
29
 62
7
  6
CONTINUOUS
  0
SEQEND
  0
SOLID
  8
29
 62
7
  6
CONTINUOUS
 10
48.500000
 20
40.400000
 11
48.500000
 21
42.400000
 12
48.300000
 22
40.400000
 13
48.300000
 23
42.400000
  0
POLYLINE
  8
29
 62
7
  6
CONTINUOUS
 70
1
 66
1
  0
VERTEX
 10
48.500000
 20
40.400000
 30
0.000000
  8
29
 62
7
  6
CONTINUOUS
  0
VERTEX
 10
48.500000
 20
42.400000
 30
0.000000
  8
29
 62
7
  6
CONTINUOUS
  0
VERTEX
 10
48.300000
 20
42.400000
 30
0.000000
  8
29
 62
7
  6
CONTINUOUS
  0
VERTEX
 10
48.300000
 20
40.400000
 30
0.000000
  8
29
 62
7
  6
CONTINUOUS
  0
SEQEND
  0
SOLID
  8
29
 62
7
  6
CONTINUOUS
 10
38.700000
 20
40.400000
 11
38.700000
 21
42.400000
 12
38.500000
 22
40.400000
 13
38.500000
 23
42.400000
  0
POLYLINE
  8
29
 62
7
  6
CONTINUOUS
 70
1
 66
1
  0
VERTEX
 10
38.700000
 20
40.400000
 30
0.000000
  8
29
 62
7
  6
CONTINUOUS
  0
VERTEX
 10
38.700000
 20
42.400000
 30
0.000000
  8
29
 62
7
  6
CONTINUOUS
  0
VERTEX
 10
38.500000
 20
42.400000
 30
0.000000
  8
29
 62
7
  6
CONTINUOUS
  0
VERTEX
 10
38.500000
 20
40.400000
 30
0.000000
  8
29
 62
7
  6
CONTINUOUS
  0
SEQEND
  0
SOLID
  8
29
 62
7
  6
CONTINUOUS
 10
48.500000
 20
50.400000
 11
48.500000
 21
52.400000
 12
48.300000
 22
50.400000
 13
48.300000
 23
52.400000
  0
POLYLINE
  8
29
 62
7
  6
CONTINUOUS
 70
1
 66
1
  0
VERTEX
 10
48.500000
 20
50.400000
 30
0.000000
  8
29
 62
7
  6
CONTINUOUS
  0
VERTEX
 10
48.500000
 20
52.400000
 30
0.000000
  8
29
 62
7
  6
CONTINUOUS
  0
VERTEX
 10
48.300000
 20
52.400000
 30
0.000000
  8
29
 62
7
  6
CONTINUOUS
  0
VERTEX
 10
48.300000
 20
50.400000
 30
0.000000
  8
29
 62
7
  6
CONTINUOUS
  0
SEQEND
  0
SOLID
  8
29
 62
7
  6
CONTINUOUS
 10
38.700000
 20
50.400000
 11
38.700000
 21
52.400000
 12
38.500000
 22
50.400000
 13
38.500000
 23
52.400000
  0
POLYLINE
  8
29
 62
7
  6
CONTINUOUS
 70
1
 66
1
  0
VERTEX
 10
38.700000
 20
50.400000
 30
0.000000
  8
29
 62
7
  6
CONTINUOUS
  0
VERTEX
 10
38.700000
 20
52.400000
 30
0.000000
  8
29
 62
7
  6
CONTINUOUS
  0
VERTEX
 10
38.500000
 20
52.400000
 30
0.000000
  8
29
 62
7
  6
CONTINUOUS
  0
VERTEX
 10
38.500000
 20
50.400000
 30
0.000000
  8
29
 62
7
  6
CONTINUOUS
  0
SEQEND
  0
POLYLINE
  8
29
 62
7
  6
CONTINUOUS
 70
1
 66
1
  0
VERTEX
 10
40.400000
 20
47.600000
 30
0.000000
  8
29
 62
7
  6
CONTINUOUS
  0
VERTEX
 10
40.400000
 20
50.900000
 30
0.000000
  8
29
 62
7
  6
CONTINUOUS
  0
VERTEX
 10
39.700000
 20
50.900000
 30
0.000000
  8
29
 62
7
  6
CONTINUOUS
  0
VERTEX
 10
39.700000
 20
47.600000
 30
0.000000
  8
29
 62
7
  6
CONTINUOUS
  0
SEQEND
  0
POLYLINE
  8
29
 62
7
  6
CONTINUOUS
 70
1
 66
1
  0
VERTEX
 10
45.400000
 20
40.300000
 30
0.000000
  8
29
 62
7
  6
CONTINUOUS
  0
VERTEX
 10
45.400000
 20
42.600000
 30
0.000000
  8
29
 62
7
  6
CONTINUOUS
  0
VERTEX
 10
45.200000
 20
42.600000
 30
0.000000
  8
29
 62
7
  6
CONTINUOUS
  0
VERTEX
 10
45.200000
 20
40.300000
 30
0.000000
  8
29
 62
7
  6
CONTINUOUS
  0
SEQEND
  0
POLYLINE
  8
29
 62
7
  6
CONTINUOUS
 70
1
 66
1
  0
VERTEX
 10
45.500000
 20
45.200000
 30
0.000000
  8
29
 62
7
  6
CONTINUOUS
  0
VERTEX
 10
45.500000
 20
47.500000
 30
0.000000
  8
29
 62
7
  6
CONTINUOUS
  0
VERTEX
 10
45.300000
 20
47.500000
 30
0.000000
  8
29
 62
7
  6
CONTINUOUS
  0
VERTEX
 10
45.300000
 20
45.200000
 30
0.000000
  8
29
 62
7
  6
CONTINUOUS
  0
SEQEND
  0
POLYLINE
  8
29
 62
7
  6
CONTINUOUS
 70
1
 66
1
  0
VERTEX
 10
41.500000
 20
45.200000
 30
0.000000
  8
29
 62
7
  6
CONTINUOUS
  0
VERTEX
 10
41.500000
 20
47.500000
 30
0.000000
  8
29
 62
7
  6
CONTINUOUS
  0
VERTEX
 10
41.300000
 20
47.500000
 30
0.000000
  8
29
 62
7
  6
CONTINUOUS
  0
VERTEX
 10
41.300000
 20
45.200000
 30
0.000000
  8
29
 62
7
  6
CONTINUOUS
  0
SEQEND
  0
POLYLINE
  8
29
 62
7
  6
CONTINUOUS
 70
1
 66
1
  0
VERTEX
 10
41.400000
 20
40.300000
 30
0.000000
  8
29
 62
7
  6
CONTINUOUS
  0
VERTEX
 10
41.400000
 20
42.600000
 30
0.000000
  8
29
 62
7
  6
CONTINUOUS
  0
VERTEX
 10
41.200000
 20
42.600000
 30
0.000000
  8
29
 62
7
  6
CONTINUOUS
  0
VERTEX
 10
41.200000
 20
40.300000
 30
0.000000
  8
29
 62
7
  6
CONTINUOUS
  0
SEQEND
  0
POLYLINE
  8
29
 62
7
  6
CONTINUOUS
 70
1
 66
1
  0
VERTEX
 10
47.300000
 20
47.500000
 30
0.000000
  8
29
 62
7
  6
CONTINUOUS
  0
VERTEX
 10
47.300000
 20
49.800000
 30
0.000000
  8
29
 62
7
  6
CONTINUOUS
  0
VERTEX
 10
47.100000
 20
49.800000
 30
0.000000
  8
29
 62
7
  6
CONTINUOUS
  0
VERTEX
 10
47.100000
 20
47.500000
 30
0.000000
  8
29
 62
7
  6
CONTINUOUS
  0
SEQEND
  0
POLYLINE
  8
29
 62
7
  6
CONTINUOUS
 70
1
 66
1
  0
VERTEX
 10
43.400000
 20
42.600000
 30
0.000000
  8
29
 62
7
  6
CONTINUOUS
  0
VERTEX
 10
43.400000
 20
44.900000
 30
0.000000
  8
29
 62
7
  6
CONTINUOUS
  0
VERTEX
 10
43.200000
 20
44.900000
 30
0.000000
  8
29
 62
7
  6
CONTINUOUS
  0
VERTEX
 10
43.200000
 20
42.600000
 30
0.000000
  8
29
 62
7
  6
CONTINUOUS
  0
SEQEND
  0
POLYLINE
  8
29
 62
7
  6
CONTINUOUS
 70
1
 66
1
  0
VERTEX
 10
43.500000
 20
47.500000
 30
0.000000
  8
29
 62
7
  6
CONTINUOUS
  0
VERTEX
 10
43.500000
 20
49.800000
 30
0.000000
  8
29
 62
7
  6
CONTINUOUS
  0
VERTEX
 10
43.300000
 20
49.800000
 30
0.000000
  8
29
 62
7
  6
CONTINUOUS
  0
VERTEX
 10
43.300000
 20
47.500000
 30
0.000000
  8
29
 62
7
  6
CONTINUOUS
  0
SEQEND
  0
LINE
  8
29
 62
7
  6
CONTINUOUS
 10
40.400000
 20
47.600000
 11
39.700000
 21
50.900000
  0
LINE
  8
29
 62
7
  6
CONTINUOUS
 10
39.700000
 20
47.600000
 11
40.400000
 21
50.900000
  0
POLYLINE
  8
29
 62
7
  6
CONTINUOUS
 70
1
 66
1
  0
VERTEX
 10
28.400000
 20
47.600000
 30
0.000000
  8
29
 62
7
  6
CONTINUOUS
  0
VERTEX
 10
28.400000
 20
50.900000
 30
0.000000
  8
29
 62
7
  6
CONTINUOUS
  0
VERTEX
 10
27.700000
 20
50.900000
 30
0.000000
  8
29
 62
7
  6
CONTINUOUS
  0
VERTEX
 10
27.700000
 20
47.600000
 30
0.000000
  8
29
 62
7
  6
CONTINUOUS
  0
SEQEND
  0
LINE
  8
29
 62
7
  6
CONTINUOUS
 10
28.400000
 20
47.600000
 11
27.700000
 21
50.900000
  0
LINE
  8
29
 62
7
  6
CONTINUOUS
 10
27.700000
 20
47.600000
 11
28.400000
 21
50.900000
  0
POLYLINE
  8
29
 62
7
  6
CONTINUOUS
 70
1
 66
1
  0
VERTEX
 10
40.400000
 20
47.600000
 30
0.000000
  8
29
 62
7
  6
CONTINUOUS
  0
VERTEX
 10
40.400000
 20
50.900000
 30
0.000000
  8
29
 62
7
  6
CONTINUOUS
  0
VERTEX
 10
39.700000
 20
50.900000
 30
0.000000
  8
29
 62
7
  6
CONTINUOUS
  0
VERTEX
 10
39.700000
 20
47.600000
 30
0.000000
  8
29
 62
7
  6
CONTINUOUS
  0
SEQEND
  0
LINE
  8
29
 62
7
  6
CONTINUOUS
 10
40.400000
 20
47.600000
 11
39.700000
 21
50.900000
  0
LINE
  8
29
 62
7
  6
CONTINUOUS
 10
39.700000
 20
47.600000
 11
40.400000
 21
50.900000
  0
POLYLINE
  8
29
 62
7
  6
CONTINUOUS
 70
1
 66
1
  0
VERTEX
 10
61.500000
 20
38.900000
 30
0.000000
  8
29
 62
7
  6
CONTINUOUS
  0
VERTEX
 10
61.500000
 20
53.900000
 30
0.000000
  8
29
 62
7
  6
CONTINUOUS
  0
VERTEX
 10
51.500000
 20
53.900000
 30
0.000000
  8
29
 62
7
  6
CONTINUOUS
  0
VERTEX
 10
51.500000
 20
38.900000
 30
0.000000
  8
29
 62
7
  6
CONTINUOUS
  0
SEQEND
  0
SOLID
  8
29
 62
7
  6
CONTINUOUS
 10
61.500000
 20
40.400000
 11
61.500000
 21
42.400000
 12
61.300000
 22
40.400000
 13
61.300000
 23
42.400000
  0
POLYLINE
  8
29
 62
7
  6
CONTINUOUS
 70
1
 66
1
  0
VERTEX
 10
61.500000
 20
40.400000
 30
0.000000
  8
29
 62
7
  6
CONTINUOUS
  0
VERTEX
 10
61.500000
 20
42.400000
 30
0.000000
  8
29
 62
7
  6
CONTINUOUS
  0
VERTEX
 10
61.300000
 20
42.400000
 30
0.000000
  8
29
 62
7
  6
CONTINUOUS
  0
VERTEX
 10
61.300000
 20
40.400000
 30
0.000000
  8
29
 62
7
  6
CONTINUOUS
  0
SEQEND
  0
SOLID
  8
29
 62
7
  6
CONTINUOUS
 10
51.700000
 20
40.400000
 11
51.700000
 21
42.400000
 12
51.500000
 22
40.400000
 13
51.500000
 23
42.400000
  0
POLYLINE
  8
29
 62
7
  6
CONTINUOUS
 70
1
 66
1
  0
VERTEX
 10
51.700000
 20
40.400000
 30
0.000000
  8
29
 62
7
  6
CONTINUOUS
  0
VERTEX
 10
51.700000
 20
42.400000
 30
0.000000
  8
29
 62
7
  6
CONTINUOUS
  0
VERTEX
 10
51.500000
 20
42.400000
 30
0.000000
  8
29
 62
7
  6
CONTINUOUS
  0
VERTEX
 10
51.500000
 20
40.400000
 30
0.000000
  8
29
 62
7
  6
CONTINUOUS
  0
SEQEND
  0
SOLID
  8
29
 62
7
  6
CONTINUOUS
 10
61.500000
 20
50.400000
 11
61.500000
 21
52.400000
 12
61.300000
 22
50.400000
 13
61.300000
 23
52.400000
  0
POLYLINE
  8
29
 62
7
  6
CONTINUOUS
 70
1
 66
1
  0
VERTEX
 10
61.500000
 20
50.400000
 30
0.000000
  8
29
 62
7
  6
CONTINUOUS
  0
VERTEX
 10
61.500000
 20
52.400000
 30
0.000000
  8
29
 62
7
  6
CONTINUOUS
  0
VERTEX
 10
61.300000
 20
52.400000
 30
0.000000
  8
29
 62
7
  6
CONTINUOUS
  0
VERTEX
 10
61.300000
 20
50.400000
 30
0.000000
  8
29
 62
7
  6
CONTINUOUS
  0
SEQEND
  0
SOLID
  8
29
 62
7
  6
CONTINUOUS
 10
51.700000
 20
50.400000
 11
51.700000
 21
52.400000
 12
51.500000
 22
50.400000
 13
51.500000
 23
52.400000
  0
POLYLINE
  8
29
 62
7
  6
CONTINUOUS
 70
1
 66
1
  0
VERTEX
 10
51.700000
 20
50.400000
 30
0.000000
  8
29
 62
7
  6
CONTINUOUS
  0
VERTEX
 10
51.700000
 20
52.400000
 30
0.000000
  8
29
 62
7
  6
CONTINUOUS
  0
VERTEX
 10
51.500000
 20
52.400000
 30
0.000000
  8
29
 62
7
  6
CONTINUOUS
  0
VERTEX
 10
51.500000
 20
50.400000
 30
0.000000
  8
29
 62
7
  6
CONTINUOUS
  0
SEQEND
  0
POLYLINE
  8
29
 62
7
  6
CONTINUOUS
 70
1
 66
1
  0
VERTEX
 10
53.400000
 20
47.600000
 30
0.000000
  8
29
 62
7
  6
CONTINUOUS
  0
VERTEX
 10
53.400000
 20
50.900000
 30
0.000000
  8
29
 62
7
  6
CONTINUOUS
  0
VERTEX
 10
52.700000
 20
50.900000
 30
0.000000
  8
29
 62
7
  6
CONTINUOUS
  0
VERTEX
 10
52.700000
 20
47.600000
 30
0.000000
  8
29
 62
7
  6
CONTINUOUS
  0
SEQEND
  0
POLYLINE
  8
29
 62
7
  6
CONTINUOUS
 70
1
 66
1
  0
VERTEX
 10
58.400000
 20
40.300000
 30
0.000000
  8
29
 62
7
  6
CONTINUOUS
  0
VERTEX
 10
58.400000
 20
42.600000
 30
0.000000
  8
29
 62
7
  6
CONTINUOUS
  0
VERTEX
 10
58.200000
 20
42.600000
 30
0.000000
  8
29
 62
7
  6
CONTINUOUS
  0
VERTEX
 10
58.200000
 20
40.300000
 30
0.000000
  8
29
 62
7
  6
CONTINUOUS
  0
SEQEND
  0
POLYLINE
  8
29
 62
7
  6
CONTINUOUS
 70
1
 66
1
  0
VERTEX
 10
58.500000
 20
45.200000
 30
0.000000
  8
29
 62
7
  6
CONTINUOUS
  0
VERTEX
 10
58.500000
 20
47.500000
 30
0.000000
  8
29
 62
7
  6
CONTINUOUS
  0
VERTEX
 10
58.300000
 20
47.500000
 30
0.000000
  8
29
 62
7
  6
CONTINUOUS
  0
VERTEX
 10
58.300000
 20
45.200000
 30
0.000000
  8
29
 62
7
  6
CONTINUOUS
  0
SEQEND
  0
POLYLINE
  8
29
 62
7
  6
CONTINUOUS
 70
1
 66
1
  0
VERTEX
 10
54.500000
 20
45.200000
 30
0.000000
  8
29
 62
7
  6
CONTINUOUS
  0
VERTEX
 10
54.500000
 20
47.500000
 30
0.000000
  8
29
 62
7
  6
CONTINUOUS
  0
VERTEX
 10
54.300000
 20
47.500000
 30
0.000000
  8
29
 62
7
  6
CONTINUOUS
  0
VERTEX
 10
54.300000
 20
45.200000
 30
0.000000
  8
29
 62
7
  6
CONTINUOUS
  0
SEQEND
  0
POLYLINE
  8
29
 62
7
  6
CONTINUOUS
 70
1
 66
1
  0
VERTEX
 10
54.400000
 20
40.300000
 30
0.000000
  8
29
 62
7
  6
CONTINUOUS
  0
VERTEX
 10
54.400000
 20
42.600000
 30
0.000000
  8
29
 62
7
  6
CONTINUOUS
  0
VERTEX
 10
54.200000
 20
42.600000
 30
0.000000
  8
29
 62
7
  6
CONTINUOUS
  0
VERTEX
 10
54.200000
 20
40.300000
 30
0.000000
  8
29
 62
7
  6
CONTINUOUS
  0
SEQEND
  0
POLYLINE
  8
29
 62
7
  6
CONTINUOUS
 70
1
 66
1
  0
VERTEX
 10
60.300000
 20
47.500000
 30
0.000000
  8
29
 62
7
  6
CONTINUOUS
  0
VERTEX
 10
60.300000
 20
49.800000
 30
0.000000
  8
29
 62
7
  6
CONTINUOUS
  0
VERTEX
 10
60.100000
 20
49.800000
 30
0.000000
  8
29
 62
7
  6
CONTINUOUS
  0
VERTEX
 10
60.100000
 20
47.500000
 30
0.000000
  8
29
 62
7
  6
CONTINUOUS
  0
SEQEND
  0
POLYLINE
  8
29
 62
7
  6
CONTINUOUS
 70
1
 66
1
  0
VERTEX
 10
56.400000
 20
42.600000
 30
0.000000
  8
29
 62
7
  6
CONTINUOUS
  0
VERTEX
 10
56.400000
 20
44.900000
 30
0.000000
  8
29
 62
7
  6
CONTINUOUS
  0
VERTEX
 10
56.200000
 20
44.900000
 30
0.000000
  8
29
 62
7
  6
CONTINUOUS
  0
VERTEX
 10
56.200000
 20
42.600000
 30
0.000000
  8
29
 62
7
  6
CONTINUOUS
  0
SEQEND
  0
POLYLINE
  8
29
 62
7
  6
CONTINUOUS
 70
1
 66
1
  0
VERTEX
 10
56.500000
 20
47.500000
 30
0.000000
  8
29
 62
7
  6
CONTINUOUS
  0
VERTEX
 10
56.500000
 20
49.800000
 30
0.000000
  8
29
 62
7
  6
CONTINUOUS
  0
VERTEX
 10
56.300000
 20
49.800000
 30
0.000000
  8
29
 62
7
  6
CONTINUOUS
  0
VERTEX
 10
56.300000
 20
47.500000
 30
0.000000
  8
29
 62
7
  6
CONTINUOUS
  0
SEQEND
  0
LINE
  8
29
 62
7
  6
CONTINUOUS
 10
53.400000
 20
47.600000
 11
52.700000
 21
50.900000
  0
LINE
  8
29
 62
7
  6
CONTINUOUS
 10
52.700000
 20
47.600000
 11
53.400000
 21
50.900000
  0
POLYLINE
  8
29
 62
7
  6
CONTINUOUS
 70
1
 66
1
  0
VERTEX
 10
73.500000
 20
38.900000
 30
0.000000
  8
29
 62
7
  6
CONTINUOUS
  0
VERTEX
 10
73.500000
 20
53.900000
 30
0.000000
  8
29
 62
7
  6
CONTINUOUS
  0
VERTEX
 10
63.500000
 20
53.900000
 30
0.000000
  8
29
 62
7
  6
CONTINUOUS
  0
VERTEX
 10
63.500000
 20
38.900000
 30
0.000000
  8
29
 62
7
  6
CONTINUOUS
  0
SEQEND
  0
SOLID
  8
29
 62
7
  6
CONTINUOUS
 10
73.500000
 20
40.400000
 11
73.500000
 21
42.400000
 12
73.300000
 22
40.400000
 13
73.300000
 23
42.400000
  0
POLYLINE
  8
29
 62
7
  6
CONTINUOUS
 70
1
 66
1
  0
VERTEX
 10
73.500000
 20
40.400000
 30
0.000000
  8
29
 62
7
  6
CONTINUOUS
  0
VERTEX
 10
73.500000
 20
42.400000
 30
0.000000
  8
29
 62
7
  6
CONTINUOUS
  0
VERTEX
 10
73.300000
 20
42.400000
 30
0.000000
  8
29
 62
7
  6
CONTINUOUS
  0
VERTEX
 10
73.300000
 20
40.400000
 30
0.000000
  8
29
 62
7
  6
CONTINUOUS
  0
SEQEND
  0
SOLID
  8
29
 62
7
  6
CONTINUOUS
 10
63.700000
 20
40.400000
 11
63.700000
 21
42.400000
 12
63.500000
 22
40.400000
 13
63.500000
 23
42.400000
  0
POLYLINE
  8
29
 62
7
  6
CONTINUOUS
 70
1
 66
1
  0
VERTEX
 10
63.700000
 20
40.400000
 30
0.000000
  8
29
 62
7
  6
CONTINUOUS
  0
VERTEX
 10
63.700000
 20
42.400000
 30
0.000000
  8
29
 62
7
  6
CONTINUOUS
  0
VERTEX
 10
63.500000
 20
42.400000
 30
0.000000
  8
29
 62
7
  6
CONTINUOUS
  0
VERTEX
 10
63.500000
 20
40.400000
 30
0.000000
  8
29
 62
7
  6
CONTINUOUS
  0
SEQEND
  0
SOLID
  8
29
 62
7
  6
CONTINUOUS
 10
73.500000
 20
50.400000
 11
73.500000
 21
52.400000
 12
73.300000
 22
50.400000
 13
73.300000
 23
52.400000
  0
POLYLINE
  8
29
 62
7
  6
CONTINUOUS
 70
1
 66
1
  0
VERTEX
 10
73.500000
 20
50.400000
 30
0.000000
  8
29
 62
7
  6
CONTINUOUS
  0
VERTEX
 10
73.500000
 20
52.400000
 30
0.000000
  8
29
 62
7
  6
CONTINUOUS
  0
VERTEX
 10
73.300000
 20
52.400000
 30
0.000000
  8
29
 62
7
  6
CONTINUOUS
  0
VERTEX
 10
73.300000
 20
50.400000
 30
0.000000
  8
29
 62
7
  6
CONTINUOUS
  0
SEQEND
  0
SOLID
  8
29
 62
7
  6
CONTINUOUS
 10
63.700000
 20
50.400000
 11
63.700000
 21
52.400000
 12
63.500000
 22
50.400000
 13
63.500000
 23
52.400000
  0
POLYLINE
  8
29
 62
7
  6
CONTINUOUS
 70
1
 66
1
  0
VERTEX
 10
63.700000
 20
50.400000
 30
0.000000
  8
29
 62
7
  6
CONTINUOUS
  0
VERTEX
 10
63.700000
 20
52.400000
 30
0.000000
  8
29
 62
7
  6
CONTINUOUS
  0
VERTEX
 10
63.500000
 20
52.400000
 30
0.000000
  8
29
 62
7
  6
CONTINUOUS
  0
VERTEX
 10
63.500000
 20
50.400000
 30
0.000000
  8
29
 62
7
  6
CONTINUOUS
  0
SEQEND
  0
POLYLINE
  8
29
 62
7
  6
CONTINUOUS
 70
1
 66
1
  0
VERTEX
 10
65.400000
 20
47.600000
 30
0.000000
  8
29
 62
7
  6
CONTINUOUS
  0
VERTEX
 10
65.400000
 20
50.900000
 30
0.000000
  8
29
 62
7
  6
CONTINUOUS
  0
VERTEX
 10
64.700000
 20
50.900000
 30
0.000000
  8
29
 62
7
  6
CONTINUOUS
  0
VERTEX
 10
64.700000
 20
47.600000
 30
0.000000
  8
29
 62
7
  6
CONTINUOUS
  0
SEQEND
  0
POLYLINE
  8
29
 62
7
  6
CONTINUOUS
 70
1
 66
1
  0
VERTEX
 10
70.400000
 20
40.300000
 30
0.000000
  8
29
 62
7
  6
CONTINUOUS
  0
VERTEX
 10
70.400000
 20
42.600000
 30
0.000000
  8
29
 62
7
  6
CONTINUOUS
  0
VERTEX
 10
70.200000
 20
42.600000
 30
0.000000
  8
29
 62
7
  6
CONTINUOUS
  0
VERTEX
 10
70.200000
 20
40.300000
 30
0.000000
  8
29
 62
7
  6
CONTINUOUS
  0
SEQEND
  0
POLYLINE
  8
29
 62
7
  6
CONTINUOUS
 70
1
 66
1
  0
VERTEX
 10
70.500000
 20
45.200000
 30
0.000000
  8
29
 62
7
  6
CONTINUOUS
  0
VERTEX
 10
70.500000
 20
47.500000
 30
0.000000
  8
29
 62
7
  6
CONTINUOUS
  0
VERTEX
 10
70.300000
 20
47.500000
 30
0.000000
  8
29
 62
7
  6
CONTINUOUS
  0
VERTEX
 10
70.300000
 20
45.200000
 30
0.000000
  8
29
 62
7
  6
CONTINUOUS
  0
SEQEND
  0
POLYLINE
  8
29
 62
7
  6
CONTINUOUS
 70
1
 66
1
  0
VERTEX
 10
66.500000
 20
45.200000
 30
0.000000
  8
29
 62
7
  6
CONTINUOUS
  0
VERTEX
 10
66.500000
 20
47.500000
 30
0.000000
  8
29
 62
7
  6
CONTINUOUS
  0
VERTEX
 10
66.300000
 20
47.500000
 30
0.000000
  8
29
 62
7
  6
CONTINUOUS
  0
VERTEX
 10
66.300000
 20
45.200000
 30
0.000000
  8
29
 62
7
  6
CONTINUOUS
  0
SEQEND
  0
POLYLINE
  8
29
 62
7
  6
CONTINUOUS
 70
1
 66
1
  0
VERTEX
 10
66.400000
 20
40.300000
 30
0.000000
  8
29
 62
7
  6
CONTINUOUS
  0
VERTEX
 10
66.400000
 20
42.600000
 30
0.000000
  8
29
 62
7
  6
CONTINUOUS
  0
VERTEX
 10
66.200000
 20
42.600000
 30
0.000000
  8
29
 62
7
  6
CONTINUOUS
  0
VERTEX
 10
66.200000
 20
40.300000
 30
0.000000
  8
29
 62
7
  6
CONTINUOUS
  0
SEQEND
  0
POLYLINE
  8
29
 62
7
  6
CONTINUOUS
 70
1
 66
1
  0
VERTEX
 10
72.300000
 20
47.500000
 30
0.000000
  8
29
 62
7
  6
CONTINUOUS
  0
VERTEX
 10
72.300000
 20
49.800000
 30
0.000000
  8
29
 62
7
  6
CONTINUOUS
  0
VERTEX
 10
72.100000
 20
49.800000
 30
0.000000
  8
29
 62
7
  6
CONTINUOUS
  0
VERTEX
 10
72.100000
 20
47.500000
 30
0.000000
  8
29
 62
7
  6
CONTINUOUS
  0
SEQEND
  0
POLYLINE
  8
29
 62
7
  6
CONTINUOUS
 70
1
 66
1
  0
VERTEX
 10
68.400000
 20
42.600000
 30
0.000000
  8
29
 62
7
  6
CONTINUOUS
  0
VERTEX
 10
68.400000
 20
44.900000
 30
0.000000
  8
29
 62
7
  6
CONTINUOUS
  0
VERTEX
 10
68.200000
 20
44.900000
 30
0.000000
  8
29
 62
7
  6
CONTINUOUS
  0
VERTEX
 10
68.200000
 20
42.600000
 30
0.000000
  8
29
 62
7
  6
CONTINUOUS
  0
SEQEND
  0
POLYLINE
  8
29
 62
7
  6
CONTINUOUS
 70
1
 66
1
  0
VERTEX
 10
68.500000
 20
47.500000
 30
0.000000
  8
29
 62
7
  6
CONTINUOUS
  0
VERTEX
 10
68.500000
 20
49.800000
 30
0.000000
  8
29
 62
7
  6
CONTINUOUS
  0
VERTEX
 10
68.300000
 20
49.800000
 30
0.000000
  8
29
 62
7
  6
CONTINUOUS
  0
VERTEX
 10
68.300000
 20
47.500000
 30
0.000000
  8
29
 62
7
  6
CONTINUOUS
  0
SEQEND
  0
LINE
  8
29
 62
7
  6
CONTINUOUS
 10
65.400000
 20
47.600000
 11
64.700000
 21
50.900000
  0
LINE
  8
29
 62
7
  6
CONTINUOUS
 10
64.700000
 20
47.600000
 11
65.400000
 21
50.900000
  0
POLYLINE
  8
29
 62
7
  6
CONTINUOUS
 70
1
 66
1
  0
VERTEX
 10
53.400000
 20
47.600000
 30
0.000000
  8
29
 62
7
  6
CONTINUOUS
  0
VERTEX
 10
53.400000
 20
50.900000
 30
0.000000
  8
29
 62
7
  6
CONTINUOUS
  0
VERTEX
 10
52.700000
 20
50.900000
 30
0.000000
  8
29
 62
7
  6
CONTINUOUS
  0
VERTEX
 10
52.700000
 20
47.600000
 30
0.000000
  8
29
 62
7
  6
CONTINUOUS
  0
SEQEND
  0
LINE
  8
29
 62
7
  6
CONTINUOUS
 10
53.400000
 20
47.600000
 11
52.700000
 21
50.900000
  0
LINE
  8
29
 62
7
  6
CONTINUOUS
 10
52.700000
 20
47.600000
 11
53.400000
 21
50.900000
  0
POLYLINE
  8
29
 62
7
  6
CONTINUOUS
 70
1
 66
1
  0
VERTEX
 10
65.400000
 20
47.600000
 30
0.000000
  8
29
 62
7
  6
CONTINUOUS
  0
VERTEX
 10
65.400000
 20
50.900000
 30
0.000000
  8
29
 62
7
  6
CONTINUOUS
  0
VERTEX
 10
64.700000
 20
50.900000
 30
0.000000
  8
29
 62
7
  6
CONTINUOUS
  0
VERTEX
 10
64.700000
 20
47.600000
 30
0.000000
  8
29
 62
7
  6
CONTINUOUS
  0
SEQEND
  0
LINE
  8
29
 62
7
  6
CONTINUOUS
 10
65.400000
 20
47.600000
 11
64.700000
 21
50.900000
  0
LINE
  8
29
 62
7
  6
CONTINUOUS
 10
64.700000
 20
47.600000
 11
65.400000
 21
50.900000
  0
SOLID
  8
56
 62
255
  6
CONTINUOUS
 10
74.100000
 20
7.700000
 11
74.100000
 21
8.900000
 12
0.900000
 22
7.700000
 13
0.900000
 23
8.900000
  0
POLYLINE
  8
56
 62
7
  6
CONTINUOUS
 70
1
 66
1
  0
VERTEX
 10
74.100000
 20
7.700000
 30
0.000000
  8
56
 62
7
  6
CONTINUOUS
  0
VERTEX
 10
74.100000
 20
8.900000
 30
0.000000
  8
56
 62
7
  6
CONTINUOUS
  0
VERTEX
 10
0.900000
 20
8.900000
 30
0.000000
  8
56
 62
7
  6
CONTINUOUS
  0
VERTEX
 10
0.900000
 20
7.700000
 30
0.000000
  8
56
 62
7
  6
CONTINUOUS
  0
SEQEND
  0
SOLID
  8
56
 62
255
  6
CONTINUOUS
 10
74.100000
 20
23.700000
 11
74.100000
 21
24.900000
 12
0.900000
 22
23.700000
 13
0.900000
 23
24.900000
  0
POLYLINE
  8
56
 62
7
  6
CONTINUOUS
 70
1
 66
1
  0
VERTEX
 10
74.100000
 20
23.700000
 30
0.000000
  8
56
 62
7
  6
CONTINUOUS
  0
VERTEX
 10
74.100000
 20
24.900000
 30
0.000000
  8
56
 62
7
  6
CONTINUOUS
  0
VERTEX
 10
0.900000
 20
24.900000
 30
0.000000
  8
56
 62
7
  6
CONTINUOUS
  0
VERTEX
 10
0.900000
 20
23.700000
 30
0.000000
  8
56
 62
7
  6
CONTINUOUS
  0
SEQEND
  0
SOLID
  8
56
 62
255
  6
CONTINUOUS
 10
74.100000
 20
19.700000
 11
74.100000
 21
20.900000
 12
0.900000
 22
19.700000
 13
0.900000
 23
20.900000
  0
POLYLINE
  8
56
 62
7
  6
CONTINUOUS
 70
1
 66
1
  0
VERTEX
 10
74.100000
 20
19.700000
 30
0.000000
  8
56
 62
7
  6
CONTINUOUS
  0
VERTEX
 10
74.100000
 20
20.900000
 30
0.000000
  8
56
 62
7
  6
CONTINUOUS
  0
VERTEX
 10
0.900000
 20
20.900000
 30
0.000000
  8
56
 62
7
  6
CONTINUOUS
  0
VERTEX
 10
0.900000
 20
19.700000
 30
0.000000
  8
56
 62
7
  6
CONTINUOUS
  0
SEQEND
  0
SOLID
  8
56
 62
255
  6
CONTINUOUS
 10
74.100000
 20
15.700000
 11
74.100000
 21
16.900000
 12
0.900000
 22
15.700000
 13
0.900000
 23
16.900000
  0
POLYLINE
  8
56
 62
7
  6
CONTINUOUS
 70
1
 66
1
  0
VERTEX
 10
74.100000
 20
15.700000
 30
0.000000
  8
56
 62
7
  6
CONTINUOUS
  0
VERTEX
 10
74.100000
 20
16.900000
 30
0.000000
  8
56
 62
7
  6
CONTINUOUS
  0
VERTEX
 10
0.900000
 20
16.900000
 30
0.000000
  8
56
 62
7
  6
CONTINUOUS
  0
VERTEX
 10
0.900000
 20
15.700000
 30
0.000000
  8
56
 62
7
  6
CONTINUOUS
  0
SEQEND
  0
SOLID
  8
56
 62
255
  6
CONTINUOUS
 10
74.100000
 20
11.700000
 11
74.100000
 21
12.900000
 12
0.900000
 22
11.700000
 13
0.900000
 23
12.900000
  0
POLYLINE
  8
56
 62
7
  6
CONTINUOUS
 70
1
 66
1
  0
VERTEX
 10
74.100000
 20
11.700000
 30
0.000000
  8
56
 62
7
  6
CONTINUOUS
  0
VERTEX
 10
74.100000
 20
12.900000
 30
0.000000
  8
56
 62
7
  6
CONTINUOUS
  0
VERTEX
 10
0.900000
 20
12.900000
 30
0.000000
  8
56
 62
7
  6
CONTINUOUS
  0
VERTEX
 10
0.900000
 20
11.700000
 30
0.000000
  8
56
 62
7
  6
CONTINUOUS
  0
SEQEND
  0
SOLID
  8
58
 62
30
  6
CONTINUOUS
 10
74.100000
 20
7.700000
 11
74.100000
 21
8.900000
 12
0.900000
 22
7.700000
 13
0.900000
 23
8.900000
  0
POLYLINE
  8
58
 62
7
  6
CONTINUOUS
 70
1
 66
1
  0
VERTEX
 10
74.100000
 20
7.700000
 30
0.000000
  8
58
 62
7
  6
CONTINUOUS
  0
VERTEX
 10
74.100000
 20
8.900000
 30
0.000000
  8
58
 62
7
  6
CONTINUOUS
  0
VERTEX
 10
0.900000
 20
8.900000
 30
0.000000
  8
58
 62
7
  6
CONTINUOUS
  0
VERTEX
 10
0.900000
 20
7.700000
 30
0.000000
  8
58
 62
7
  6
CONTINUOUS
  0
SEQEND
  0
SOLID
  8
58
 62
30
  6
CONTINUOUS
 10
74.100000
 20
23.700000
 11
74.100000
 21
24.900000
 12
0.900000
 22
23.700000
 13
0.900000
 23
24.900000
  0
POLYLINE
  8
58
 62
7
  6
CONTINUOUS
 70
1
 66
1
  0
VERTEX
 10
74.100000
 20
23.700000
 30
0.000000
  8
58
 62
7
  6
CONTINUOUS
  0
VERTEX
 10
74.100000
 20
24.900000
 30
0.000000
  8
58
 62
7
  6
CONTINUOUS
  0
VERTEX
 10
0.900000
 20
24.900000
 30
0.000000
  8
58
 62
7
  6
CONTINUOUS
  0
VERTEX
 10
0.900000
 20
23.700000
 30
0.000000
  8
58
 62
7
  6
CONTINUOUS
  0
SEQEND
  0
SOLID
  8
58
 62
30
  6
CONTINUOUS
 10
74.100000
 20
19.700000
 11
74.100000
 21
20.900000
 12
0.900000
 22
19.700000
 13
0.900000
 23
20.900000
  0
POLYLINE
  8
58
 62
7
  6
CONTINUOUS
 70
1
 66
1
  0
VERTEX
 10
74.100000
 20
19.700000
 30
0.000000
  8
58
 62
7
  6
CONTINUOUS
  0
VERTEX
 10
74.100000
 20
20.900000
 30
0.000000
  8
58
 62
7
  6
CONTINUOUS
  0
VERTEX
 10
0.900000
 20
20.900000
 30
0.000000
  8
58
 62
7
  6
CONTINUOUS
  0
VERTEX
 10
0.900000
 20
19.700000
 30
0.000000
  8
58
 62
7
  6
CONTINUOUS
  0
SEQEND
  0
SOLID
  8
58
 62
30
  6
CONTINUOUS
 10
74.100000
 20
15.700000
 11
74.100000
 21
16.900000
 12
0.900000
 22
15.700000
 13
0.900000
 23
16.900000
  0
POLYLINE
  8
58
 62
7
  6
CONTINUOUS
 70
1
 66
1
  0
VERTEX
 10
74.100000
 20
15.700000
 30
0.000000
  8
58
 62
7
  6
CONTINUOUS
  0
VERTEX
 10
74.100000
 20
16.900000
 30
0.000000
  8
58
 62
7
  6
CONTINUOUS
  0
VERTEX
 10
0.900000
 20
16.900000
 30
0.000000
  8
58
 62
7
  6
CONTINUOUS
  0
VERTEX
 10
0.900000
 20
15.700000
 30
0.000000
  8
58
 62
7
  6
CONTINUOUS
  0
SEQEND
  0
SOLID
  8
58
 62
30
  6
CONTINUOUS
 10
74.100000
 20
11.700000
 11
74.100000
 21
12.900000
 12
0.900000
 22
11.700000
 13
0.900000
 23
12.900000
  0
POLYLINE
  8
58
 62
7
  6
CONTINUOUS
 70
1
 66
1
  0
VERTEX
 10
74.100000
 20
11.700000
 30
0.000000
  8
58
 62
7
  6
CONTINUOUS
  0
VERTEX
 10
74.100000
 20
12.900000
 30
0.000000
  8
58
 62
7
  6
CONTINUOUS
  0
VERTEX
 10
0.900000
 20
12.900000
 30
0.000000
  8
58
 62
7
  6
CONTINUOUS
  0
VERTEX
 10
0.900000
 20
11.700000
 30
0.000000
  8
58
 62
7
  6
CONTINUOUS
  0
SEQEND
  0
SOLID
  8
59
 62
7
  6
CONTINUOUS
 10
74.100000
 20
16.000000
 11
74.100000
 21
16.600000
 12
0.900000
 22
16.000000
 13
0.900000
 23
16.600000
  0
POLYLINE
  8
59
 62
7
  6
CONTINUOUS
 70
1
 66
1
  0
VERTEX
 10
74.100000
 20
16.000000
 30
0.000000
  8
59
 62
7
  6
CONTINUOUS
  0
VERTEX
 10
74.100000
 20
16.600000
 30
0.000000
  8
59
 62
7
  6
CONTINUOUS
  0
VERTEX
 10
0.900000
 20
16.600000
 30
0.000000
  8
59
 62
7
  6
CONTINUOUS
  0
VERTEX
 10
0.900000
 20
16.000000
 30
0.000000
  8
59
 62
7
  6
CONTINUOUS
  0
SEQEND
  0
LINE
  8
59
 62
7
  6
CONTINUOUS
 10
38.000000
 20
18.300000
 11
37.000000
 21
14.300000
  0
LINE
  8
59
 62
7
  6
CONTINUOUS
 10
36.000000
 20
18.300000
 11
35.000000
 21
14.300000
  0
LINE
  8
59
 62
7
  6
CONTINUOUS
 10
37.000000
 20
18.300000
 11
36.000000
 21
14.300000
  0
LINE
  8
59
 62
7
  6
CONTINUOUS
 10
40.000000
 20
18.300000
 11
39.000000
 21
14.300000
  0
LINE
  8
59
 62
7
  6
CONTINUOUS
 10
39.000000
 20
18.300000
 11
38.000000
 21
14.300000
  0
SOLID
  8
59
 62
7
  6
CONTINUOUS
 10
0.900000
 20
15.000000
 11
0.900000
 21
17.600000
 12
1.300000
 22
15.000000
 13
1.300000
 23
17.600000
  0
POLYLINE
  8
59
 62
7
  6
CONTINUOUS
 70
1
 66
1
  0
VERTEX
 10
0.900000
 20
15.000000
 30
0.000000
  8
59
 62
7
  6
CONTINUOUS
  0
VERTEX
 10
0.900000
 20
17.600000
 30
0.000000
  8
59
 62
7
  6
CONTINUOUS
  0
VERTEX
 10
1.300000
 20
17.600000
 30
0.000000
  8
59
 62
7
  6
CONTINUOUS
  0
VERTEX
 10
1.300000
 20
15.000000
 30
0.000000
  8
59
 62
7
  6
CONTINUOUS
  0
SEQEND
  0
SOLID
  8
59
 62
7
  6
CONTINUOUS
 10
73.700000
 20
15.000000
 11
73.700000
 21
17.600000
 12
74.100000
 22
15.000000
 13
74.100000
 23
17.600000
  0
POLYLINE
  8
59
 62
7
  6
CONTINUOUS
 70
1
 66
1
  0
VERTEX
 10
73.700000
 20
15.000000
 30
0.000000
  8
59
 62
7
  6
CONTINUOUS
  0
VERTEX
 10
73.700000
 20
17.600000
 30
0.000000
  8
59
 62
7
  6
CONTINUOUS
  0
VERTEX
 10
74.100000
 20
17.600000
 30
0.000000
  8
59
 62
7
  6
CONTINUOUS
  0
VERTEX
 10
74.100000
 20
15.000000
 30
0.000000
  8
59
 62
7
  6
CONTINUOUS
  0
SEQEND
  0
SOLID
  8
60
 62
7
  6
CONTINUOUS
 10
74.100000
 20
7.700000
 11
74.100000
 21
8.900000
 12
0.900000
 22
7.700000
 13
0.900000
 23
8.900000
  0
POLYLINE
  8
60
 62
7
  6
CONTINUOUS
 70
1
 66
1
  0
VERTEX
 10
74.100000
 20
7.700000
 30
0.000000
  8
60
 62
7
  6
CONTINUOUS
  0
VERTEX
 10
74.100000
 20
8.900000
 30
0.000000
  8
60
 62
7
  6
CONTINUOUS
  0
VERTEX
 10
0.900000
 20
8.900000
 30
0.000000
  8
60
 62
7
  6
CONTINUOUS
  0
VERTEX
 10
0.900000
 20
7.700000
 30
0.000000
  8
60
 62
7
  6
CONTINUOUS
  0
SEQEND
  0
SOLID
  8
60
 62
7
  6
CONTINUOUS
 10
74.100000
 20
23.700000
 11
74.100000
 21
24.900000
 12
0.900000
 22
23.700000
 13
0.900000
 23
24.900000
  0
POLYLINE
  8
60
 62
7
  6
CONTINUOUS
 70
1
 66
1
  0
VERTEX
 10
74.100000
 20
23.700000
 30
0.000000
  8
60
 62
7
  6
CONTINUOUS
  0
VERTEX
 10
74.100000
 20
24.900000
 30
0.000000
  8
60
 62
7
  6
CONTINUOUS
  0
VERTEX
 10
0.900000
 20
24.900000
 30
0.000000
  8
60
 62
7
  6
CONTINUOUS
  0
VERTEX
 10
0.900000
 20
23.700000
 30
0.000000
  8
60
 62
7
  6
CONTINUOUS
  0
SEQEND
  0
SOLID
  8
60
 62
7
  6
CONTINUOUS
 10
74.100000
 20
19.700000
 11
74.100000
 21
20.900000
 12
0.900000
 22
19.700000
 13
0.900000
 23
20.900000
  0
POLYLINE
  8
60
 62
7
  6
CONTINUOUS
 70
1
 66
1
  0
VERTEX
 10
74.100000
 20
19.700000
 30
0.000000
  8
60
 62
7
  6
CONTINUOUS
  0
VERTEX
 10
74.100000
 20
20.900000
 30
0.000000
  8
60
 62
7
  6
CONTINUOUS
  0
VERTEX
 10
0.900000
 20
20.900000
 30
0.000000
  8
60
 62
7
  6
CONTINUOUS
  0
VERTEX
 10
0.900000
 20
19.700000
 30
0.000000
  8
60
 62
7
  6
CONTINUOUS
  0
SEQEND
  0
SOLID
  8
60
 62
7
  6
CONTINUOUS
 10
74.100000
 20
15.700000
 11
74.100000
 21
16.900000
 12
0.900000
 22
15.700000
 13
0.900000
 23
16.900000
  0
POLYLINE
  8
60
 62
7
  6
CONTINUOUS
 70
1
 66
1
  0
VERTEX
 10
74.100000
 20
15.700000
 30
0.000000
  8
60
 62
7
  6
CONTINUOUS
  0
VERTEX
 10
74.100000
 20
16.900000
 30
0.000000
  8
60
 62
7
  6
CONTINUOUS
  0
VERTEX
 10
0.900000
 20
16.900000
 30
0.000000
  8
60
 62
7
  6
CONTINUOUS
  0
VERTEX
 10
0.900000
 20
15.700000
 30
0.000000
  8
60
 62
7
  6
CONTINUOUS
  0
SEQEND
  0
SOLID
  8
60
 62
7
  6
CONTINUOUS
 10
74.100000
 20
11.700000
 11
74.100000
 21
12.900000
 12
0.900000
 22
11.700000
 13
0.900000
 23
12.900000
  0
POLYLINE
  8
60
 62
7
  6
CONTINUOUS
 70
1
 66
1
  0
VERTEX
 10
74.100000
 20
11.700000
 30
0.000000
  8
60
 62
7
  6
CONTINUOUS
  0
VERTEX
 10
74.100000
 20
12.900000
 30
0.000000
  8
60
 62
7
  6
CONTINUOUS
  0
VERTEX
 10
0.900000
 20
12.900000
 30
0.000000
  8
60
 62
7
  6
CONTINUOUS
  0
VERTEX
 10
0.900000
 20
11.700000
 30
0.000000
  8
60
 62
7
  6
CONTINUOUS
  0
SEQEND
  0
SOLID
  8
38
 62
7
  6
CONTINUOUS
 10
12.000000
 20
78.900000
 11
12.000000
 21
81.900000
 12
9.000000
 22
78.900000
 13
9.000000
 23
81.900000
  0
POLYLINE
  8
38
 62
7
  6
CONTINUOUS
 70
1
 66
1
  0
VERTEX
 10
12.000000
 20
78.900000
 30
0.000000
  8
38
 62
7
  6
CONTINUOUS
  0
VERTEX
 10
12.000000
 20
81.900000
 30
0.000000
  8
38
 62
7
  6
CONTINUOUS
  0
VERTEX
 10
9.000000
 20
81.900000
 30
0.000000
  8
38
 62
7
  6
CONTINUOUS
  0
VERTEX
 10
9.000000
 20
78.900000
 30
0.000000
  8
38
 62
7
  6
CONTINUOUS
  0
SEQEND
  0
SOLID
  8
38
 62
7
  6
CONTINUOUS
 10
16.000000
 20
78.900000
 11
16.000000
 21
81.900000
 12
13.000000
 22
78.900000
 13
13.000000
 23
81.900000
  0
POLYLINE
  8
38
 62
7
  6
CONTINUOUS
 70
1
 66
1
  0
VERTEX
 10
16.000000
 20
78.900000
 30
0.000000
  8
38
 62
7
  6
CONTINUOUS
  0
VERTEX
 10
16.000000
 20
81.900000
 30
0.000000
  8
38
 62
7
  6
CONTINUOUS
  0
VERTEX
 10
13.000000
 20
81.900000
 30
0.000000
  8
38
 62
7
  6
CONTINUOUS
  0
VERTEX
 10
13.000000
 20
78.900000
 30
0.000000
  8
38
 62
7
  6
CONTINUOUS
  0
SEQEND
  0
SOLID
  8
38
 62
7
  6
CONTINUOUS
 10
37.000000
 20
78.900000
 11
37.000000
 21
81.900000
 12
34.000000
 22
78.900000
 13
34.000000
 23
81.900000
  0
POLYLINE
  8
38
 62
7
  6
CONTINUOUS
 70
1
 66
1
  0
VERTEX
 10
37.000000
 20
78.900000
 30
0.000000
  8
38
 62
7
  6
CONTINUOUS
  0
VERTEX
 10
37.000000
 20
81.900000
 30
0.000000
  8
38
 62
7
  6
CONTINUOUS
  0
VERTEX
 10
34.000000
 20
81.900000
 30
0.000000
  8
38
 62
7
  6
CONTINUOUS
  0
VERTEX
 10
34.000000
 20
78.900000
 30
0.000000
  8
38
 62
7
  6
CONTINUOUS
  0
SEQEND
  0
SOLID
  8
38
 62
7
  6
CONTINUOUS
 10
41.000000
 20
78.900000
 11
41.000000
 21
81.900000
 12
38.000000
 22
78.900000
 13
38.000000
 23
81.900000
  0
POLYLINE
  8
38
 62
7
  6
CONTINUOUS
 70
1
 66
1
  0
VERTEX
 10
41.000000
 20
78.900000
 30
0.000000
  8
38
 62
7
  6
CONTINUOUS
  0
VERTEX
 10
41.000000
 20
81.900000
 30
0.000000
  8
38
 62
7
  6
CONTINUOUS
  0
VERTEX
 10
38.000000
 20
81.900000
 30
0.000000
  8
38
 62
7
  6
CONTINUOUS
  0
VERTEX
 10
38.000000
 20
78.900000
 30
0.000000
  8
38
 62
7
  6
CONTINUOUS
  0
SEQEND
  0
SOLID
  8
38
 62
7
  6
CONTINUOUS
 10
62.000000
 20
78.900000
 11
62.000000
 21
81.900000
 12
59.000000
 22
78.900000
 13
59.000000
 23
81.900000
  0
POLYLINE
  8
38
 62
7
  6
CONTINUOUS
 70
1
 66
1
  0
VERTEX
 10
62.000000
 20
78.900000
 30
0.000000
  8
38
 62
7
  6
CONTINUOUS
  0
VERTEX
 10
62.000000
 20
81.900000
 30
0.000000
  8
38
 62
7
  6
CONTINUOUS
  0
VERTEX
 10
59.000000
 20
81.900000
 30
0.000000
  8
38
 62
7
  6
CONTINUOUS
  0
VERTEX
 10
59.000000
 20
78.900000
 30
0.000000
  8
38
 62
7
  6
CONTINUOUS
  0
SEQEND
  0
SOLID
  8
38
 62
7
  6
CONTINUOUS
 10
66.000000
 20
78.900000
 11
66.000000
 21
81.900000
 12
63.000000
 22
78.900000
 13
63.000000
 23
81.900000
  0
POLYLINE
  8
38
 62
7
  6
CONTINUOUS
 70
1
 66
1
  0
VERTEX
 10
66.000000
 20
78.900000
 30
0.000000
  8
38
 62
7
  6
CONTINUOUS
  0
VERTEX
 10
66.000000
 20
81.900000
 30
0.000000
  8
38
 62
7
  6
CONTINUOUS
  0
VERTEX
 10
63.000000
 20
81.900000
 30
0.000000
  8
38
 62
7
  6
CONTINUOUS
  0
VERTEX
 10
63.000000
 20
78.900000
 30
0.000000
  8
38
 62
7
  6
CONTINUOUS
  0
SEQEND
  0
SOLID
  8
38
 62
255
  6
CONTINUOUS
 10
14.300000
 20
75.000000
 11
14.300000
 21
78.100000
 12
23.300000
 22
75.000000
 13
23.300000
 23
78.100000
  0
POLYLINE
  8
38
 62
7
  6
CONTINUOUS
 70
1
 66
1
  0
VERTEX
 10
14.300000
 20
75.000000
 30
0.000000
  8
38
 62
7
  6
CONTINUOUS
  0
VERTEX
 10
14.300000
 20
78.100000
 30
0.000000
  8
38
 62
7
  6
CONTINUOUS
  0
VERTEX
 10
23.300000
 20
78.100000
 30
0.000000
  8
38
 62
7
  6
CONTINUOUS
  0
VERTEX
 10
23.300000
 20
75.000000
 30
0.000000
  8
38
 62
7
  6
CONTINUOUS
  0
SEQEND
  0
CIRCLE
  8
38
 62
7
  6
CONTINUOUS
 10
22.000000
 20
76.200000
 30
0.0
 40
0.300000
  0
CIRCLE
  8
38
 62
7
  6
CONTINUOUS
 10
22.000000
 20
76.900000
 30
0.0
 40
0.300000
  0
CIRCLE
  8
38
 62
7
  6
CONTINUOUS
 10
22.000000
 20
75.500000
 30
0.0
 40
0.300000
  0
CIRCLE
  8
38
 62
7
  6
CONTINUOUS
 10
22.000000
 20
77.600000
 30
0.0
 40
0.300000
  0
CIRCLE
  8
38
 62
7
  6
CONTINUOUS
 10
22.800000
 20
77.600000
 30
0.0
 40
0.300000
  0
CIRCLE
  8
38
 62
7
  6
CONTINUOUS
 10
22.800000
 20
76.900000
 30
0.0
 40
0.300000
  0
CIRCLE
  8
38
 62
7
  6
CONTINUOUS
 10
14.800000
 20
77.600000
 30
0.0
 40
0.300000
  0
CIRCLE
  8
38
 62
7
  6
CONTINUOUS
 10
15.600000
 20
77.600000
 30
0.0
 40
0.300000
  0
CIRCLE
  8
38
 62
7
  6
CONTINUOUS
 10
14.800000
 20
76.900000
 30
0.0
 40
0.300000
  0
CIRCLE
  8
38
 62
7
  6
CONTINUOUS
 10
15.600000
 20
76.900000
 30
0.0
 40
0.300000
  0
CIRCLE
  8
38
 62
7
  6
CONTINUOUS
 10
14.800000
 20
76.200000
 30
0.0
 40
0.300000
  0
CIRCLE
  8
38
 62
7
  6
CONTINUOUS
 10
14.800000
 20
75.500000
 30
0.0
 40
0.300000
  0
CIRCLE
  8
38
 62
7
  6
CONTINUOUS
 10
16.600000
 20
77.600000
 30
0.0
 40
0.300000
  0
CIRCLE
  8
38
 62
7
  6
CONTINUOUS
 10
17.400000
 20
77.600000
 30
0.0
 40
0.300000
  0
CIRCLE
  8
38
 62
7
  6
CONTINUOUS
 10
16.600000
 20
76.900000
 30
0.0
 40
0.300000
  0
CIRCLE
  8
38
 62
7
  6
CONTINUOUS
 10
17.400000
 20
76.900000
 30
0.0
 40
0.300000
  0
CIRCLE
  8
38
 62
7
  6
CONTINUOUS
 10
16.600000
 20
76.200000
 30
0.0
 40
0.300000
  0
CIRCLE
  8
38
 62
7
  6
CONTINUOUS
 10
16.600000
 20
75.500000
 30
0.0
 40
0.300000
  0
POLYLINE
  8
38
 62
7
  6
CONTINUOUS
 70
0
 66
1
  0
VERTEX
 10
16.100000
 20
78.100000
  8
38
 62
7
  6
CONTINUOUS
  0
VERTEX
 10
16.100000
 20
75.000000
  8
38
 62
7
  6
CONTINUOUS
  0
SEQEND
  0
POLYLINE
  8
38
 62
7
  6
CONTINUOUS
 70
0
 66
1
  0
VERTEX
 10
17.900000
 20
78.100000
  8
38
 62
7
  6
CONTINUOUS
  0
VERTEX
 10
17.900000
 20
75.000000
  8
38
 62
7
  6
CONTINUOUS
  0
SEQEND
  0
CIRCLE
  8
38
 62
7
  6
CONTINUOUS
 10
18.400000
 20
75.500000
 30
0.0
 40
0.300000
  0
CIRCLE
  8
38
 62
7
  6
CONTINUOUS
 10
18.400000
 20
76.200000
 30
0.0
 40
0.300000
  0
CIRCLE
  8
38
 62
7
  6
CONTINUOUS
 10
18.400000
 20
76.900000
 30
0.0
 40
0.300000
  0
CIRCLE
  8
38
 62
7
  6
CONTINUOUS
 10
18.400000
 20
77.600000
 30
0.0
 40
0.300000
  0
CIRCLE
  8
38
 62
7
  6
CONTINUOUS
 10
19.200000
 20
77.600000
 30
0.0
 40
0.300000
  0
CIRCLE
  8
38
 62
7
  6
CONTINUOUS
 10
19.200000
 20
76.900000
 30
0.0
 40
0.300000
  0
POLYLINE
  8
38
 62
7
  6
CONTINUOUS
 70
0
 66
1
  0
VERTEX
 10
21.500000
 20
78.100000
  8
38
 62
7
  6
CONTINUOUS
  0
VERTEX
 10
21.500000
 20
75.000000
  8
38
 62
7
  6
CONTINUOUS
  0
SEQEND
  0
CIRCLE
  8
38
 62
7
  6
CONTINUOUS
 10
20.200000
 20
77.600000
 30
0.0
 40
0.300000
  0
CIRCLE
  8
38
 62
7
  6
CONTINUOUS
 10
21.000000
 20
77.600000
 30
0.0
 40
0.300000
  0
CIRCLE
  8
38
 62
7
  6
CONTINUOUS
 10
20.200000
 20
76.900000
 30
0.0
 40
0.300000
  0
CIRCLE
  8
38
 62
7
  6
CONTINUOUS
 10
21.000000
 20
76.900000
 30
0.0
 40
0.300000
  0
CIRCLE
  8
38
 62
7
  6
CONTINUOUS
 10
20.200000
 20
76.200000
 30
0.0
 40
0.300000
  0
CIRCLE
  8
38
 62
7
  6
CONTINUOUS
 10
20.200000
 20
75.500000
 30
0.0
 40
0.300000
  0
POLYLINE
  8
38
 62
7
  6
CONTINUOUS
 70
0
 66
1
  0
VERTEX
 10
19.700000
 20
78.100000
  8
38
 62
7
  6
CONTINUOUS
  0
VERTEX
 10
19.700000
 20
75.000000
  8
38
 62
7
  6
CONTINUOUS
  0
SEQEND
  0
SOLID
  8
38
 62
255
  6
CONTINUOUS
 10
1.700000
 20
75.000000
 11
1.700000
 21
78.100000
 12
10.700000
 22
75.000000
 13
10.700000
 23
78.100000
  0
POLYLINE
  8
38
 62
7
  6
CONTINUOUS
 70
1
 66
1
  0
VERTEX
 10
1.700000
 20
75.000000
 30
0.000000
  8
38
 62
7
  6
CONTINUOUS
  0
VERTEX
 10
1.700000
 20
78.100000
 30
0.000000
  8
38
 62
7
  6
CONTINUOUS
  0
VERTEX
 10
10.700000
 20
78.100000
 30
0.000000
  8
38
 62
7
  6
CONTINUOUS
  0
VERTEX
 10
10.700000
 20
75.000000
 30
0.000000
  8
38
 62
7
  6
CONTINUOUS
  0
SEQEND
  0
CIRCLE
  8
38
 62
7
  6
CONTINUOUS
 10
9.400000
 20
76.200000
 30
0.0
 40
0.300000
  0
CIRCLE
  8
38
 62
7
  6
CONTINUOUS
 10
9.400000
 20
76.900000
 30
0.0
 40
0.300000
  0
CIRCLE
  8
38
 62
7
  6
CONTINUOUS
 10
9.400000
 20
75.500000
 30
0.0
 40
0.300000
  0
CIRCLE
  8
38
 62
7
  6
CONTINUOUS
 10
9.400000
 20
77.600000
 30
0.0
 40
0.300000
  0
CIRCLE
  8
38
 62
7
  6
CONTINUOUS
 10
10.200000
 20
77.600000
 30
0.0
 40
0.300000
  0
CIRCLE
  8
38
 62
7
  6
CONTINUOUS
 10
10.200000
 20
76.900000
 30
0.0
 40
0.300000
  0
CIRCLE
  8
38
 62
7
  6
CONTINUOUS
 10
2.200000
 20
77.600000
 30
0.0
 40
0.300000
  0
CIRCLE
  8
38
 62
7
  6
CONTINUOUS
 10
3.000000
 20
77.600000
 30
0.0
 40
0.300000
  0
CIRCLE
  8
38
 62
7
  6
CONTINUOUS
 10
2.200000
 20
76.900000
 30
0.0
 40
0.300000
  0
CIRCLE
  8
38
 62
7
  6
CONTINUOUS
 10
3.000000
 20
76.900000
 30
0.0
 40
0.300000
  0
CIRCLE
  8
38
 62
7
  6
CONTINUOUS
 10
2.200000
 20
76.200000
 30
0.0
 40
0.300000
  0
CIRCLE
  8
38
 62
7
  6
CONTINUOUS
 10
2.200000
 20
75.500000
 30
0.0
 40
0.300000
  0
CIRCLE
  8
38
 62
7
  6
CONTINUOUS
 10
4.000000
 20
77.600000
 30
0.0
 40
0.300000
  0
CIRCLE
  8
38
 62
7
  6
CONTINUOUS
 10
4.800000
 20
77.600000
 30
0.0
 40
0.300000
  0
CIRCLE
  8
38
 62
7
  6
CONTINUOUS
 10
4.000000
 20
76.900000
 30
0.0
 40
0.300000
  0
CIRCLE
  8
38
 62
7
  6
CONTINUOUS
 10
4.800000
 20
76.900000
 30
0.0
 40
0.300000
  0
CIRCLE
  8
38
 62
7
  6
CONTINUOUS
 10
4.000000
 20
76.200000
 30
0.0
 40
0.300000
  0
CIRCLE
  8
38
 62
7
  6
CONTINUOUS
 10
4.000000
 20
75.500000
 30
0.0
 40
0.300000
  0
POLYLINE
  8
38
 62
7
  6
CONTINUOUS
 70
0
 66
1
  0
VERTEX
 10
3.500000
 20
78.100000
  8
38
 62
7
  6
CONTINUOUS
  0
VERTEX
 10
3.500000
 20
75.000000
  8
38
 62
7
  6
CONTINUOUS
  0
SEQEND
  0
POLYLINE
  8
38
 62
7
  6
CONTINUOUS
 70
0
 66
1
  0
VERTEX
 10
5.300000
 20
78.100000
  8
38
 62
7
  6
CONTINUOUS
  0
VERTEX
 10
5.300000
 20
75.000000
  8
38
 62
7
  6
CONTINUOUS
  0
SEQEND
  0
CIRCLE
  8
38
 62
7
  6
CONTINUOUS
 10
5.800000
 20
75.500000
 30
0.0
 40
0.300000
  0
CIRCLE
  8
38
 62
7
  6
CONTINUOUS
 10
5.800000
 20
76.200000
 30
0.0
 40
0.300000
  0
CIRCLE
  8
38
 62
7
  6
CONTINUOUS
 10
5.800000
 20
76.900000
 30
0.0
 40
0.300000
  0
CIRCLE
  8
38
 62
7
  6
CONTINUOUS
 10
5.800000
 20
77.600000
 30
0.0
 40
0.300000
  0
CIRCLE
  8
38
 62
7
  6
CONTINUOUS
 10
6.600000
 20
77.600000
 30
0.0
 40
0.300000
  0
CIRCLE
  8
38
 62
7
  6
CONTINUOUS
 10
6.600000
 20
76.900000
 30
0.0
 40
0.300000
  0
POLYLINE
  8
38
 62
7
  6
CONTINUOUS
 70
0
 66
1
  0
VERTEX
 10
8.900000
 20
78.100000
  8
38
 62
7
  6
CONTINUOUS
  0
VERTEX
 10
8.900000
 20
75.000000
  8
38
 62
7
  6
CONTINUOUS
  0
SEQEND
  0
CIRCLE
  8
38
 62
7
  6
CONTINUOUS
 10
7.600000
 20
77.600000
 30
0.0
 40
0.300000
  0
CIRCLE
  8
38
 62
7
  6
CONTINUOUS
 10
8.400000
 20
77.600000
 30
0.0
 40
0.300000
  0
CIRCLE
  8
38
 62
7
  6
CONTINUOUS
 10
7.600000
 20
76.900000
 30
0.0
 40
0.300000
  0
CIRCLE
  8
38
 62
7
  6
CONTINUOUS
 10
8.400000
 20
76.900000
 30
0.0
 40
0.300000
  0
CIRCLE
  8
38
 62
7
  6
CONTINUOUS
 10
7.600000
 20
76.200000
 30
0.0
 40
0.300000
  0
CIRCLE
  8
38
 62
7
  6
CONTINUOUS
 10
7.600000
 20
75.500000
 30
0.0
 40
0.300000
  0
POLYLINE
  8
38
 62
7
  6
CONTINUOUS
 70
0
 66
1
  0
VERTEX
 10
7.100000
 20
78.100000
  8
38
 62
7
  6
CONTINUOUS
  0
VERTEX
 10
7.100000
 20
75.000000
  8
38
 62
7
  6
CONTINUOUS
  0
SEQEND
  0
SOLID
  8
38
 62
255
  6
CONTINUOUS
 10
39.300000
 20
75.000000
 11
39.300000
 21
78.100000
 12
48.300000
 22
75.000000
 13
48.300000
 23
78.100000
  0
POLYLINE
  8
38
 62
7
  6
CONTINUOUS
 70
1
 66
1
  0
VERTEX
 10
39.300000
 20
75.000000
 30
0.000000
  8
38
 62
7
  6
CONTINUOUS
  0
VERTEX
 10
39.300000
 20
78.100000
 30
0.000000
  8
38
 62
7
  6
CONTINUOUS
  0
VERTEX
 10
48.300000
 20
78.100000
 30
0.000000
  8
38
 62
7
  6
CONTINUOUS
  0
VERTEX
 10
48.300000
 20
75.000000
 30
0.000000
  8
38
 62
7
  6
CONTINUOUS
  0
SEQEND
  0
CIRCLE
  8
38
 62
7
  6
CONTINUOUS
 10
47.000000
 20
76.200000
 30
0.0
 40
0.300000
  0
CIRCLE
  8
38
 62
7
  6
CONTINUOUS
 10
47.000000
 20
76.900000
 30
0.0
 40
0.300000
  0
CIRCLE
  8
38
 62
7
  6
CONTINUOUS
 10
47.000000
 20
75.500000
 30
0.0
 40
0.300000
  0
CIRCLE
  8
38
 62
7
  6
CONTINUOUS
 10
47.000000
 20
77.600000
 30
0.0
 40
0.300000
  0
CIRCLE
  8
38
 62
7
  6
CONTINUOUS
 10
47.800000
 20
77.600000
 30
0.0
 40
0.300000
  0
CIRCLE
  8
38
 62
7
  6
CONTINUOUS
 10
47.800000
 20
76.900000
 30
0.0
 40
0.300000
  0
CIRCLE
  8
38
 62
7
  6
CONTINUOUS
 10
39.800000
 20
77.600000
 30
0.0
 40
0.300000
  0
CIRCLE
  8
38
 62
7
  6
CONTINUOUS
 10
40.600000
 20
77.600000
 30
0.0
 40
0.300000
  0
CIRCLE
  8
38
 62
7
  6
CONTINUOUS
 10
39.800000
 20
76.900000
 30
0.0
 40
0.300000
  0
CIRCLE
  8
38
 62
7
  6
CONTINUOUS
 10
40.600000
 20
76.900000
 30
0.0
 40
0.300000
  0
CIRCLE
  8
38
 62
7
  6
CONTINUOUS
 10
39.800000
 20
76.200000
 30
0.0
 40
0.300000
  0
CIRCLE
  8
38
 62
7
  6
CONTINUOUS
 10
39.800000
 20
75.500000
 30
0.0
 40
0.300000
  0
CIRCLE
  8
38
 62
7
  6
CONTINUOUS
 10
41.600000
 20
77.600000
 30
0.0
 40
0.300000
  0
CIRCLE
  8
38
 62
7
  6
CONTINUOUS
 10
42.400000
 20
77.600000
 30
0.0
 40
0.300000
  0
CIRCLE
  8
38
 62
7
  6
CONTINUOUS
 10
41.600000
 20
76.900000
 30
0.0
 40
0.300000
  0
CIRCLE
  8
38
 62
7
  6
CONTINUOUS
 10
42.400000
 20
76.900000
 30
0.0
 40
0.300000
  0
CIRCLE
  8
38
 62
7
  6
CONTINUOUS
 10
41.600000
 20
76.200000
 30
0.0
 40
0.300000
  0
CIRCLE
  8
38
 62
7
  6
CONTINUOUS
 10
41.600000
 20
75.500000
 30
0.0
 40
0.300000
  0
POLYLINE
  8
38
 62
7
  6
CONTINUOUS
 70
0
 66
1
  0
VERTEX
 10
41.100000
 20
78.100000
  8
38
 62
7
  6
CONTINUOUS
  0
VERTEX
 10
41.100000
 20
75.000000
  8
38
 62
7
  6
CONTINUOUS
  0
SEQEND
  0
POLYLINE
  8
38
 62
7
  6
CONTINUOUS
 70
0
 66
1
  0
VERTEX
 10
42.900000
 20
78.100000
  8
38
 62
7
  6
CONTINUOUS
  0
VERTEX
 10
42.900000
 20
75.000000
  8
38
 62
7
  6
CONTINUOUS
  0
SEQEND
  0
CIRCLE
  8
38
 62
7
  6
CONTINUOUS
 10
43.400000
 20
75.500000
 30
0.0
 40
0.300000
  0
CIRCLE
  8
38
 62
7
  6
CONTINUOUS
 10
43.400000
 20
76.200000
 30
0.0
 40
0.300000
  0
CIRCLE
  8
38
 62
7
  6
CONTINUOUS
 10
43.400000
 20
76.900000
 30
0.0
 40
0.300000
  0
CIRCLE
  8
38
 62
7
  6
CONTINUOUS
 10
43.400000
 20
77.600000
 30
0.0
 40
0.300000
  0
CIRCLE
  8
38
 62
7
  6
CONTINUOUS
 10
44.200000
 20
77.600000
 30
0.0
 40
0.300000
  0
CIRCLE
  8
38
 62
7
  6
CONTINUOUS
 10
44.200000
 20
76.900000
 30
0.0
 40
0.300000
  0
POLYLINE
  8
38
 62
7
  6
CONTINUOUS
 70
0
 66
1
  0
VERTEX
 10
46.500000
 20
78.100000
  8
38
 62
7
  6
CONTINUOUS
  0
VERTEX
 10
46.500000
 20
75.000000
  8
38
 62
7
  6
CONTINUOUS
  0
SEQEND
  0
CIRCLE
  8
38
 62
7
  6
CONTINUOUS
 10
45.200000
 20
77.600000
 30
0.0
 40
0.300000
  0
CIRCLE
  8
38
 62
7
  6
CONTINUOUS
 10
46.000000
 20
77.600000
 30
0.0
 40
0.300000
  0
CIRCLE
  8
38
 62
7
  6
CONTINUOUS
 10
45.200000
 20
76.900000
 30
0.0
 40
0.300000
  0
CIRCLE
  8
38
 62
7
  6
CONTINUOUS
 10
46.000000
 20
76.900000
 30
0.0
 40
0.300000
  0
CIRCLE
  8
38
 62
7
  6
CONTINUOUS
 10
45.200000
 20
76.200000
 30
0.0
 40
0.300000
  0
CIRCLE
  8
38
 62
7
  6
CONTINUOUS
 10
45.200000
 20
75.500000
 30
0.0
 40
0.300000
  0
POLYLINE
  8
38
 62
7
  6
CONTINUOUS
 70
0
 66
1
  0
VERTEX
 10
44.700000
 20
78.100000
  8
38
 62
7
  6
CONTINUOUS
  0
VERTEX
 10
44.700000
 20
75.000000
  8
38
 62
7
  6
CONTINUOUS
  0
SEQEND
  0
SOLID
  8
38
 62
255
  6
CONTINUOUS
 10
26.700000
 20
75.000000
 11
26.700000
 21
78.100000
 12
35.700000
 22
75.000000
 13
35.700000
 23
78.100000
  0
POLYLINE
  8
38
 62
7
  6
CONTINUOUS
 70
1
 66
1
  0
VERTEX
 10
26.700000
 20
75.000000
 30
0.000000
  8
38
 62
7
  6
CONTINUOUS
  0
VERTEX
 10
26.700000
 20
78.100000
 30
0.000000
  8
38
 62
7
  6
CONTINUOUS
  0
VERTEX
 10
35.700000
 20
78.100000
 30
0.000000
  8
38
 62
7
  6
CONTINUOUS
  0
VERTEX
 10
35.700000
 20
75.000000
 30
0.000000
  8
38
 62
7
  6
CONTINUOUS
  0
SEQEND
  0
CIRCLE
  8
38
 62
7
  6
CONTINUOUS
 10
34.400000
 20
76.200000
 30
0.0
 40
0.300000
  0
CIRCLE
  8
38
 62
7
  6
CONTINUOUS
 10
34.400000
 20
76.900000
 30
0.0
 40
0.300000
  0
CIRCLE
  8
38
 62
7
  6
CONTINUOUS
 10
34.400000
 20
75.500000
 30
0.0
 40
0.300000
  0
CIRCLE
  8
38
 62
7
  6
CONTINUOUS
 10
34.400000
 20
77.600000
 30
0.0
 40
0.300000
  0
CIRCLE
  8
38
 62
7
  6
CONTINUOUS
 10
35.200000
 20
77.600000
 30
0.0
 40
0.300000
  0
CIRCLE
  8
38
 62
7
  6
CONTINUOUS
 10
35.200000
 20
76.900000
 30
0.0
 40
0.300000
  0
CIRCLE
  8
38
 62
7
  6
CONTINUOUS
 10
27.200000
 20
77.600000
 30
0.0
 40
0.300000
  0
CIRCLE
  8
38
 62
7
  6
CONTINUOUS
 10
28.000000
 20
77.600000
 30
0.0
 40
0.300000
  0
CIRCLE
  8
38
 62
7
  6
CONTINUOUS
 10
27.200000
 20
76.900000
 30
0.0
 40
0.300000
  0
CIRCLE
  8
38
 62
7
  6
CONTINUOUS
 10
28.000000
 20
76.900000
 30
0.0
 40
0.300000
  0
CIRCLE
  8
38
 62
7
  6
CONTINUOUS
 10
27.200000
 20
76.200000
 30
0.0
 40
0.300000
  0
CIRCLE
  8
38
 62
7
  6
CONTINUOUS
 10
27.200000
 20
75.500000
 30
0.0
 40
0.300000
  0
CIRCLE
  8
38
 62
7
  6
CONTINUOUS
 10
29.000000
 20
77.600000
 30
0.0
 40
0.300000
  0
CIRCLE
  8
38
 62
7
  6
CONTINUOUS
 10
29.800000
 20
77.600000
 30
0.0
 40
0.300000
  0
CIRCLE
  8
38
 62
7
  6
CONTINUOUS
 10
29.000000
 20
76.900000
 30
0.0
 40
0.300000
  0
CIRCLE
  8
38
 62
7
  6
CONTINUOUS
 10
29.800000
 20
76.900000
 30
0.0
 40
0.300000
  0
CIRCLE
  8
38
 62
7
  6
CONTINUOUS
 10
29.000000
 20
76.200000
 30
0.0
 40
0.300000
  0
CIRCLE
  8
38
 62
7
  6
CONTINUOUS
 10
29.000000
 20
75.500000
 30
0.0
 40
0.300000
  0
POLYLINE
  8
38
 62
7
  6
CONTINUOUS
 70
0
 66
1
  0
VERTEX
 10
28.500000
 20
78.100000
  8
38
 62
7
  6
CONTINUOUS
  0
VERTEX
 10
28.500000
 20
75.000000
  8
38
 62
7
  6
CONTINUOUS
  0
SEQEND
  0
POLYLINE
  8
38
 62
7
  6
CONTINUOUS
 70
0
 66
1
  0
VERTEX
 10
30.300000
 20
78.100000
  8
38
 62
7
  6
CONTINUOUS
  0
VERTEX
 10
30.300000
 20
75.000000
  8
38
 62
7
  6
CONTINUOUS
  0
SEQEND
  0
CIRCLE
  8
38
 62
7
  6
CONTINUOUS
 10
30.800000
 20
75.500000
 30
0.0
 40
0.300000
  0
CIRCLE
  8
38
 62
7
  6
CONTINUOUS
 10
30.800000
 20
76.200000
 30
0.0
 40
0.300000
  0
CIRCLE
  8
38
 62
7
  6
CONTINUOUS
 10
30.800000
 20
76.900000
 30
0.0
 40
0.300000
  0
CIRCLE
  8
38
 62
7
  6
CONTINUOUS
 10
30.800000
 20
77.600000
 30
0.0
 40
0.300000
  0
CIRCLE
  8
38
 62
7
  6
CONTINUOUS
 10
31.600000
 20
77.600000
 30
0.0
 40
0.300000
  0
CIRCLE
  8
38
 62
7
  6
CONTINUOUS
 10
31.600000
 20
76.900000
 30
0.0
 40
0.300000
  0
POLYLINE
  8
38
 62
7
  6
CONTINUOUS
 70
0
 66
1
  0
VERTEX
 10
33.900000
 20
78.100000
  8
38
 62
7
  6
CONTINUOUS
  0
VERTEX
 10
33.900000
 20
75.000000
  8
38
 62
7
  6
CONTINUOUS
  0
SEQEND
  0
CIRCLE
  8
38
 62
7
  6
CONTINUOUS
 10
32.600000
 20
77.600000
 30
0.0
 40
0.300000
  0
CIRCLE
  8
38
 62
7
  6
CONTINUOUS
 10
33.400000
 20
77.600000
 30
0.0
 40
0.300000
  0
CIRCLE
  8
38
 62
7
  6
CONTINUOUS
 10
32.600000
 20
76.900000
 30
0.0
 40
0.300000
  0
CIRCLE
  8
38
 62
7
  6
CONTINUOUS
 10
33.400000
 20
76.900000
 30
0.0
 40
0.300000
  0
CIRCLE
  8
38
 62
7
  6
CONTINUOUS
 10
32.600000
 20
76.200000
 30
0.0
 40
0.300000
  0
CIRCLE
  8
38
 62
7
  6
CONTINUOUS
 10
32.600000
 20
75.500000
 30
0.0
 40
0.300000
  0
POLYLINE
  8
38
 62
7
  6
CONTINUOUS
 70
0
 66
1
  0
VERTEX
 10
32.100000
 20
78.100000
  8
38
 62
7
  6
CONTINUOUS
  0
VERTEX
 10
32.100000
 20
75.000000
  8
38
 62
7
  6
CONTINUOUS
  0
SEQEND
  0
SOLID
  8
38
 62
255
  6
CONTINUOUS
 10
64.300000
 20
75.000000
 11
64.300000
 21
78.100000
 12
73.300000
 22
75.000000
 13
73.300000
 23
78.100000
  0
POLYLINE
  8
38
 62
7
  6
CONTINUOUS
 70
1
 66
1
  0
VERTEX
 10
64.300000
 20
75.000000
 30
0.000000
  8
38
 62
7
  6
CONTINUOUS
  0
VERTEX
 10
64.300000
 20
78.100000
 30
0.000000
  8
38
 62
7
  6
CONTINUOUS
  0
VERTEX
 10
73.300000
 20
78.100000
 30
0.000000
  8
38
 62
7
  6
CONTINUOUS
  0
VERTEX
 10
73.300000
 20
75.000000
 30
0.000000
  8
38
 62
7
  6
CONTINUOUS
  0
SEQEND
  0
CIRCLE
  8
38
 62
7
  6
CONTINUOUS
 10
72.000000
 20
76.200000
 30
0.0
 40
0.300000
  0
CIRCLE
  8
38
 62
7
  6
CONTINUOUS
 10
72.000000
 20
76.900000
 30
0.0
 40
0.300000
  0
CIRCLE
  8
38
 62
7
  6
CONTINUOUS
 10
72.000000
 20
75.500000
 30
0.0
 40
0.300000
  0
CIRCLE
  8
38
 62
7
  6
CONTINUOUS
 10
72.000000
 20
77.600000
 30
0.0
 40
0.300000
  0
CIRCLE
  8
38
 62
7
  6
CONTINUOUS
 10
72.800000
 20
77.600000
 30
0.0
 40
0.300000
  0
CIRCLE
  8
38
 62
7
  6
CONTINUOUS
 10
72.800000
 20
76.900000
 30
0.0
 40
0.300000
  0
CIRCLE
  8
38
 62
7
  6
CONTINUOUS
 10
64.800000
 20
77.600000
 30
0.0
 40
0.300000
  0
CIRCLE
  8
38
 62
7
  6
CONTINUOUS
 10
65.600000
 20
77.600000
 30
0.0
 40
0.300000
  0
CIRCLE
  8
38
 62
7
  6
CONTINUOUS
 10
64.800000
 20
76.900000
 30
0.0
 40
0.300000
  0
CIRCLE
  8
38
 62
7
  6
CONTINUOUS
 10
65.600000
 20
76.900000
 30
0.0
 40
0.300000
  0
CIRCLE
  8
38
 62
7
  6
CONTINUOUS
 10
64.800000
 20
76.200000
 30
0.0
 40
0.300000
  0
CIRCLE
  8
38
 62
7
  6
CONTINUOUS
 10
64.800000
 20
75.500000
 30
0.0
 40
0.300000
  0
CIRCLE
  8
38
 62
7
  6
CONTINUOUS
 10
66.600000
 20
77.600000
 30
0.0
 40
0.300000
  0
CIRCLE
  8
38
 62
7
  6
CONTINUOUS
 10
67.400000
 20
77.600000
 30
0.0
 40
0.300000
  0
CIRCLE
  8
38
 62
7
  6
CONTINUOUS
 10
66.600000
 20
76.900000
 30
0.0
 40
0.300000
  0
CIRCLE
  8
38
 62
7
  6
CONTINUOUS
 10
67.400000
 20
76.900000
 30
0.0
 40
0.300000
  0
CIRCLE
  8
38
 62
7
  6
CONTINUOUS
 10
66.600000
 20
76.200000
 30
0.0
 40
0.300000
  0
CIRCLE
  8
38
 62
7
  6
CONTINUOUS
 10
66.600000
 20
75.500000
 30
0.0
 40
0.300000
  0
POLYLINE
  8
38
 62
7
  6
CONTINUOUS
 70
0
 66
1
  0
VERTEX
 10
66.100000
 20
78.100000
  8
38
 62
7
  6
CONTINUOUS
  0
VERTEX
 10
66.100000
 20
75.000000
  8
38
 62
7
  6
CONTINUOUS
  0
SEQEND
  0
POLYLINE
  8
38
 62
7
  6
CONTINUOUS
 70
0
 66
1
  0
VERTEX
 10
67.900000
 20
78.100000
  8
38
 62
7
  6
CONTINUOUS
  0
VERTEX
 10
67.900000
 20
75.000000
  8
38
 62
7
  6
CONTINUOUS
  0
SEQEND
  0
CIRCLE
  8
38
 62
7
  6
CONTINUOUS
 10
68.400000
 20
75.500000
 30
0.0
 40
0.300000
  0
CIRCLE
  8
38
 62
7
  6
CONTINUOUS
 10
68.400000
 20
76.200000
 30
0.0
 40
0.300000
  0
CIRCLE
  8
38
 62
7
  6
CONTINUOUS
 10
68.400000
 20
76.900000
 30
0.0
 40
0.300000
  0
CIRCLE
  8
38
 62
7
  6
CONTINUOUS
 10
68.400000
 20
77.600000
 30
0.0
 40
0.300000
  0
CIRCLE
  8
38
 62
7
  6
CONTINUOUS
 10
69.200000
 20
77.600000
 30
0.0
 40
0.300000
  0
CIRCLE
  8
38
 62
7
  6
CONTINUOUS
 10
69.200000
 20
76.900000
 30
0.0
 40
0.300000
  0
POLYLINE
  8
38
 62
7
  6
CONTINUOUS
 70
0
 66
1
  0
VERTEX
 10
71.500000
 20
78.100000
  8
38
 62
7
  6
CONTINUOUS
  0
VERTEX
 10
71.500000
 20
75.000000
  8
38
 62
7
  6
CONTINUOUS
  0
SEQEND
  0
CIRCLE
  8
38
 62
7
  6
CONTINUOUS
 10
70.200000
 20
77.600000
 30
0.0
 40
0.300000
  0
CIRCLE
  8
38
 62
7
  6
CONTINUOUS
 10
71.000000
 20
77.600000
 30
0.0
 40
0.300000
  0
CIRCLE
  8
38
 62
7
  6
CONTINUOUS
 10
70.200000
 20
76.900000
 30
0.0
 40
0.300000
  0
CIRCLE
  8
38
 62
7
  6
CONTINUOUS
 10
71.000000
 20
76.900000
 30
0.0
 40
0.300000
  0
CIRCLE
  8
38
 62
7
  6
CONTINUOUS
 10
70.200000
 20
76.200000
 30
0.0
 40
0.300000
  0
CIRCLE
  8
38
 62
7
  6
CONTINUOUS
 10
70.200000
 20
75.500000
 30
0.0
 40
0.300000
  0
POLYLINE
  8
38
 62
7
  6
CONTINUOUS
 70
0
 66
1
  0
VERTEX
 10
69.700000
 20
78.100000
  8
38
 62
7
  6
CONTINUOUS
  0
VERTEX
 10
69.700000
 20
75.000000
  8
38
 62
7
  6
CONTINUOUS
  0
SEQEND
  0
SOLID
  8
38
 62
255
  6
CONTINUOUS
 10
51.700000
 20
75.000000
 11
51.700000
 21
78.100000
 12
60.700000
 22
75.000000
 13
60.700000
 23
78.100000
  0
POLYLINE
  8
38
 62
7
  6
CONTINUOUS
 70
1
 66
1
  0
VERTEX
 10
51.700000
 20
75.000000
 30
0.000000
  8
38
 62
7
  6
CONTINUOUS
  0
VERTEX
 10
51.700000
 20
78.100000
 30
0.000000
  8
38
 62
7
  6
CONTINUOUS
  0
VERTEX
 10
60.700000
 20
78.100000
 30
0.000000
  8
38
 62
7
  6
CONTINUOUS
  0
VERTEX
 10
60.700000
 20
75.000000
 30
0.000000
  8
38
 62
7
  6
CONTINUOUS
  0
SEQEND
  0
CIRCLE
  8
38
 62
7
  6
CONTINUOUS
 10
59.400000
 20
76.200000
 30
0.0
 40
0.300000
  0
CIRCLE
  8
38
 62
7
  6
CONTINUOUS
 10
59.400000
 20
76.900000
 30
0.0
 40
0.300000
  0
CIRCLE
  8
38
 62
7
  6
CONTINUOUS
 10
59.400000
 20
75.500000
 30
0.0
 40
0.300000
  0
CIRCLE
  8
38
 62
7
  6
CONTINUOUS
 10
59.400000
 20
77.600000
 30
0.0
 40
0.300000
  0
CIRCLE
  8
38
 62
7
  6
CONTINUOUS
 10
60.200000
 20
77.600000
 30
0.0
 40
0.300000
  0
CIRCLE
  8
38
 62
7
  6
CONTINUOUS
 10
60.200000
 20
76.900000
 30
0.0
 40
0.300000
  0
CIRCLE
  8
38
 62
7
  6
CONTINUOUS
 10
52.200000
 20
77.600000
 30
0.0
 40
0.300000
  0
CIRCLE
  8
38
 62
7
  6
CONTINUOUS
 10
53.000000
 20
77.600000
 30
0.0
 40
0.300000
  0
CIRCLE
  8
38
 62
7
  6
CONTINUOUS
 10
52.200000
 20
76.900000
 30
0.0
 40
0.300000
  0
CIRCLE
  8
38
 62
7
  6
CONTINUOUS
 10
53.000000
 20
76.900000
 30
0.0
 40
0.300000
  0
CIRCLE
  8
38
 62
7
  6
CONTINUOUS
 10
52.200000
 20
76.200000
 30
0.0
 40
0.300000
  0
CIRCLE
  8
38
 62
7
  6
CONTINUOUS
 10
52.200000
 20
75.500000
 30
0.0
 40
0.300000
  0
CIRCLE
  8
38
 62
7
  6
CONTINUOUS
 10
54.000000
 20
77.600000
 30
0.0
 40
0.300000
  0
CIRCLE
  8
38
 62
7
  6
CONTINUOUS
 10
54.800000
 20
77.600000
 30
0.0
 40
0.300000
  0
CIRCLE
  8
38
 62
7
  6
CONTINUOUS
 10
54.000000
 20
76.900000
 30
0.0
 40
0.300000
  0
CIRCLE
  8
38
 62
7
  6
CONTINUOUS
 10
54.800000
 20
76.900000
 30
0.0
 40
0.300000
  0
CIRCLE
  8
38
 62
7
  6
CONTINUOUS
 10
54.000000
 20
76.200000
 30
0.0
 40
0.300000
  0
CIRCLE
  8
38
 62
7
  6
CONTINUOUS
 10
54.000000
 20
75.500000
 30
0.0
 40
0.300000
  0
POLYLINE
  8
38
 62
7
  6
CONTINUOUS
 70
0
 66
1
  0
VERTEX
 10
53.500000
 20
78.100000
  8
38
 62
7
  6
CONTINUOUS
  0
VERTEX
 10
53.500000
 20
75.000000
  8
38
 62
7
  6
CONTINUOUS
  0
SEQEND
  0
POLYLINE
  8
38
 62
7
  6
CONTINUOUS
 70
0
 66
1
  0
VERTEX
 10
55.300000
 20
78.100000
  8
38
 62
7
  6
CONTINUOUS
  0
VERTEX
 10
55.300000
 20
75.000000
  8
38
 62
7
  6
CONTINUOUS
  0
SEQEND
  0
CIRCLE
  8
38
 62
7
  6
CONTINUOUS
 10
55.800000
 20
75.500000
 30
0.0
 40
0.300000
  0
CIRCLE
  8
38
 62
7
  6
CONTINUOUS
 10
55.800000
 20
76.200000
 30
0.0
 40
0.300000
  0
CIRCLE
  8
38
 62
7
  6
CONTINUOUS
 10
55.800000
 20
76.900000
 30
0.0
 40
0.300000
  0
CIRCLE
  8
38
 62
7
  6
CONTINUOUS
 10
55.800000
 20
77.600000
 30
0.0
 40
0.300000
  0
CIRCLE
  8
38
 62
7
  6
CONTINUOUS
 10
56.600000
 20
77.600000
 30
0.0
 40
0.300000
  0
CIRCLE
  8
38
 62
7
  6
CONTINUOUS
 10
56.600000
 20
76.900000
 30
0.0
 40
0.300000
  0
POLYLINE
  8
38
 62
7
  6
CONTINUOUS
 70
0
 66
1
  0
VERTEX
 10
58.900000
 20
78.100000
  8
38
 62
7
  6
CONTINUOUS
  0
VERTEX
 10
58.900000
 20
75.000000
  8
38
 62
7
  6
CONTINUOUS
  0
SEQEND
  0
CIRCLE
  8
38
 62
7
  6
CONTINUOUS
 10
57.600000
 20
77.600000
 30
0.0
 40
0.300000
  0
CIRCLE
  8
38
 62
7
  6
CONTINUOUS
 10
58.400000
 20
77.600000
 30
0.0
 40
0.300000
  0
CIRCLE
  8
38
 62
7
  6
CONTINUOUS
 10
57.600000
 20
76.900000
 30
0.0
 40
0.300000
  0
CIRCLE
  8
38
 62
7
  6
CONTINUOUS
 10
58.400000
 20
76.900000
 30
0.0
 40
0.300000
  0
CIRCLE
  8
38
 62
7
  6
CONTINUOUS
 10
57.600000
 20
76.200000
 30
0.0
 40
0.300000
  0
CIRCLE
  8
38
 62
7
  6
CONTINUOUS
 10
57.600000
 20
75.500000
 30
0.0
 40
0.300000
  0
POLYLINE
  8
38
 62
7
  6
CONTINUOUS
 70
0
 66
1
  0
VERTEX
 10
57.100000
 20
78.100000
  8
38
 62
7
  6
CONTINUOUS
  0
VERTEX
 10
57.100000
 20
75.000000
  8
38
 62
7
  6
CONTINUOUS
  0
SEQEND
  0
SOLID
  8
2
 62
255
  6
L014100020032000000
 10
12.000000
 20
78.900000
 11
12.000000
 21
81.900000
 12
9.000000
 22
78.900000
 13
9.000000
 23
81.900000
  0
POLYLINE
  8
2
 62
7
  6
L014100020032000000
 70
1
 66
1
  0
VERTEX
 10
12.000000
 20
78.900000
 30
0.000000
  8
2
 62
7
  6
L014100020032000000
  0
VERTEX
 10
12.000000
 20
81.900000
 30
0.000000
  8
2
 62
7
  6
L014100020032000000
  0
VERTEX
 10
9.000000
 20
81.900000
 30
0.000000
  8
2
 62
7
  6
L014100020032000000
  0
VERTEX
 10
9.000000
 20
78.900000
 30
0.000000
  8
2
 62
7
  6
L014100020032000000
  0
SEQEND
  0
SOLID
  8
2
 62
255
  6
L014100020032000000
 10
16.000000
 20
78.900000
 11
16.000000
 21
81.900000
 12
13.000000
 22
78.900000
 13
13.000000
 23
81.900000
  0
POLYLINE
  8
2
 62
7
  6
L014100020032000000
 70
1
 66
1
  0
VERTEX
 10
16.000000
 20
78.900000
 30
0.000000
  8
2
 62
7
  6
L014100020032000000
  0
VERTEX
 10
16.000000
 20
81.900000
 30
0.000000
  8
2
 62
7
  6
L014100020032000000
  0
VERTEX
 10
13.000000
 20
81.900000
 30
0.000000
  8
2
 62
7
  6
L014100020032000000
  0
VERTEX
 10
13.000000
 20
78.900000
 30
0.000000
  8
2
 62
7
  6
L014100020032000000
  0
SEQEND
  0
SOLID
  8
2
 62
255
  6
L014100020032000000
 10
37.000000
 20
78.900000
 11
37.000000
 21
81.900000
 12
34.000000
 22
78.900000
 13
34.000000
 23
81.900000
  0
POLYLINE
  8
2
 62
7
  6
L014100020032000000
 70
1
 66
1
  0
VERTEX
 10
37.000000
 20
78.900000
 30
0.000000
  8
2
 62
7
  6
L014100020032000000
  0
VERTEX
 10
37.000000
 20
81.900000
 30
0.000000
  8
2
 62
7
  6
L014100020032000000
  0
VERTEX
 10
34.000000
 20
81.900000
 30
0.000000
  8
2
 62
7
  6
L014100020032000000
  0
VERTEX
 10
34.000000
 20
78.900000
 30
0.000000
  8
2
 62
7
  6
L014100020032000000
  0
SEQEND
  0
SOLID
  8
2
 62
255
  6
L014100020032000000
 10
41.000000
 20
78.900000
 11
41.000000
 21
81.900000
 12
38.000000
 22
78.900000
 13
38.000000
 23
81.900000
  0
POLYLINE
  8
2
 62
7
  6
L014100020032000000
 70
1
 66
1
  0
VERTEX
 10
41.000000
 20
78.900000
 30
0.000000
  8
2
 62
7
  6
L014100020032000000
  0
VERTEX
 10
41.000000
 20
81.900000
 30
0.000000
  8
2
 62
7
  6
L014100020032000000
  0
VERTEX
 10
38.000000
 20
81.900000
 30
0.000000
  8
2
 62
7
  6
L014100020032000000
  0
VERTEX
 10
38.000000
 20
78.900000
 30
0.000000
  8
2
 62
7
  6
L014100020032000000
  0
SEQEND
  0
SOLID
  8
2
 62
255
  6
L014100020032000000
 10
62.000000
 20
78.900000
 11
62.000000
 21
81.900000
 12
59.000000
 22
78.900000
 13
59.000000
 23
81.900000
  0
POLYLINE
  8
2
 62
7
  6
L014100020032000000
 70
1
 66
1
  0
VERTEX
 10
62.000000
 20
78.900000
 30
0.000000
  8
2
 62
7
  6
L014100020032000000
  0
VERTEX
 10
62.000000
 20
81.900000
 30
0.000000
  8
2
 62
7
  6
L014100020032000000
  0
VERTEX
 10
59.000000
 20
81.900000
 30
0.000000
  8
2
 62
7
  6
L014100020032000000
  0
VERTEX
 10
59.000000
 20
78.900000
 30
0.000000
  8
2
 62
7
  6
L014100020032000000
  0
SEQEND
  0
SOLID
  8
2
 62
255
  6
L014100020032000000
 10
66.000000
 20
78.900000
 11
66.000000
 21
81.900000
 12
63.000000
 22
78.900000
 13
63.000000
 23
81.900000
  0
POLYLINE
  8
2
 62
7
  6
L014100020032000000
 70
1
 66
1
  0
VERTEX
 10
66.000000
 20
78.900000
 30
0.000000
  8
2
 62
7
  6
L014100020032000000
  0
VERTEX
 10
66.000000
 20
81.900000
 30
0.000000
  8
2
 62
7
  6
L014100020032000000
  0
VERTEX
 10
63.000000
 20
81.900000
 30
0.000000
  8
2
 62
7
  6
L014100020032000000
  0
VERTEX
 10
63.000000
 20
78.900000
 30
0.000000
  8
2
 62
7
  6
L014100020032000000
  0
SEQEND
  0
SOLID
  8
2
 62
255
  6
CONTINUOUS
 10
14.300000
 20
75.000000
 11
14.300000
 21
78.100000
 12
23.300000
 22
75.000000
 13
23.300000
 23
78.100000
  0
POLYLINE
  8
2
 62
7
  6
CONTINUOUS
 70
1
 66
1
  0
VERTEX
 10
14.300000
 20
75.000000
 30
0.000000
  8
2
 62
7
  6
CONTINUOUS
  0
VERTEX
 10
14.300000
 20
78.100000
 30
0.000000
  8
2
 62
7
  6
CONTINUOUS
  0
VERTEX
 10
23.300000
 20
78.100000
 30
0.000000
  8
2
 62
7
  6
CONTINUOUS
  0
VERTEX
 10
23.300000
 20
75.000000
 30
0.000000
  8
2
 62
7
  6
CONTINUOUS
  0
SEQEND
  0
CIRCLE
  8
2
 62
7
  6
CONTINUOUS
 10
22.000000
 20
76.200000
 30
0.0
 40
0.300000
  0
CIRCLE
  8
2
 62
7
  6
CONTINUOUS
 10
22.000000
 20
76.900000
 30
0.0
 40
0.300000
  0
CIRCLE
  8
2
 62
7
  6
CONTINUOUS
 10
22.000000
 20
75.500000
 30
0.0
 40
0.300000
  0
CIRCLE
  8
2
 62
7
  6
CONTINUOUS
 10
22.000000
 20
77.600000
 30
0.0
 40
0.300000
  0
CIRCLE
  8
2
 62
7
  6
CONTINUOUS
 10
22.800000
 20
77.600000
 30
0.0
 40
0.300000
  0
CIRCLE
  8
2
 62
7
  6
CONTINUOUS
 10
22.800000
 20
76.900000
 30
0.0
 40
0.300000
  0
CIRCLE
  8
2
 62
7
  6
CONTINUOUS
 10
14.800000
 20
77.600000
 30
0.0
 40
0.300000
  0
CIRCLE
  8
2
 62
7
  6
CONTINUOUS
 10
15.600000
 20
77.600000
 30
0.0
 40
0.300000
  0
CIRCLE
  8
2
 62
7
  6
CONTINUOUS
 10
14.800000
 20
76.900000
 30
0.0
 40
0.300000
  0
CIRCLE
  8
2
 62
7
  6
CONTINUOUS
 10
15.600000
 20
76.900000
 30
0.0
 40
0.300000
  0
CIRCLE
  8
2
 62
7
  6
CONTINUOUS
 10
14.800000
 20
76.200000
 30
0.0
 40
0.300000
  0
CIRCLE
  8
2
 62
7
  6
CONTINUOUS
 10
14.800000
 20
75.500000
 30
0.0
 40
0.300000
  0
CIRCLE
  8
2
 62
7
  6
CONTINUOUS
 10
16.600000
 20
77.600000
 30
0.0
 40
0.300000
  0
CIRCLE
  8
2
 62
7
  6
CONTINUOUS
 10
17.400000
 20
77.600000
 30
0.0
 40
0.300000
  0
CIRCLE
  8
2
 62
7
  6
CONTINUOUS
 10
16.600000
 20
76.900000
 30
0.0
 40
0.300000
  0
CIRCLE
  8
2
 62
7
  6
CONTINUOUS
 10
17.400000
 20
76.900000
 30
0.0
 40
0.300000
  0
CIRCLE
  8
2
 62
7
  6
CONTINUOUS
 10
16.600000
 20
76.200000
 30
0.0
 40
0.300000
  0
CIRCLE
  8
2
 62
7
  6
CONTINUOUS
 10
16.600000
 20
75.500000
 30
0.0
 40
0.300000
  0
POLYLINE
  8
2
 62
7
  6
CONTINUOUS
 70
0
 66
1
  0
VERTEX
 10
16.100000
 20
78.100000
  8
2
 62
7
  6
CONTINUOUS
  0
VERTEX
 10
16.100000
 20
75.000000
  8
2
 62
7
  6
CONTINUOUS
  0
SEQEND
  0
POLYLINE
  8
2
 62
7
  6
CONTINUOUS
 70
0
 66
1
  0
VERTEX
 10
17.900000
 20
78.100000
  8
2
 62
7
  6
CONTINUOUS
  0
VERTEX
 10
17.900000
 20
75.000000
  8
2
 62
7
  6
CONTINUOUS
  0
SEQEND
  0
CIRCLE
  8
2
 62
7
  6
CONTINUOUS
 10
18.400000
 20
75.500000
 30
0.0
 40
0.300000
  0
CIRCLE
  8
2
 62
7
  6
CONTINUOUS
 10
18.400000
 20
76.200000
 30
0.0
 40
0.300000
  0
CIRCLE
  8
2
 62
7
  6
CONTINUOUS
 10
18.400000
 20
76.900000
 30
0.0
 40
0.300000
  0
CIRCLE
  8
2
 62
7
  6
CONTINUOUS
 10
18.400000
 20
77.600000
 30
0.0
 40
0.300000
  0
CIRCLE
  8
2
 62
7
  6
CONTINUOUS
 10
19.200000
 20
77.600000
 30
0.0
 40
0.300000
  0
CIRCLE
  8
2
 62
7
  6
CONTINUOUS
 10
19.200000
 20
76.900000
 30
0.0
 40
0.300000
  0
POLYLINE
  8
2
 62
7
  6
CONTINUOUS
 70
0
 66
1
  0
VERTEX
 10
21.500000
 20
78.100000
  8
2
 62
7
  6
CONTINUOUS
  0
VERTEX
 10
21.500000
 20
75.000000
  8
2
 62
7
  6
CONTINUOUS
  0
SEQEND
  0
CIRCLE
  8
2
 62
7
  6
CONTINUOUS
 10
20.200000
 20
77.600000
 30
0.0
 40
0.300000
  0
CIRCLE
  8
2
 62
7
  6
CONTINUOUS
 10
21.000000
 20
77.600000
 30
0.0
 40
0.300000
  0
CIRCLE
  8
2
 62
7
  6
CONTINUOUS
 10
20.200000
 20
76.900000
 30
0.0
 40
0.300000
  0
CIRCLE
  8
2
 62
7
  6
CONTINUOUS
 10
21.000000
 20
76.900000
 30
0.0
 40
0.300000
  0
CIRCLE
  8
2
 62
7
  6
CONTINUOUS
 10
20.200000
 20
76.200000
 30
0.0
 40
0.300000
  0
CIRCLE
  8
2
 62
7
  6
CONTINUOUS
 10
20.200000
 20
75.500000
 30
0.0
 40
0.300000
  0
POLYLINE
  8
2
 62
7
  6
CONTINUOUS
 70
0
 66
1
  0
VERTEX
 10
19.700000
 20
78.100000
  8
2
 62
7
  6
CONTINUOUS
  0
VERTEX
 10
19.700000
 20
75.000000
  8
2
 62
7
  6
CONTINUOUS
  0
SEQEND
  0
SOLID
  8
2
 62
255
  6
CONTINUOUS
 10
1.700000
 20
75.000000
 11
1.700000
 21
78.100000
 12
10.700000
 22
75.000000
 13
10.700000
 23
78.100000
  0
POLYLINE
  8
2
 62
7
  6
CONTINUOUS
 70
1
 66
1
  0
VERTEX
 10
1.700000
 20
75.000000
 30
0.000000
  8
2
 62
7
  6
CONTINUOUS
  0
VERTEX
 10
1.700000
 20
78.100000
 30
0.000000
  8
2
 62
7
  6
CONTINUOUS
  0
VERTEX
 10
10.700000
 20
78.100000
 30
0.000000
  8
2
 62
7
  6
CONTINUOUS
  0
VERTEX
 10
10.700000
 20
75.000000
 30
0.000000
  8
2
 62
7
  6
CONTINUOUS
  0
SEQEND
  0
CIRCLE
  8
2
 62
7
  6
CONTINUOUS
 10
9.400000
 20
76.200000
 30
0.0
 40
0.300000
  0
CIRCLE
  8
2
 62
7
  6
CONTINUOUS
 10
9.400000
 20
76.900000
 30
0.0
 40
0.300000
  0
CIRCLE
  8
2
 62
7
  6
CONTINUOUS
 10
9.400000
 20
75.500000
 30
0.0
 40
0.300000
  0
CIRCLE
  8
2
 62
7
  6
CONTINUOUS
 10
9.400000
 20
77.600000
 30
0.0
 40
0.300000
  0
CIRCLE
  8
2
 62
7
  6
CONTINUOUS
 10
10.200000
 20
77.600000
 30
0.0
 40
0.300000
  0
CIRCLE
  8
2
 62
7
  6
CONTINUOUS
 10
10.200000
 20
76.900000
 30
0.0
 40
0.300000
  0
CIRCLE
  8
2
 62
7
  6
CONTINUOUS
 10
2.200000
 20
77.600000
 30
0.0
 40
0.300000
  0
CIRCLE
  8
2
 62
7
  6
CONTINUOUS
 10
3.000000
 20
77.600000
 30
0.0
 40
0.300000
  0
CIRCLE
  8
2
 62
7
  6
CONTINUOUS
 10
2.200000
 20
76.900000
 30
0.0
 40
0.300000
  0
CIRCLE
  8
2
 62
7
  6
CONTINUOUS
 10
3.000000
 20
76.900000
 30
0.0
 40
0.300000
  0
CIRCLE
  8
2
 62
7
  6
CONTINUOUS
 10
2.200000
 20
76.200000
 30
0.0
 40
0.300000
  0
CIRCLE
  8
2
 62
7
  6
CONTINUOUS
 10
2.200000
 20
75.500000
 30
0.0
 40
0.300000
  0
CIRCLE
  8
2
 62
7
  6
CONTINUOUS
 10
4.000000
 20
77.600000
 30
0.0
 40
0.300000
  0
CIRCLE
  8
2
 62
7
  6
CONTINUOUS
 10
4.800000
 20
77.600000
 30
0.0
 40
0.300000
  0
CIRCLE
  8
2
 62
7
  6
CONTINUOUS
 10
4.000000
 20
76.900000
 30
0.0
 40
0.300000
  0
CIRCLE
  8
2
 62
7
  6
CONTINUOUS
 10
4.800000
 20
76.900000
 30
0.0
 40
0.300000
  0
CIRCLE
  8
2
 62
7
  6
CONTINUOUS
 10
4.000000
 20
76.200000
 30
0.0
 40
0.300000
  0
CIRCLE
  8
2
 62
7
  6
CONTINUOUS
 10
4.000000
 20
75.500000
 30
0.0
 40
0.300000
  0
POLYLINE
  8
2
 62
7
  6
CONTINUOUS
 70
0
 66
1
  0
VERTEX
 10
3.500000
 20
78.100000
  8
2
 62
7
  6
CONTINUOUS
  0
VERTEX
 10
3.500000
 20
75.000000
  8
2
 62
7
  6
CONTINUOUS
  0
SEQEND
  0
POLYLINE
  8
2
 62
7
  6
CONTINUOUS
 70
0
 66
1
  0
VERTEX
 10
5.300000
 20
78.100000
  8
2
 62
7
  6
CONTINUOUS
  0
VERTEX
 10
5.300000
 20
75.000000
  8
2
 62
7
  6
CONTINUOUS
  0
SEQEND
  0
CIRCLE
  8
2
 62
7
  6
CONTINUOUS
 10
5.800000
 20
75.500000
 30
0.0
 40
0.300000
  0
CIRCLE
  8
2
 62
7
  6
CONTINUOUS
 10
5.800000
 20
76.200000
 30
0.0
 40
0.300000
  0
CIRCLE
  8
2
 62
7
  6
CONTINUOUS
 10
5.800000
 20
76.900000
 30
0.0
 40
0.300000
  0
CIRCLE
  8
2
 62
7
  6
CONTINUOUS
 10
5.800000
 20
77.600000
 30
0.0
 40
0.300000
  0
CIRCLE
  8
2
 62
7
  6
CONTINUOUS
 10
6.600000
 20
77.600000
 30
0.0
 40
0.300000
  0
CIRCLE
  8
2
 62
7
  6
CONTINUOUS
 10
6.600000
 20
76.900000
 30
0.0
 40
0.300000
  0
POLYLINE
  8
2
 62
7
  6
CONTINUOUS
 70
0
 66
1
  0
VERTEX
 10
8.900000
 20
78.100000
  8
2
 62
7
  6
CONTINUOUS
  0
VERTEX
 10
8.900000
 20
75.000000
  8
2
 62
7
  6
CONTINUOUS
  0
SEQEND
  0
CIRCLE
  8
2
 62
7
  6
CONTINUOUS
 10
7.600000
 20
77.600000
 30
0.0
 40
0.300000
  0
CIRCLE
  8
2
 62
7
  6
CONTINUOUS
 10
8.400000
 20
77.600000
 30
0.0
 40
0.300000
  0
CIRCLE
  8
2
 62
7
  6
CONTINUOUS
 10
7.600000
 20
76.900000
 30
0.0
 40
0.300000
  0
CIRCLE
  8
2
 62
7
  6
CONTINUOUS
 10
8.400000
 20
76.900000
 30
0.0
 40
0.300000
  0
CIRCLE
  8
2
 62
7
  6
CONTINUOUS
 10
7.600000
 20
76.200000
 30
0.0
 40
0.300000
  0
CIRCLE
  8
2
 62
7
  6
CONTINUOUS
 10
7.600000
 20
75.500000
 30
0.0
 40
0.300000
  0
POLYLINE
  8
2
 62
7
  6
CONTINUOUS
 70
0
 66
1
  0
VERTEX
 10
7.100000
 20
78.100000
  8
2
 62
7
  6
CONTINUOUS
  0
VERTEX
 10
7.100000
 20
75.000000
  8
2
 62
7
  6
CONTINUOUS
  0
SEQEND
  0
SOLID
  8
2
 62
255
  6
CONTINUOUS
 10
39.300000
 20
75.000000
 11
39.300000
 21
78.100000
 12
48.300000
 22
75.000000
 13
48.300000
 23
78.100000
  0
POLYLINE
  8
2
 62
7
  6
CONTINUOUS
 70
1
 66
1
  0
VERTEX
 10
39.300000
 20
75.000000
 30
0.000000
  8
2
 62
7
  6
CONTINUOUS
  0
VERTEX
 10
39.300000
 20
78.100000
 30
0.000000
  8
2
 62
7
  6
CONTINUOUS
  0
VERTEX
 10
48.300000
 20
78.100000
 30
0.000000
  8
2
 62
7
  6
CONTINUOUS
  0
VERTEX
 10
48.300000
 20
75.000000
 30
0.000000
  8
2
 62
7
  6
CONTINUOUS
  0
SEQEND
  0
CIRCLE
  8
2
 62
7
  6
CONTINUOUS
 10
47.000000
 20
76.200000
 30
0.0
 40
0.300000
  0
CIRCLE
  8
2
 62
7
  6
CONTINUOUS
 10
47.000000
 20
76.900000
 30
0.0
 40
0.300000
  0
CIRCLE
  8
2
 62
7
  6
CONTINUOUS
 10
47.000000
 20
75.500000
 30
0.0
 40
0.300000
  0
CIRCLE
  8
2
 62
7
  6
CONTINUOUS
 10
47.000000
 20
77.600000
 30
0.0
 40
0.300000
  0
CIRCLE
  8
2
 62
7
  6
CONTINUOUS
 10
47.800000
 20
77.600000
 30
0.0
 40
0.300000
  0
CIRCLE
  8
2
 62
7
  6
CONTINUOUS
 10
47.800000
 20
76.900000
 30
0.0
 40
0.300000
  0
CIRCLE
  8
2
 62
7
  6
CONTINUOUS
 10
39.800000
 20
77.600000
 30
0.0
 40
0.300000
  0
CIRCLE
  8
2
 62
7
  6
CONTINUOUS
 10
40.600000
 20
77.600000
 30
0.0
 40
0.300000
  0
CIRCLE
  8
2
 62
7
  6
CONTINUOUS
 10
39.800000
 20
76.900000
 30
0.0
 40
0.300000
  0
CIRCLE
  8
2
 62
7
  6
CONTINUOUS
 10
40.600000
 20
76.900000
 30
0.0
 40
0.300000
  0
CIRCLE
  8
2
 62
7
  6
CONTINUOUS
 10
39.800000
 20
76.200000
 30
0.0
 40
0.300000
  0
CIRCLE
  8
2
 62
7
  6
CONTINUOUS
 10
39.800000
 20
75.500000
 30
0.0
 40
0.300000
  0
CIRCLE
  8
2
 62
7
  6
CONTINUOUS
 10
41.600000
 20
77.600000
 30
0.0
 40
0.300000
  0
CIRCLE
  8
2
 62
7
  6
CONTINUOUS
 10
42.400000
 20
77.600000
 30
0.0
 40
0.300000
  0
CIRCLE
  8
2
 62
7
  6
CONTINUOUS
 10
41.600000
 20
76.900000
 30
0.0
 40
0.300000
  0
CIRCLE
  8
2
 62
7
  6
CONTINUOUS
 10
42.400000
 20
76.900000
 30
0.0
 40
0.300000
  0
CIRCLE
  8
2
 62
7
  6
CONTINUOUS
 10
41.600000
 20
76.200000
 30
0.0
 40
0.300000
  0
CIRCLE
  8
2
 62
7
  6
CONTINUOUS
 10
41.600000
 20
75.500000
 30
0.0
 40
0.300000
  0
POLYLINE
  8
2
 62
7
  6
CONTINUOUS
 70
0
 66
1
  0
VERTEX
 10
41.100000
 20
78.100000
  8
2
 62
7
  6
CONTINUOUS
  0
VERTEX
 10
41.100000
 20
75.000000
  8
2
 62
7
  6
CONTINUOUS
  0
SEQEND
  0
POLYLINE
  8
2
 62
7
  6
CONTINUOUS
 70
0
 66
1
  0
VERTEX
 10
42.900000
 20
78.100000
  8
2
 62
7
  6
CONTINUOUS
  0
VERTEX
 10
42.900000
 20
75.000000
  8
2
 62
7
  6
CONTINUOUS
  0
SEQEND
  0
CIRCLE
  8
2
 62
7
  6
CONTINUOUS
 10
43.400000
 20
75.500000
 30
0.0
 40
0.300000
  0
CIRCLE
  8
2
 62
7
  6
CONTINUOUS
 10
43.400000
 20
76.200000
 30
0.0
 40
0.300000
  0
CIRCLE
  8
2
 62
7
  6
CONTINUOUS
 10
43.400000
 20
76.900000
 30
0.0
 40
0.300000
  0
CIRCLE
  8
2
 62
7
  6
CONTINUOUS
 10
43.400000
 20
77.600000
 30
0.0
 40
0.300000
  0
CIRCLE
  8
2
 62
7
  6
CONTINUOUS
 10
44.200000
 20
77.600000
 30
0.0
 40
0.300000
  0
CIRCLE
  8
2
 62
7
  6
CONTINUOUS
 10
44.200000
 20
76.900000
 30
0.0
 40
0.300000
  0
POLYLINE
  8
2
 62
7
  6
CONTINUOUS
 70
0
 66
1
  0
VERTEX
 10
46.500000
 20
78.100000
  8
2
 62
7
  6
CONTINUOUS
  0
VERTEX
 10
46.500000
 20
75.000000
  8
2
 62
7
  6
CONTINUOUS
  0
SEQEND
  0
CIRCLE
  8
2
 62
7
  6
CONTINUOUS
 10
45.200000
 20
77.600000
 30
0.0
 40
0.300000
  0
CIRCLE
  8
2
 62
7
  6
CONTINUOUS
 10
46.000000
 20
77.600000
 30
0.0
 40
0.300000
  0
CIRCLE
  8
2
 62
7
  6
CONTINUOUS
 10
45.200000
 20
76.900000
 30
0.0
 40
0.300000
  0
CIRCLE
  8
2
 62
7
  6
CONTINUOUS
 10
46.000000
 20
76.900000
 30
0.0
 40
0.300000
  0
CIRCLE
  8
2
 62
7
  6
CONTINUOUS
 10
45.200000
 20
76.200000
 30
0.0
 40
0.300000
  0
CIRCLE
  8
2
 62
7
  6
CONTINUOUS
 10
45.200000
 20
75.500000
 30
0.0
 40
0.300000
  0
POLYLINE
  8
2
 62
7
  6
CONTINUOUS
 70
0
 66
1
  0
VERTEX
 10
44.700000
 20
78.100000
  8
2
 62
7
  6
CONTINUOUS
  0
VERTEX
 10
44.700000
 20
75.000000
  8
2
 62
7
  6
CONTINUOUS
  0
SEQEND
  0
SOLID
  8
2
 62
255
  6
CONTINUOUS
 10
26.700000
 20
75.000000
 11
26.700000
 21
78.100000
 12
35.700000
 22
75.000000
 13
35.700000
 23
78.100000
  0
POLYLINE
  8
2
 62
7
  6
CONTINUOUS
 70
1
 66
1
  0
VERTEX
 10
26.700000
 20
75.000000
 30
0.000000
  8
2
 62
7
  6
CONTINUOUS
  0
VERTEX
 10
26.700000
 20
78.100000
 30
0.000000
  8
2
 62
7
  6
CONTINUOUS
  0
VERTEX
 10
35.700000
 20
78.100000
 30
0.000000
  8
2
 62
7
  6
CONTINUOUS
  0
VERTEX
 10
35.700000
 20
75.000000
 30
0.000000
  8
2
 62
7
  6
CONTINUOUS
  0
SEQEND
  0
CIRCLE
  8
2
 62
7
  6
CONTINUOUS
 10
34.400000
 20
76.200000
 30
0.0
 40
0.300000
  0
CIRCLE
  8
2
 62
7
  6
CONTINUOUS
 10
34.400000
 20
76.900000
 30
0.0
 40
0.300000
  0
CIRCLE
  8
2
 62
7
  6
CONTINUOUS
 10
34.400000
 20
75.500000
 30
0.0
 40
0.300000
  0
CIRCLE
  8
2
 62
7
  6
CONTINUOUS
 10
34.400000
 20
77.600000
 30
0.0
 40
0.300000
  0
CIRCLE
  8
2
 62
7
  6
CONTINUOUS
 10
35.200000
 20
77.600000
 30
0.0
 40
0.300000
  0
CIRCLE
  8
2
 62
7
  6
CONTINUOUS
 10
35.200000
 20
76.900000
 30
0.0
 40
0.300000
  0
CIRCLE
  8
2
 62
7
  6
CONTINUOUS
 10
27.200000
 20
77.600000
 30
0.0
 40
0.300000
  0
CIRCLE
  8
2
 62
7
  6
CONTINUOUS
 10
28.000000
 20
77.600000
 30
0.0
 40
0.300000
  0
CIRCLE
  8
2
 62
7
  6
CONTINUOUS
 10
27.200000
 20
76.900000
 30
0.0
 40
0.300000
  0
CIRCLE
  8
2
 62
7
  6
CONTINUOUS
 10
28.000000
 20
76.900000
 30
0.0
 40
0.300000
  0
CIRCLE
  8
2
 62
7
  6
CONTINUOUS
 10
27.200000
 20
76.200000
 30
0.0
 40
0.300000
  0
CIRCLE
  8
2
 62
7
  6
CONTINUOUS
 10
27.200000
 20
75.500000
 30
0.0
 40
0.300000
  0
CIRCLE
  8
2
 62
7
  6
CONTINUOUS
 10
29.000000
 20
77.600000
 30
0.0
 40
0.300000
  0
CIRCLE
  8
2
 62
7
  6
CONTINUOUS
 10
29.800000
 20
77.600000
 30
0.0
 40
0.300000
  0
CIRCLE
  8
2
 62
7
  6
CONTINUOUS
 10
29.000000
 20
76.900000
 30
0.0
 40
0.300000
  0
CIRCLE
  8
2
 62
7
  6
CONTINUOUS
 10
29.800000
 20
76.900000
 30
0.0
 40
0.300000
  0
CIRCLE
  8
2
 62
7
  6
CONTINUOUS
 10
29.000000
 20
76.200000
 30
0.0
 40
0.300000
  0
CIRCLE
  8
2
 62
7
  6
CONTINUOUS
 10
29.000000
 20
75.500000
 30
0.0
 40
0.300000
  0
POLYLINE
  8
2
 62
7
  6
CONTINUOUS
 70
0
 66
1
  0
VERTEX
 10
28.500000
 20
78.100000
  8
2
 62
7
  6
CONTINUOUS
  0
VERTEX
 10
28.500000
 20
75.000000
  8
2
 62
7
  6
CONTINUOUS
  0
SEQEND
  0
POLYLINE
  8
2
 62
7
  6
CONTINUOUS
 70
0
 66
1
  0
VERTEX
 10
30.300000
 20
78.100000
  8
2
 62
7
  6
CONTINUOUS
  0
VERTEX
 10
30.300000
 20
75.000000
  8
2
 62
7
  6
CONTINUOUS
  0
SEQEND
  0
CIRCLE
  8
2
 62
7
  6
CONTINUOUS
 10
30.800000
 20
75.500000
 30
0.0
 40
0.300000
  0
CIRCLE
  8
2
 62
7
  6
CONTINUOUS
 10
30.800000
 20
76.200000
 30
0.0
 40
0.300000
  0
CIRCLE
  8
2
 62
7
  6
CONTINUOUS
 10
30.800000
 20
76.900000
 30
0.0
 40
0.300000
  0
CIRCLE
  8
2
 62
7
  6
CONTINUOUS
 10
30.800000
 20
77.600000
 30
0.0
 40
0.300000
  0
CIRCLE
  8
2
 62
7
  6
CONTINUOUS
 10
31.600000
 20
77.600000
 30
0.0
 40
0.300000
  0
CIRCLE
  8
2
 62
7
  6
CONTINUOUS
 10
31.600000
 20
76.900000
 30
0.0
 40
0.300000
  0
POLYLINE
  8
2
 62
7
  6
CONTINUOUS
 70
0
 66
1
  0
VERTEX
 10
33.900000
 20
78.100000
  8
2
 62
7
  6
CONTINUOUS
  0
VERTEX
 10
33.900000
 20
75.000000
  8
2
 62
7
  6
CONTINUOUS
  0
SEQEND
  0
CIRCLE
  8
2
 62
7
  6
CONTINUOUS
 10
32.600000
 20
77.600000
 30
0.0
 40
0.300000
  0
CIRCLE
  8
2
 62
7
  6
CONTINUOUS
 10
33.400000
 20
77.600000
 30
0.0
 40
0.300000
  0
CIRCLE
  8
2
 62
7
  6
CONTINUOUS
 10
32.600000
 20
76.900000
 30
0.0
 40
0.300000
  0
CIRCLE
  8
2
 62
7
  6
CONTINUOUS
 10
33.400000
 20
76.900000
 30
0.0
 40
0.300000
  0
CIRCLE
  8
2
 62
7
  6
CONTINUOUS
 10
32.600000
 20
76.200000
 30
0.0
 40
0.300000
  0
CIRCLE
  8
2
 62
7
  6
CONTINUOUS
 10
32.600000
 20
75.500000
 30
0.0
 40
0.300000
  0
POLYLINE
  8
2
 62
7
  6
CONTINUOUS
 70
0
 66
1
  0
VERTEX
 10
32.100000
 20
78.100000
  8
2
 62
7
  6
CONTINUOUS
  0
VERTEX
 10
32.100000
 20
75.000000
  8
2
 62
7
  6
CONTINUOUS
  0
SEQEND
  0
SOLID
  8
2
 62
255
  6
CONTINUOUS
 10
64.300000
 20
75.000000
 11
64.300000
 21
78.100000
 12
73.300000
 22
75.000000
 13
73.300000
 23
78.100000
  0
POLYLINE
  8
2
 62
7
  6
CONTINUOUS
 70
1
 66
1
  0
VERTEX
 10
64.300000
 20
75.000000
 30
0.000000
  8
2
 62
7
  6
CONTINUOUS
  0
VERTEX
 10
64.300000
 20
78.100000
 30
0.000000
  8
2
 62
7
  6
CONTINUOUS
  0
VERTEX
 10
73.300000
 20
78.100000
 30
0.000000
  8
2
 62
7
  6
CONTINUOUS
  0
VERTEX
 10
73.300000
 20
75.000000
 30
0.000000
  8
2
 62
7
  6
CONTINUOUS
  0
SEQEND
  0
CIRCLE
  8
2
 62
7
  6
CONTINUOUS
 10
72.000000
 20
76.200000
 30
0.0
 40
0.300000
  0
CIRCLE
  8
2
 62
7
  6
CONTINUOUS
 10
72.000000
 20
76.900000
 30
0.0
 40
0.300000
  0
CIRCLE
  8
2
 62
7
  6
CONTINUOUS
 10
72.000000
 20
75.500000
 30
0.0
 40
0.300000
  0
CIRCLE
  8
2
 62
7
  6
CONTINUOUS
 10
72.000000
 20
77.600000
 30
0.0
 40
0.300000
  0
CIRCLE
  8
2
 62
7
  6
CONTINUOUS
 10
72.800000
 20
77.600000
 30
0.0
 40
0.300000
  0
CIRCLE
  8
2
 62
7
  6
CONTINUOUS
 10
72.800000
 20
76.900000
 30
0.0
 40
0.300000
  0
CIRCLE
  8
2
 62
7
  6
CONTINUOUS
 10
64.800000
 20
77.600000
 30
0.0
 40
0.300000
  0
CIRCLE
  8
2
 62
7
  6
CONTINUOUS
 10
65.600000
 20
77.600000
 30
0.0
 40
0.300000
  0
CIRCLE
  8
2
 62
7
  6
CONTINUOUS
 10
64.800000
 20
76.900000
 30
0.0
 40
0.300000
  0
CIRCLE
  8
2
 62
7
  6
CONTINUOUS
 10
65.600000
 20
76.900000
 30
0.0
 40
0.300000
  0
CIRCLE
  8
2
 62
7
  6
CONTINUOUS
 10
64.800000
 20
76.200000
 30
0.0
 40
0.300000
  0
CIRCLE
  8
2
 62
7
  6
CONTINUOUS
 10
64.800000
 20
75.500000
 30
0.0
 40
0.300000
  0
CIRCLE
  8
2
 62
7
  6
CONTINUOUS
 10
66.600000
 20
77.600000
 30
0.0
 40
0.300000
  0
CIRCLE
  8
2
 62
7
  6
CONTINUOUS
 10
67.400000
 20
77.600000
 30
0.0
 40
0.300000
  0
CIRCLE
  8
2
 62
7
  6
CONTINUOUS
 10
66.600000
 20
76.900000
 30
0.0
 40
0.300000
  0
CIRCLE
  8
2
 62
7
  6
CONTINUOUS
 10
67.400000
 20
76.900000
 30
0.0
 40
0.300000
  0
CIRCLE
  8
2
 62
7
  6
CONTINUOUS
 10
66.600000
 20
76.200000
 30
0.0
 40
0.300000
  0
CIRCLE
  8
2
 62
7
  6
CONTINUOUS
 10
66.600000
 20
75.500000
 30
0.0
 40
0.300000
  0
POLYLINE
  8
2
 62
7
  6
CONTINUOUS
 70
0
 66
1
  0
VERTEX
 10
66.100000
 20
78.100000
  8
2
 62
7
  6
CONTINUOUS
  0
VERTEX
 10
66.100000
 20
75.000000
  8
2
 62
7
  6
CONTINUOUS
  0
SEQEND
  0
POLYLINE
  8
2
 62
7
  6
CONTINUOUS
 70
0
 66
1
  0
VERTEX
 10
67.900000
 20
78.100000
  8
2
 62
7
  6
CONTINUOUS
  0
VERTEX
 10
67.900000
 20
75.000000
  8
2
 62
7
  6
CONTINUOUS
  0
SEQEND
  0
CIRCLE
  8
2
 62
7
  6
CONTINUOUS
 10
68.400000
 20
75.500000
 30
0.0
 40
0.300000
  0
CIRCLE
  8
2
 62
7
  6
CONTINUOUS
 10
68.400000
 20
76.200000
 30
0.0
 40
0.300000
  0
CIRCLE
  8
2
 62
7
  6
CONTINUOUS
 10
68.400000
 20
76.900000
 30
0.0
 40
0.300000
  0
CIRCLE
  8
2
 62
7
  6
CONTINUOUS
 10
68.400000
 20
77.600000
 30
0.0
 40
0.300000
  0
CIRCLE
  8
2
 62
7
  6
CONTINUOUS
 10
69.200000
 20
77.600000
 30
0.0
 40
0.300000
  0
CIRCLE
  8
2
 62
7
  6
CONTINUOUS
 10
69.200000
 20
76.900000
 30
0.0
 40
0.300000
  0
POLYLINE
  8
2
 62
7
  6
CONTINUOUS
 70
0
 66
1
  0
VERTEX
 10
71.500000
 20
78.100000
  8
2
 62
7
  6
CONTINUOUS
  0
VERTEX
 10
71.500000
 20
75.000000
  8
2
 62
7
  6
CONTINUOUS
  0
SEQEND
  0
CIRCLE
  8
2
 62
7
  6
CONTINUOUS
 10
70.200000
 20
77.600000
 30
0.0
 40
0.300000
  0
CIRCLE
  8
2
 62
7
  6
CONTINUOUS
 10
71.000000
 20
77.600000
 30
0.0
 40
0.300000
  0
CIRCLE
  8
2
 62
7
  6
CONTINUOUS
 10
70.200000
 20
76.900000
 30
0.0
 40
0.300000
  0
CIRCLE
  8
2
 62
7
  6
CONTINUOUS
 10
71.000000
 20
76.900000
 30
0.0
 40
0.300000
  0
CIRCLE
  8
2
 62
7
  6
CONTINUOUS
 10
70.200000
 20
76.200000
 30
0.0
 40
0.300000
  0
CIRCLE
  8
2
 62
7
  6
CONTINUOUS
 10
70.200000
 20
75.500000
 30
0.0
 40
0.300000
  0
POLYLINE
  8
2
 62
7
  6
CONTINUOUS
 70
0
 66
1
  0
VERTEX
 10
69.700000
 20
78.100000
  8
2
 62
7
  6
CONTINUOUS
  0
VERTEX
 10
69.700000
 20
75.000000
  8
2
 62
7
  6
CONTINUOUS
  0
SEQEND
  0
SOLID
  8
2
 62
255
  6
CONTINUOUS
 10
51.700000
 20
75.000000
 11
51.700000
 21
78.100000
 12
60.700000
 22
75.000000
 13
60.700000
 23
78.100000
  0
POLYLINE
  8
2
 62
7
  6
CONTINUOUS
 70
1
 66
1
  0
VERTEX
 10
51.700000
 20
75.000000
 30
0.000000
  8
2
 62
7
  6
CONTINUOUS
  0
VERTEX
 10
51.700000
 20
78.100000
 30
0.000000
  8
2
 62
7
  6
CONTINUOUS
  0
VERTEX
 10
60.700000
 20
78.100000
 30
0.000000
  8
2
 62
7
  6
CONTINUOUS
  0
VERTEX
 10
60.700000
 20
75.000000
 30
0.000000
  8
2
 62
7
  6
CONTINUOUS
  0
SEQEND
  0
CIRCLE
  8
2
 62
7
  6
CONTINUOUS
 10
59.400000
 20
76.200000
 30
0.0
 40
0.300000
  0
CIRCLE
  8
2
 62
7
  6
CONTINUOUS
 10
59.400000
 20
76.900000
 30
0.0
 40
0.300000
  0
CIRCLE
  8
2
 62
7
  6
CONTINUOUS
 10
59.400000
 20
75.500000
 30
0.0
 40
0.300000
  0
CIRCLE
  8
2
 62
7
  6
CONTINUOUS
 10
59.400000
 20
77.600000
 30
0.0
 40
0.300000
  0
CIRCLE
  8
2
 62
7
  6
CONTINUOUS
 10
60.200000
 20
77.600000
 30
0.0
 40
0.300000
  0
CIRCLE
  8
2
 62
7
  6
CONTINUOUS
 10
60.200000
 20
76.900000
 30
0.0
 40
0.300000
  0
CIRCLE
  8
2
 62
7
  6
CONTINUOUS
 10
52.200000
 20
77.600000
 30
0.0
 40
0.300000
  0
CIRCLE
  8
2
 62
7
  6
CONTINUOUS
 10
53.000000
 20
77.600000
 30
0.0
 40
0.300000
  0
CIRCLE
  8
2
 62
7
  6
CONTINUOUS
 10
52.200000
 20
76.900000
 30
0.0
 40
0.300000
  0
CIRCLE
  8
2
 62
7
  6
CONTINUOUS
 10
53.000000
 20
76.900000
 30
0.0
 40
0.300000
  0
CIRCLE
  8
2
 62
7
  6
CONTINUOUS
 10
52.200000
 20
76.200000
 30
0.0
 40
0.300000
  0
CIRCLE
  8
2
 62
7
  6
CONTINUOUS
 10
52.200000
 20
75.500000
 30
0.0
 40
0.300000
  0
CIRCLE
  8
2
 62
7
  6
CONTINUOUS
 10
54.000000
 20
77.600000
 30
0.0
 40
0.300000
  0
CIRCLE
  8
2
 62
7
  6
CONTINUOUS
 10
54.800000
 20
77.600000
 30
0.0
 40
0.300000
  0
CIRCLE
  8
2
 62
7
  6
CONTINUOUS
 10
54.000000
 20
76.900000
 30
0.0
 40
0.300000
  0
CIRCLE
  8
2
 62
7
  6
CONTINUOUS
 10
54.800000
 20
76.900000
 30
0.0
 40
0.300000
  0
CIRCLE
  8
2
 62
7
  6
CONTINUOUS
 10
54.000000
 20
76.200000
 30
0.0
 40
0.300000
  0
CIRCLE
  8
2
 62
7
  6
CONTINUOUS
 10
54.000000
 20
75.500000
 30
0.0
 40
0.300000
  0
POLYLINE
  8
2
 62
7
  6
CONTINUOUS
 70
0
 66
1
  0
VERTEX
 10
53.500000
 20
78.100000
  8
2
 62
7
  6
CONTINUOUS
  0
VERTEX
 10
53.500000
 20
75.000000
  8
2
 62
7
  6
CONTINUOUS
  0
SEQEND
  0
POLYLINE
  8
2
 62
7
  6
CONTINUOUS
 70
0
 66
1
  0
VERTEX
 10
55.300000
 20
78.100000
  8
2
 62
7
  6
CONTINUOUS
  0
VERTEX
 10
55.300000
 20
75.000000
  8
2
 62
7
  6
CONTINUOUS
  0
SEQEND
  0
CIRCLE
  8
2
 62
7
  6
CONTINUOUS
 10
55.800000
 20
75.500000
 30
0.0
 40
0.300000
  0
CIRCLE
  8
2
 62
7
  6
CONTINUOUS
 10
55.800000
 20
76.200000
 30
0.0
 40
0.300000
  0
CIRCLE
  8
2
 62
7
  6
CONTINUOUS
 10
55.800000
 20
76.900000
 30
0.0
 40
0.300000
  0
CIRCLE
  8
2
 62
7
  6
CONTINUOUS
 10
55.800000
 20
77.600000
 30
0.0
 40
0.300000
  0
CIRCLE
  8
2
 62
7
  6
CONTINUOUS
 10
56.600000
 20
77.600000
 30
0.0
 40
0.300000
  0
CIRCLE
  8
2
 62
7
  6
CONTINUOUS
 10
56.600000
 20
76.900000
 30
0.0
 40
0.300000
  0
POLYLINE
  8
2
 62
7
  6
CONTINUOUS
 70
0
 66
1
  0
VERTEX
 10
58.900000
 20
78.100000
  8
2
 62
7
  6
CONTINUOUS
  0
VERTEX
 10
58.900000
 20
75.000000
  8
2
 62
7
  6
CONTINUOUS
  0
SEQEND
  0
CIRCLE
  8
2
 62
7
  6
CONTINUOUS
 10
57.600000
 20
77.600000
 30
0.0
 40
0.300000
  0
CIRCLE
  8
2
 62
7
  6
CONTINUOUS
 10
58.400000
 20
77.600000
 30
0.0
 40
0.300000
  0
CIRCLE
  8
2
 62
7
  6
CONTINUOUS
 10
57.600000
 20
76.900000
 30
0.0
 40
0.300000
  0
CIRCLE
  8
2
 62
7
  6
CONTINUOUS
 10
58.400000
 20
76.900000
 30
0.0
 40
0.300000
  0
CIRCLE
  8
2
 62
7
  6
CONTINUOUS
 10
57.600000
 20
76.200000
 30
0.0
 40
0.300000
  0
CIRCLE
  8
2
 62
7
  6
CONTINUOUS
 10
57.600000
 20
75.500000
 30
0.0
 40
0.300000
  0
POLYLINE
  8
2
 62
7
  6
CONTINUOUS
 70
0
 66
1
  0
VERTEX
 10
57.100000
 20
78.100000
  8
2
 62
7
  6
CONTINUOUS
  0
VERTEX
 10
57.100000
 20
75.000000
  8
2
 62
7
  6
CONTINUOUS
  0
SEQEND
  0
SOLID
  8
2
 62
7
  6
CONTINUOUS
 10
3.400000
 20
47.700000
 11
3.400000
 21
51.000000
 12
2.700000
 22
47.700000
 13
2.700000
 23
51.000000
  0
POLYLINE
  8
2
 62
7
  6
CONTINUOUS
 70
1
 66
1
  0
VERTEX
 10
3.400000
 20
47.700000
 30
0.000000
  8
2
 62
7
  6
CONTINUOUS
  0
VERTEX
 10
3.400000
 20
51.000000
 30
0.000000
  8
2
 62
7
  6
CONTINUOUS
  0
VERTEX
 10
2.700000
 20
51.000000
 30
0.000000
  8
2
 62
7
  6
CONTINUOUS
  0
VERTEX
 10
2.700000
 20
47.700000
 30
0.000000
  8
2
 62
7
  6
CONTINUOUS
  0
SEQEND
  0
POLYLINE
  8
2
 62
7
  6
L000000040000000000
 70
0
 66
1
  0
VERTEX
 10
3.100000
 20
50.000000
  8
2
 62
7
  6
L000000040000000000
  0
VERTEX
 10
3.100000
 20
61.900000
  8
2
 62
7
  6
L000000040000000000
  0
VERTEX
 10
9.000000
 20
61.900000
  8
2
 62
7
  6
L000000040000000000
  0
SEQEND
  0
SOLID
  8
2
 62
7
  6
CONTINUOUS
 10
10.000000
 20
61.400000
 11
10.000000
 21
62.400000
 12
9.000000
 22
61.400000
 13
9.000000
 23
62.400000
  0
POLYLINE
  8
2
 62
7
  6
CONTINUOUS
 70
1
 66
1
  0
VERTEX
 10
10.000000
 20
61.400000
 30
0.000000
  8
2
 62
7
  6
CONTINUOUS
  0
VERTEX
 10
10.000000
 20
62.400000
 30
0.000000
  8
2
 62
7
  6
CONTINUOUS
  0
VERTEX
 10
9.000000
 20
62.400000
 30
0.000000
  8
2
 62
7
  6
CONTINUOUS
  0
VERTEX
 10
9.000000
 20
61.400000
 30
0.000000
  8
2
 62
7
  6
CONTINUOUS
  0
SEQEND
  0
SOLID
  8
2
 62
7
  6
CONTINUOUS
 10
15.400000
 20
47.700000
 11
15.400000
 21
51.000000
 12
14.700000
 22
47.700000
 13
14.700000
 23
51.000000
  0
POLYLINE
  8
2
 62
7
  6
CONTINUOUS
 70
1
 66
1
  0
VERTEX
 10
15.400000
 20
47.700000
 30
0.000000
  8
2
 62
7
  6
CONTINUOUS
  0
VERTEX
 10
15.400000
 20
51.000000
 30
0.000000
  8
2
 62
7
  6
CONTINUOUS
  0
VERTEX
 10
14.700000
 20
51.000000
 30
0.000000
  8
2
 62
7
  6
CONTINUOUS
  0
VERTEX
 10
14.700000
 20
47.700000
 30
0.000000
  8
2
 62
7
  6
CONTINUOUS
  0
SEQEND
  0
POLYLINE
  8
2
 62
7
  6
L000000040000000000
 70
0
 66
1
  0
VERTEX
 10
15.100000
 20
50.000000
  8
2
 62
7
  6
L000000040000000000
  0
VERTEX
 10
15.100000
 20
61.900000
  8
2
 62
7
  6
L000000040000000000
  0
VERTEX
 10
21.000000
 20
61.900000
  8
2
 62
7
  6
L000000040000000000
  0
SEQEND
  0
SOLID
  8
2
 62
7
  6
CONTINUOUS
 10
22.000000
 20
61.400000
 11
22.000000
 21
62.400000
 12
21.000000
 22
61.400000
 13
21.000000
 23
62.400000
  0
POLYLINE
  8
2
 62
7
  6
CONTINUOUS
 70
1
 66
1
  0
VERTEX
 10
22.000000
 20
61.400000
 30
0.000000
  8
2
 62
7
  6
CONTINUOUS
  0
VERTEX
 10
22.000000
 20
62.400000
 30
0.000000
  8
2
 62
7
  6
CONTINUOUS
  0
VERTEX
 10
21.000000
 20
62.400000
 30
0.000000
  8
2
 62
7
  6
CONTINUOUS
  0
VERTEX
 10
21.000000
 20
61.400000
 30
0.000000
  8
2
 62
7
  6
CONTINUOUS
  0
SEQEND
  0
SOLID
  8
2
 62
7
  6
CONTINUOUS
 10
28.400000
 20
47.700000
 11
28.400000
 21
51.000000
 12
27.700000
 22
47.700000
 13
27.700000
 23
51.000000
  0
POLYLINE
  8
2
 62
7
  6
CONTINUOUS
 70
1
 66
1
  0
VERTEX
 10
28.400000
 20
47.700000
 30
0.000000
  8
2
 62
7
  6
CONTINUOUS
  0
VERTEX
 10
28.400000
 20
51.000000
 30
0.000000
  8
2
 62
7
  6
CONTINUOUS
  0
VERTEX
 10
27.700000
 20
51.000000
 30
0.000000
  8
2
 62
7
  6
CONTINUOUS
  0
VERTEX
 10
27.700000
 20
47.700000
 30
0.000000
  8
2
 62
7
  6
CONTINUOUS
  0
SEQEND
  0
POLYLINE
  8
2
 62
7
  6
L000000040000000000
 70
0
 66
1
  0
VERTEX
 10
28.100000
 20
50.000000
  8
2
 62
7
  6
L000000040000000000
  0
VERTEX
 10
28.100000
 20
61.900000
  8
2
 62
7
  6
L000000040000000000
  0
VERTEX
 10
34.000000
 20
61.900000
  8
2
 62
7
  6
L000000040000000000
  0
SEQEND
  0
SOLID
  8
2
 62
7
  6
CONTINUOUS
 10
35.000000
 20
61.400000
 11
35.000000
 21
62.400000
 12
34.000000
 22
61.400000
 13
34.000000
 23
62.400000
  0
POLYLINE
  8
2
 62
7
  6
CONTINUOUS
 70
1
 66
1
  0
VERTEX
 10
35.000000
 20
61.400000
 30
0.000000
  8
2
 62
7
  6
CONTINUOUS
  0
VERTEX
 10
35.000000
 20
62.400000
 30
0.000000
  8
2
 62
7
  6
CONTINUOUS
  0
VERTEX
 10
34.000000
 20
62.400000
 30
0.000000
  8
2
 62
7
  6
CONTINUOUS
  0
VERTEX
 10
34.000000
 20
61.400000
 30
0.000000
  8
2
 62
7
  6
CONTINUOUS
  0
SEQEND
  0
SOLID
  8
2
 62
7
  6
CONTINUOUS
 10
40.400000
 20
47.700000
 11
40.400000
 21
51.000000
 12
39.700000
 22
47.700000
 13
39.700000
 23
51.000000
  0
POLYLINE
  8
2
 62
7
  6
CONTINUOUS
 70
1
 66
1
  0
VERTEX
 10
40.400000
 20
47.700000
 30
0.000000
  8
2
 62
7
  6
CONTINUOUS
  0
VERTEX
 10
40.400000
 20
51.000000
 30
0.000000
  8
2
 62
7
  6
CONTINUOUS
  0
VERTEX
 10
39.700000
 20
51.000000
 30
0.000000
  8
2
 62
7
  6
CONTINUOUS
  0
VERTEX
 10
39.700000
 20
47.700000
 30
0.000000
  8
2
 62
7
  6
CONTINUOUS
  0
SEQEND
  0
POLYLINE
  8
2
 62
7
  6
L000000040000000000
 70
0
 66
1
  0
VERTEX
 10
40.100000
 20
50.000000
  8
2
 62
7
  6
L000000040000000000
  0
VERTEX
 10
40.100000
 20
61.900000
  8
2
 62
7
  6
L000000040000000000
  0
VERTEX
 10
46.000000
 20
61.900000
  8
2
 62
7
  6
L000000040000000000
  0
SEQEND
  0
SOLID
  8
2
 62
7
  6
CONTINUOUS
 10
47.000000
 20
61.400000
 11
47.000000
 21
62.400000
 12
46.000000
 22
61.400000
 13
46.000000
 23
62.400000
  0
POLYLINE
  8
2
 62
7
  6
CONTINUOUS
 70
1
 66
1
  0
VERTEX
 10
47.000000
 20
61.400000
 30
0.000000
  8
2
 62
7
  6
CONTINUOUS
  0
VERTEX
 10
47.000000
 20
62.400000
 30
0.000000
  8
2
 62
7
  6
CONTINUOUS
  0
VERTEX
 10
46.000000
 20
62.400000
 30
0.000000
  8
2
 62
7
  6
CONTINUOUS
  0
VERTEX
 10
46.000000
 20
61.400000
 30
0.000000
  8
2
 62
7
  6
CONTINUOUS
  0
SEQEND
  0
SOLID
  8
2
 62
7
  6
CONTINUOUS
 10
53.400000
 20
47.700000
 11
53.400000
 21
51.000000
 12
52.700000
 22
47.700000
 13
52.700000
 23
51.000000
  0
POLYLINE
  8
2
 62
7
  6
CONTINUOUS
 70
1
 66
1
  0
VERTEX
 10
53.400000
 20
47.700000
 30
0.000000
  8
2
 62
7
  6
CONTINUOUS
  0
VERTEX
 10
53.400000
 20
51.000000
 30
0.000000
  8
2
 62
7
  6
CONTINUOUS
  0
VERTEX
 10
52.700000
 20
51.000000
 30
0.000000
  8
2
 62
7
  6
CONTINUOUS
  0
VERTEX
 10
52.700000
 20
47.700000
 30
0.000000
  8
2
 62
7
  6
CONTINUOUS
  0
SEQEND
  0
POLYLINE
  8
2
 62
7
  6
L000000040000000000
 70
0
 66
1
  0
VERTEX
 10
53.100000
 20
50.000000
  8
2
 62
7
  6
L000000040000000000
  0
VERTEX
 10
53.100000
 20
61.900000
  8
2
 62
7
  6
L000000040000000000
  0
VERTEX
 10
59.000000
 20
61.900000
  8
2
 62
7
  6
L000000040000000000
  0
SEQEND
  0
SOLID
  8
2
 62
7
  6
CONTINUOUS
 10
60.000000
 20
61.400000
 11
60.000000
 21
62.400000
 12
59.000000
 22
61.400000
 13
59.000000
 23
62.400000
  0
POLYLINE
  8
2
 62
7
  6
CONTINUOUS
 70
1
 66
1
  0
VERTEX
 10
60.000000
 20
61.400000
 30
0.000000
  8
2
 62
7
  6
CONTINUOUS
  0
VERTEX
 10
60.000000
 20
62.400000
 30
0.000000
  8
2
 62
7
  6
CONTINUOUS
  0
VERTEX
 10
59.000000
 20
62.400000
 30
0.000000
  8
2
 62
7
  6
CONTINUOUS
  0
VERTEX
 10
59.000000
 20
61.400000
 30
0.000000
  8
2
 62
7
  6
CONTINUOUS
  0
SEQEND
  0
SOLID
  8
2
 62
7
  6
CONTINUOUS
 10
65.400000
 20
47.700000
 11
65.400000
 21
51.000000
 12
64.700000
 22
47.700000
 13
64.700000
 23
51.000000
  0
POLYLINE
  8
2
 62
7
  6
CONTINUOUS
 70
1
 66
1
  0
VERTEX
 10
65.400000
 20
47.700000
 30
0.000000
  8
2
 62
7
  6
CONTINUOUS
  0
VERTEX
 10
65.400000
 20
51.000000
 30
0.000000
  8
2
 62
7
  6
CONTINUOUS
  0
VERTEX
 10
64.700000
 20
51.000000
 30
0.000000
  8
2
 62
7
  6
CONTINUOUS
  0
VERTEX
 10
64.700000
 20
47.700000
 30
0.000000
  8
2
 62
7
  6
CONTINUOUS
  0
SEQEND
  0
POLYLINE
  8
2
 62
7
  6
L000000040000000000
 70
0
 66
1
  0
VERTEX
 10
65.100000
 20
50.000000
  8
2
 62
7
  6
L000000040000000000
  0
VERTEX
 10
65.100000
 20
61.900000
  8
2
 62
7
  6
L000000040000000000
  0
VERTEX
 10
71.000000
 20
61.900000
  8
2
 62
7
  6
L000000040000000000
  0
SEQEND
  0
SOLID
  8
2
 62
7
  6
CONTINUOUS
 10
72.000000
 20
61.400000
 11
72.000000
 21
62.400000
 12
71.000000
 22
61.400000
 13
71.000000
 23
62.400000
  0
POLYLINE
  8
2
 62
7
  6
CONTINUOUS
 70
1
 66
1
  0
VERTEX
 10
72.000000
 20
61.400000
 30
0.000000
  8
2
 62
7
  6
CONTINUOUS
  0
VERTEX
 10
72.000000
 20
62.400000
 30
0.000000
  8
2
 62
7
  6
CONTINUOUS
  0
VERTEX
 10
71.000000
 20
62.400000
 30
0.000000
  8
2
 62
7
  6
CONTINUOUS
  0
VERTEX
 10
71.000000
 20
61.400000
 30
0.000000
  8
2
 62
7
  6
CONTINUOUS
  0
SEQEND
  0
SOLID
  8
30
 62
255
  6
CONTINUOUS
 10
26.700000
 20
5.700000
 11
26.700000
 21
28.200000
 12
23.300000
 22
5.700000
 13
23.300000
 23
28.200000
  0
POLYLINE
  8
30
 62
7
  6
CONTINUOUS
 70
1
 66
1
  0
VERTEX
 10
26.700000
 20
5.700000
 30
0.000000
  8
30
 62
7
  6
CONTINUOUS
  0
VERTEX
 10
26.700000
 20
28.200000
 30
0.000000
  8
30
 62
7
  6
CONTINUOUS
  0
VERTEX
 10
23.300000
 20
28.200000
 30
0.000000
  8
30
 62
7
  6
CONTINUOUS
  0
VERTEX
 10
23.300000
 20
5.700000
 30
0.000000
  8
30
 62
7
  6
CONTINUOUS
  0
SEQEND
  0
SOLID
  8
30
 62
255
  6
CONTINUOUS
 10
1.700000
 20
5.700000
 11
1.700000
 21
28.200000
 12
0.700000
 22
5.700000
 13
0.700000
 23
28.200000
  0
POLYLINE
  8
30
 62
7
  6
CONTINUOUS
 70
1
 66
1
  0
VERTEX
 10
1.700000
 20
5.700000
 30
0.000000
  8
30
 62
7
  6
CONTINUOUS
  0
VERTEX
 10
1.700000
 20
28.200000
 30
0.000000
  8
30
 62
7
  6
CONTINUOUS
  0
VERTEX
 10
0.700000
 20
28.200000
 30
0.000000
  8
30
 62
7
  6
CONTINUOUS
  0
VERTEX
 10
0.700000
 20
5.700000
 30
0.000000
  8
30
 62
7
  6
CONTINUOUS
  0
SEQEND
  0
SOLID
  8
30
 62
255
  6
CONTINUOUS
 10
74.300000
 20
5.700000
 11
74.300000
 21
28.200000
 12
73.300000
 22
5.700000
 13
73.300000
 23
28.200000
  0
POLYLINE
  8
30
 62
7
  6
CONTINUOUS
 70
1
 66
1
  0
VERTEX
 10
74.300000
 20
5.700000
 30
0.000000
  8
30
 62
7
  6
CONTINUOUS
  0
VERTEX
 10
74.300000
 20
28.200000
 30
0.000000
  8
30
 62
7
  6
CONTINUOUS
  0
VERTEX
 10
73.300000
 20
28.200000
 30
0.000000
  8
30
 62
7
  6
CONTINUOUS
  0
VERTEX
 10
73.300000
 20
5.700000
 30
0.000000
  8
30
 62
7
  6
CONTINUOUS
  0
SEQEND
  0
SOLID
  8
30
 62
255
  6
CONTINUOUS
 10
51.700000
 20
5.700000
 11
51.700000
 21
28.200000
 12
48.300000
 22
5.700000
 13
48.300000
 23
28.200000
  0
POLYLINE
  8
30
 62
7
  6
CONTINUOUS
 70
1
 66
1
  0
VERTEX
 10
51.700000
 20
5.700000
 30
0.000000
  8
30
 62
7
  6
CONTINUOUS
  0
VERTEX
 10
51.700000
 20
28.200000
 30
0.000000
  8
30
 62
7
  6
CONTINUOUS
  0
VERTEX
 10
48.300000
 20
28.200000
 30
0.000000
  8
30
 62
7
  6
CONTINUOUS
  0
VERTEX
 10
48.300000
 20
5.700000
 30
0.000000
  8
30
 62
7
  6
CONTINUOUS
  0
SEQEND
  0
SOLID
  8
157
 62
255
  6
CONTINUOUS
 10
14.300000
 20
75.000000
 11
14.300000
 21
78.100000
 12
23.300000
 22
75.000000
 13
23.300000
 23
78.100000
  0
POLYLINE
  8
157
 62
7
  6
CONTINUOUS
 70
1
 66
1
  0
VERTEX
 10
14.300000
 20
75.000000
 30
0.000000
  8
157
 62
7
  6
CONTINUOUS
  0
VERTEX
 10
14.300000
 20
78.100000
 30
0.000000
  8
157
 62
7
  6
CONTINUOUS
  0
VERTEX
 10
23.300000
 20
78.100000
 30
0.000000
  8
157
 62
7
  6
CONTINUOUS
  0
VERTEX
 10
23.300000
 20
75.000000
 30
0.000000
  8
157
 62
7
  6
CONTINUOUS
  0
SEQEND
  0
POLYLINE
  8
157
 62
7
  6
CONTINUOUS
 70
0
 66
1
  0
VERTEX
 10
21.500000
 20
78.100000
  8
157
 62
7
  6
CONTINUOUS
  0
VERTEX
 10
21.500000
 20
75.000000
  8
157
 62
7
  6
CONTINUOUS
  0
SEQEND
  0
POLYLINE
  8
157
 62
7
  6
CONTINUOUS
 70
0
 66
1
  0
VERTEX
 10
19.700000
 20
78.100000
  8
157
 62
7
  6
CONTINUOUS
  0
VERTEX
 10
19.700000
 20
75.000000
  8
157
 62
7
  6
CONTINUOUS
  0
SEQEND
  0
POLYLINE
  8
157
 62
7
  6
CONTINUOUS
 70
0
 66
1
  0
VERTEX
 10
17.900000
 20
78.100000
  8
157
 62
7
  6
CONTINUOUS
  0
VERTEX
 10
17.900000
 20
75.000000
  8
157
 62
7
  6
CONTINUOUS
  0
SEQEND
  0
POLYLINE
  8
157
 62
7
  6
CONTINUOUS
 70
0
 66
1
  0
VERTEX
 10
16.100000
 20
78.100000
  8
157
 62
7
  6
CONTINUOUS
  0
VERTEX
 10
16.100000
 20
75.000000
  8
157
 62
7
  6
CONTINUOUS
  0
SEQEND
  0
SOLID
  8
157
 62
255
  6
CONTINUOUS
 10
1.700000
 20
75.000000
 11
1.700000
 21
78.100000
 12
10.700000
 22
75.000000
 13
10.700000
 23
78.100000
  0
POLYLINE
  8
157
 62
7
  6
CONTINUOUS
 70
1
 66
1
  0
VERTEX
 10
1.700000
 20
75.000000
 30
0.000000
  8
157
 62
7
  6
CONTINUOUS
  0
VERTEX
 10
1.700000
 20
78.100000
 30
0.000000
  8
157
 62
7
  6
CONTINUOUS
  0
VERTEX
 10
10.700000
 20
78.100000
 30
0.000000
  8
157
 62
7
  6
CONTINUOUS
  0
VERTEX
 10
10.700000
 20
75.000000
 30
0.000000
  8
157
 62
7
  6
CONTINUOUS
  0
SEQEND
  0
POLYLINE
  8
157
 62
7
  6
CONTINUOUS
 70
0
 66
1
  0
VERTEX
 10
8.900000
 20
78.100000
  8
157
 62
7
  6
CONTINUOUS
  0
VERTEX
 10
8.900000
 20
75.000000
  8
157
 62
7
  6
CONTINUOUS
  0
SEQEND
  0
POLYLINE
  8
157
 62
7
  6
CONTINUOUS
 70
0
 66
1
  0
VERTEX
 10
7.100000
 20
78.100000
  8
157
 62
7
  6
CONTINUOUS
  0
VERTEX
 10
7.100000
 20
75.000000
  8
157
 62
7
  6
CONTINUOUS
  0
SEQEND
  0
POLYLINE
  8
157
 62
7
  6
CONTINUOUS
 70
0
 66
1
  0
VERTEX
 10
5.300000
 20
78.100000
  8
157
 62
7
  6
CONTINUOUS
  0
VERTEX
 10
5.300000
 20
75.000000
  8
157
 62
7
  6
CONTINUOUS
  0
SEQEND
  0
POLYLINE
  8
157
 62
7
  6
CONTINUOUS
 70
0
 66
1
  0
VERTEX
 10
3.500000
 20
78.100000
  8
157
 62
7
  6
CONTINUOUS
  0
VERTEX
 10
3.500000
 20
75.000000
  8
157
 62
7
  6
CONTINUOUS
  0
SEQEND
  0
SOLID
  8
157
 62
255
  6
CONTINUOUS
 10
39.300000
 20
75.000000
 11
39.300000
 21
78.100000
 12
48.300000
 22
75.000000
 13
48.300000
 23
78.100000
  0
POLYLINE
  8
157
 62
7
  6
CONTINUOUS
 70
1
 66
1
  0
VERTEX
 10
39.300000
 20
75.000000
 30
0.000000
  8
157
 62
7
  6
CONTINUOUS
  0
VERTEX
 10
39.300000
 20
78.100000
 30
0.000000
  8
157
 62
7
  6
CONTINUOUS
  0
VERTEX
 10
48.300000
 20
78.100000
 30
0.000000
  8
157
 62
7
  6
CONTINUOUS
  0
VERTEX
 10
48.300000
 20
75.000000
 30
0.000000
  8
157
 62
7
  6
CONTINUOUS
  0
SEQEND
  0
POLYLINE
  8
157
 62
7
  6
CONTINUOUS
 70
0
 66
1
  0
VERTEX
 10
46.500000
 20
78.100000
  8
157
 62
7
  6
CONTINUOUS
  0
VERTEX
 10
46.500000
 20
75.000000
  8
157
 62
7
  6
CONTINUOUS
  0
SEQEND
  0
POLYLINE
  8
157
 62
7
  6
CONTINUOUS
 70
0
 66
1
  0
VERTEX
 10
44.700000
 20
78.100000
  8
157
 62
7
  6
CONTINUOUS
  0
VERTEX
 10
44.700000
 20
75.000000
  8
157
 62
7
  6
CONTINUOUS
  0
SEQEND
  0
POLYLINE
  8
157
 62
7
  6
CONTINUOUS
 70
0
 66
1
  0
VERTEX
 10
42.900000
 20
78.100000
  8
157
 62
7
  6
CONTINUOUS
  0
VERTEX
 10
42.900000
 20
75.000000
  8
157
 62
7
  6
CONTINUOUS
  0
SEQEND
  0
POLYLINE
  8
157
 62
7
  6
CONTINUOUS
 70
0
 66
1
  0
VERTEX
 10
41.100000
 20
78.100000
  8
157
 62
7
  6
CONTINUOUS
  0
VERTEX
 10
41.100000
 20
75.000000
  8
157
 62
7
  6
CONTINUOUS
  0
SEQEND
  0
SOLID
  8
157
 62
255
  6
CONTINUOUS
 10
26.700000
 20
75.000000
 11
26.700000
 21
78.100000
 12
35.700000
 22
75.000000
 13
35.700000
 23
78.100000
  0
POLYLINE
  8
157
 62
7
  6
CONTINUOUS
 70
1
 66
1
  0
VERTEX
 10
26.700000
 20
75.000000
 30
0.000000
  8
157
 62
7
  6
CONTINUOUS
  0
VERTEX
 10
26.700000
 20
78.100000
 30
0.000000
  8
157
 62
7
  6
CONTINUOUS
  0
VERTEX
 10
35.700000
 20
78.100000
 30
0.000000
  8
157
 62
7
  6
CONTINUOUS
  0
VERTEX
 10
35.700000
 20
75.000000
 30
0.000000
  8
157
 62
7
  6
CONTINUOUS
  0
SEQEND
  0
POLYLINE
  8
157
 62
7
  6
CONTINUOUS
 70
0
 66
1
  0
VERTEX
 10
33.900000
 20
78.100000
  8
157
 62
7
  6
CONTINUOUS
  0
VERTEX
 10
33.900000
 20
75.000000
  8
157
 62
7
  6
CONTINUOUS
  0
SEQEND
  0
POLYLINE
  8
157
 62
7
  6
CONTINUOUS
 70
0
 66
1
  0
VERTEX
 10
32.100000
 20
78.100000
  8
157
 62
7
  6
CONTINUOUS
  0
VERTEX
 10
32.100000
 20
75.000000
  8
157
 62
7
  6
CONTINUOUS
  0
SEQEND
  0
POLYLINE
  8
157
 62
7
  6
CONTINUOUS
 70
0
 66
1
  0
VERTEX
 10
30.300000
 20
78.100000
  8
157
 62
7
  6
CONTINUOUS
  0
VERTEX
 10
30.300000
 20
75.000000
  8
157
 62
7
  6
CONTINUOUS
  0
SEQEND
  0
POLYLINE
  8
157
 62
7
  6
CONTINUOUS
 70
0
 66
1
  0
VERTEX
 10
28.500000
 20
78.100000
  8
157
 62
7
  6
CONTINUOUS
  0
VERTEX
 10
28.500000
 20
75.000000
  8
157
 62
7
  6
CONTINUOUS
  0
SEQEND
  0
SOLID
  8
157
 62
255
  6
CONTINUOUS
 10
64.300000
 20
75.000000
 11
64.300000
 21
78.100000
 12
73.300000
 22
75.000000
 13
73.300000
 23
78.100000
  0
POLYLINE
  8
157
 62
7
  6
CONTINUOUS
 70
1
 66
1
  0
VERTEX
 10
64.300000
 20
75.000000
 30
0.000000
  8
157
 62
7
  6
CONTINUOUS
  0
VERTEX
 10
64.300000
 20
78.100000
 30
0.000000
  8
157
 62
7
  6
CONTINUOUS
  0
VERTEX
 10
73.300000
 20
78.100000
 30
0.000000
  8
157
 62
7
  6
CONTINUOUS
  0
VERTEX
 10
73.300000
 20
75.000000
 30
0.000000
  8
157
 62
7
  6
CONTINUOUS
  0
SEQEND
  0
POLYLINE
  8
157
 62
7
  6
CONTINUOUS
 70
0
 66
1
  0
VERTEX
 10
71.500000
 20
78.100000
  8
157
 62
7
  6
CONTINUOUS
  0
VERTEX
 10
71.500000
 20
75.000000
  8
157
 62
7
  6
CONTINUOUS
  0
SEQEND
  0
POLYLINE
  8
157
 62
7
  6
CONTINUOUS
 70
0
 66
1
  0
VERTEX
 10
69.700000
 20
78.100000
  8
157
 62
7
  6
CONTINUOUS
  0
VERTEX
 10
69.700000
 20
75.000000
  8
157
 62
7
  6
CONTINUOUS
  0
SEQEND
  0
POLYLINE
  8
157
 62
7
  6
CONTINUOUS
 70
0
 66
1
  0
VERTEX
 10
67.900000
 20
78.100000
  8
157
 62
7
  6
CONTINUOUS
  0
VERTEX
 10
67.900000
 20
75.000000
  8
157
 62
7
  6
CONTINUOUS
  0
SEQEND
  0
POLYLINE
  8
157
 62
7
  6
CONTINUOUS
 70
0
 66
1
  0
VERTEX
 10
66.100000
 20
78.100000
  8
157
 62
7
  6
CONTINUOUS
  0
VERTEX
 10
66.100000
 20
75.000000
  8
157
 62
7
  6
CONTINUOUS
  0
SEQEND
  0
SOLID
  8
157
 62
255
  6
CONTINUOUS
 10
51.700000
 20
75.000000
 11
51.700000
 21
78.100000
 12
60.700000
 22
75.000000
 13
60.700000
 23
78.100000
  0
POLYLINE
  8
157
 62
7
  6
CONTINUOUS
 70
1
 66
1
  0
VERTEX
 10
51.700000
 20
75.000000
 30
0.000000
  8
157
 62
7
  6
CONTINUOUS
  0
VERTEX
 10
51.700000
 20
78.100000
 30
0.000000
  8
157
 62
7
  6
CONTINUOUS
  0
VERTEX
 10
60.700000
 20
78.100000
 30
0.000000
  8
157
 62
7
  6
CONTINUOUS
  0
VERTEX
 10
60.700000
 20
75.000000
 30
0.000000
  8
157
 62
7
  6
CONTINUOUS
  0
SEQEND
  0
POLYLINE
  8
157
 62
7
  6
CONTINUOUS
 70
0
 66
1
  0
VERTEX
 10
58.900000
 20
78.100000
  8
157
 62
7
  6
CONTINUOUS
  0
VERTEX
 10
58.900000
 20
75.000000
  8
157
 62
7
  6
CONTINUOUS
  0
SEQEND
  0
POLYLINE
  8
157
 62
7
  6
CONTINUOUS
 70
0
 66
1
  0
VERTEX
 10
57.100000
 20
78.100000
  8
157
 62
7
  6
CONTINUOUS
  0
VERTEX
 10
57.100000
 20
75.000000
  8
157
 62
7
  6
CONTINUOUS
  0
SEQEND
  0
POLYLINE
  8
157
 62
7
  6
CONTINUOUS
 70
0
 66
1
  0
VERTEX
 10
55.300000
 20
78.100000
  8
157
 62
7
  6
CONTINUOUS
  0
VERTEX
 10
55.300000
 20
75.000000
  8
157
 62
7
  6
CONTINUOUS
  0
SEQEND
  0
POLYLINE
  8
157
 62
7
  6
CONTINUOUS
 70
0
 66
1
  0
VERTEX
 10
53.500000
 20
78.100000
  8
157
 62
7
  6
CONTINUOUS
  0
VERTEX
 10
53.500000
 20
75.000000
  8
157
 62
7
  6
CONTINUOUS
  0
SEQEND
  0
LINE
  8
158
 62
7
  6
L000000040000000000
 10
18.700000
 20
17.300000
 11
18.700000
 21
38.900000
  0
LINE
  8
158
 62
7
  6
CONTINUOUS
 10
19.700000
 20
35.100000
 11
17.700000
 21
33.100000
  0
LINE
  8
158
 62
7
  6
CONTINUOUS
 10
19.700000
 20
36.100000
 11
17.700000
 21
34.100000
  0
LINE
  8
158
 62
7
  6
CONTINUOUS
 10
19.700000
 20
34.100000
 11
17.700000
 21
32.100000
  0
LINE
  8
158
 62
7
  6
CONTINUOUS
 10
19.700000
 20
35.100000
 11
17.700000
 21
33.100000
  0
LINE
  8
158
 62
7
  6
CONTINUOUS
 10
19.700000
 20
36.100000
 11
17.700000
 21
34.100000
  0
LINE
  8
158
 62
7
  6
CONTINUOUS
 10
19.700000
 20
34.100000
 11
17.700000
 21
32.100000
  0
LINE
  8
158
 62
5
  6
L000000040000FF0000
 10
20.200000
 20
76.400000
 11
20.200000
 21
53.900000
  0
LINE
  8
158
 62
3
  6
L00000004000000FF00
 10
23.700000
 20
73.500000
 11
23.700000
 21
5.200000
  0
LINE
  8
158
 62
255
  6
L00000004000000007F
 10
18.400000
 20
53.900000
 11
18.400000
 21
76.400000
  0
LINE
  8
158
 62
255
  6
L00000004000000007F
 10
14.800000
 20
74.400000
 11
18.400000
 21
74.400000
  0
LINE
  8
158
 62
255
  6
L00000004000000007F
 10
14.800000
 20
76.400000
 11
14.800000
 21
74.400000
  0
LINE
  8
158
 62
255
  6
L00000004000000007F
 10
16.600000
 20
74.400000
 11
16.600000
 21
76.400000
  0
LINE
  8
158
 62
7
  6
CONTINUOUS
 10
19.400000
 20
57.700000
 11
17.400000
 21
55.700000
  0
LINE
  8
158
 62
7
  6
CONTINUOUS
 10
19.400000
 20
58.700000
 11
17.400000
 21
56.700000
  0
LINE
  8
158
 62
7
  6
CONTINUOUS
 10
19.400000
 20
56.700000
 11
17.400000
 21
54.700000
  0
LINE
  8
158
 62
7
  6
CONTINUOUS
 10
19.400000
 20
57.700000
 11
17.400000
 21
55.700000
  0
LINE
  8
158
 62
7
  6
CONTINUOUS
 10
19.400000
 20
58.700000
 11
17.400000
 21
56.700000
  0
LINE
  8
158
 62
7
  6
CONTINUOUS
 10
19.400000
 20
56.700000
 11
17.400000
 21
54.700000
  0
LINE
  8
158
 62
5
  6
L000000040000FF0000
 10
19.900000
 20
38.900000
 11
19.900000
 21
25.300000
  0
LINE
  8
158
 62
7
  6
L000000040000000000
 10
5.100000
 20
17.300000
 11
5.100000
 21
38.900000
  0
LINE
  8
158
 62
7
  6
CONTINUOUS
 10
6.000000
 20
35.800000
 11
4.000000
 21
33.800000
  0
LINE
  8
158
 62
7
  6
CONTINUOUS
 10
6.000000
 20
36.800000
 11
4.000000
 21
34.800000
  0
LINE
  8
158
 62
7
  6
CONTINUOUS
 10
6.000000
 20
34.800000
 11
4.000000
 21
32.800000
  0
LINE
  8
158
 62
7
  6
CONTINUOUS
 10
6.000000
 20
35.800000
 11
4.000000
 21
33.800000
  0
LINE
  8
158
 62
7
  6
CONTINUOUS
 10
6.000000
 20
36.800000
 11
4.000000
 21
34.800000
  0
LINE
  8
158
 62
7
  6
CONTINUOUS
 10
6.000000
 20
34.800000
 11
4.000000
 21
32.800000
  0
LINE
  8
158
 62
5
  6
L000000040000FF0000
 10
6.500000
 20
25.300000
 11
6.500000
 21
38.800000
  0
LINE
  8
158
 62
3
  6
L00000004000000FF00
 10
1.300000
 20
73.400000
 11
1.300000
 21
5.200000
  0
LINE
  8
158
 62
3
  6
L00000004000000FF00
 10
9.400000
 20
73.400000
 11
1.300000
 21
73.400000
  0
LINE
  8
158
 62
255
  6
L00000004000000007F
 10
5.800000
 20
74.400000
 11
2.200000
 21
74.400000
  0
LINE
  8
158
 62
255
  6
L00000004000000007F
 10
4.000000
 20
76.400000
 11
4.000000
 21
74.400000
  0
LINE
  8
158
 62
255
  6
L00000004000000007F
 10
2.200000
 20
74.400000
 11
2.200000
 21
76.400000
  0
LINE
  8
158
 62
7
  6
CONTINUOUS
 10
6.700000
 20
57.800000
 11
4.700000
 21
55.800000
  0
LINE
  8
158
 62
7
  6
CONTINUOUS
 10
6.700000
 20
58.800000
 11
4.700000
 21
56.800000
  0
LINE
  8
158
 62
7
  6
CONTINUOUS
 10
6.700000
 20
56.800000
 11
4.700000
 21
54.800000
  0
LINE
  8
158
 62
7
  6
CONTINUOUS
 10
6.700000
 20
57.800000
 11
4.700000
 21
55.800000
  0
LINE
  8
158
 62
7
  6
CONTINUOUS
 10
6.700000
 20
58.800000
 11
4.700000
 21
56.800000
  0
LINE
  8
158
 62
7
  6
CONTINUOUS
 10
6.700000
 20
56.800000
 11
4.700000
 21
54.800000
  0
LINE
  8
158
 62
5
  6
L000000040000FF0000
 10
7.600000
 20
76.400000
 11
7.600000
 21
53.900000
  0
LINE
  8
158
 62
3
  6
L00000004000000FF00
 10
22.000000
 20
73.500000
 11
23.700000
 21
73.500000
  0
LINE
  8
158
 62
3
  6
L00000004000000FF00
 10
22.000000
 20
73.500000
 11
22.000000
 21
76.400000
  0
LINE
  8
158
 62
3
  6
L00000004000000FF00
 10
9.400000
 20
73.400000
 11
9.400000
 21
76.400000
  0
LINE
  8
158
 62
255
  6
L00000004000000007F
 10
5.800000
 20
53.900000
 11
5.800000
 21
76.400000
  0
SOLID
  8
158
 62
255
  6
CONTINUOUS
 10
7.100000
 20
25.400000
 11
7.100000
 21
23.200000
 12
5.900000
 22
25.400000
 13
5.900000
 23
23.200000
  0
POLYLINE
  8
158
 62
7
  6
CONTINUOUS
 70
1
 66
1
  0
VERTEX
 10
7.100000
 20
25.400000
 30
0.000000
  8
158
 62
7
  6
CONTINUOUS
  0
VERTEX
 10
7.100000
 20
23.200000
 30
0.000000
  8
158
 62
7
  6
CONTINUOUS
  0
VERTEX
 10
5.900000
 20
23.200000
 30
0.000000
  8
158
 62
7
  6
CONTINUOUS
  0
VERTEX
 10
5.900000
 20
25.400000
 30
0.000000
  8
158
 62
7
  6
CONTINUOUS
  0
SEQEND
  0
CIRCLE
  8
158
 62
7
  6
CONTINUOUS
 10
6.500000
 20
24.300000
 30
0.0
 40
0.500000
  0
LINE
  8
158
 62
7
  6
CONTINUOUS
 10
7.000000
 20
24.300000
 11
6.000000
 21
24.300000
  0
SOLID
  8
158
 62
255
  6
CONTINUOUS
 10
20.600000
 20
25.400000
 11
20.600000
 21
23.200000
 12
19.400000
 22
25.400000
 13
19.400000
 23
23.200000
  0
POLYLINE
  8
158
 62
7
  6
CONTINUOUS
 70
1
 66
1
  0
VERTEX
 10
20.600000
 20
25.400000
 30
0.000000
  8
158
 62
7
  6
CONTINUOUS
  0
VERTEX
 10
20.600000
 20
23.200000
 30
0.000000
  8
158
 62
7
  6
CONTINUOUS
  0
VERTEX
 10
19.400000
 20
23.200000
 30
0.000000
  8
158
 62
7
  6
CONTINUOUS
  0
VERTEX
 10
19.400000
 20
25.400000
 30
0.000000
  8
158
 62
7
  6
CONTINUOUS
  0
SEQEND
  0
LINE
  8
158
 62
7
  6
CONTINUOUS
 10
20.500000
 20
24.300000
 11
19.500000
 21
24.300000
  0
CIRCLE
  8
158
 62
7
  6
CONTINUOUS
 10
20.000000
 20
24.300000
 30
0.0
 40
0.500000
  0
LINE
  8
158
 62
3
  6
L00000004000000FF00
 10
20.600000
 20
5.200000
 11
20.600000
 21
6.700000
  0
LINE
  8
158
 62
3
  6
L00000004000000FF00
 10
20.600000
 20
5.200000
 11
23.700000
 21
5.200000
  0
LINE
  8
158
 62
3
  6
L00000004000000FF00
 10
4.400000
 20
5.200000
 11
4.400000
 21
6.700000
  0
SOLID
  8
158
 62
255
  6
CONTINUOUS
 10
5.000000
 20
8.900000
 11
5.000000
 21
6.700000
 12
3.800000
 22
8.900000
 13
3.800000
 23
6.700000
  0
POLYLINE
  8
158
 62
7
  6
CONTINUOUS
 70
1
 66
1
  0
VERTEX
 10
5.000000
 20
8.900000
 30
0.000000
  8
158
 62
7
  6
CONTINUOUS
  0
VERTEX
 10
5.000000
 20
6.700000
 30
0.000000
  8
158
 62
7
  6
CONTINUOUS
  0
VERTEX
 10
3.800000
 20
6.700000
 30
0.000000
  8
158
 62
7
  6
CONTINUOUS
  0
VERTEX
 10
3.800000
 20
8.900000
 30
0.000000
  8
158
 62
7
  6
CONTINUOUS
  0
SEQEND
  0
CIRCLE
  8
158
 62
7
  6
CONTINUOUS
 10
4.400000
 20
7.800000
 30
0.0
 40
0.500000
  0
LINE
  8
158
 62
7
  6
CONTINUOUS
 10
4.900000
 20
7.800000
 11
3.900000
 21
7.800000
  0
SOLID
  8
158
 62
255
  6
CONTINUOUS
 10
21.200000
 20
8.900000
 11
21.200000
 21
6.700000
 12
20.000000
 22
8.900000
 13
20.000000
 23
6.700000
  0
POLYLINE
  8
158
 62
7
  6
CONTINUOUS
 70
1
 66
1
  0
VERTEX
 10
21.200000
 20
8.900000
 30
0.000000
  8
158
 62
7
  6
CONTINUOUS
  0
VERTEX
 10
21.200000
 20
6.700000
 30
0.000000
  8
158
 62
7
  6
CONTINUOUS
  0
VERTEX
 10
20.000000
 20
6.700000
 30
0.000000
  8
158
 62
7
  6
CONTINUOUS
  0
VERTEX
 10
20.000000
 20
8.900000
 30
0.000000
  8
158
 62
7
  6
CONTINUOUS
  0
SEQEND
  0
CIRCLE
  8
158
 62
7
  6
CONTINUOUS
 10
20.600000
 20
7.800000
 30
0.0
 40
0.500000
  0
LINE
  8
158
 62
7
  6
CONTINUOUS
 10
21.100000
 20
7.800000
 11
20.100000
 21
7.800000
  0
LINE
  8
158
 62
3
  6
L00000004000000FF00
 10
1.300000
 20
5.200000
 11
4.400000
 21
5.200000
  0
LINE
  8
158
 62
7
  6
L000000040000000000
 10
43.700000
 20
17.300000
 11
43.700000
 21
38.900000
  0
LINE
  8
158
 62
7
  6
CONTINUOUS
 10
44.700000
 20
35.100000
 11
42.700000
 21
33.100000
  0
LINE
  8
158
 62
7
  6
CONTINUOUS
 10
44.700000
 20
36.100000
 11
42.700000
 21
34.100000
  0
LINE
  8
158
 62
7
  6
CONTINUOUS
 10
44.700000
 20
34.100000
 11
42.700000
 21
32.100000
  0
LINE
  8
158
 62
7
  6
CONTINUOUS
 10
44.700000
 20
35.100000
 11
42.700000
 21
33.100000
  0
LINE
  8
158
 62
7
  6
CONTINUOUS
 10
44.700000
 20
36.100000
 11
42.700000
 21
34.100000
  0
LINE
  8
158
 62
7
  6
CONTINUOUS
 10
44.700000
 20
34.100000
 11
42.700000
 21
32.100000
  0
LINE
  8
158
 62
5
  6
L000000040000FF0000
 10
45.200000
 20
76.400000
 11
45.200000
 21
53.900000
  0
LINE
  8
158
 62
3
  6
L00000004000000FF00
 10
48.700000
 20
73.500000
 11
48.700000
 21
5.200000
  0
LINE
  8
158
 62
255
  6
L00000004000000007F
 10
43.400000
 20
53.900000
 11
43.400000
 21
76.400000
  0
LINE
  8
158
 62
255
  6
L00000004000000007F
 10
39.800000
 20
74.400000
 11
43.400000
 21
74.400000
  0
LINE
  8
158
 62
255
  6
L00000004000000007F
 10
39.800000
 20
76.400000
 11
39.800000
 21
74.400000
  0
LINE
  8
158
 62
255
  6
L00000004000000007F
 10
41.600000
 20
74.400000
 11
41.600000
 21
76.400000
  0
LINE
  8
158
 62
7
  6
CONTINUOUS
 10
44.400000
 20
57.700000
 11
42.400000
 21
55.700000
  0
LINE
  8
158
 62
7
  6
CONTINUOUS
 10
44.400000
 20
58.700000
 11
42.400000
 21
56.700000
  0
LINE
  8
158
 62
7
  6
CONTINUOUS
 10
44.400000
 20
56.700000
 11
42.400000
 21
54.700000
  0
LINE
  8
158
 62
7
  6
CONTINUOUS
 10
44.400000
 20
57.700000
 11
42.400000
 21
55.700000
  0
LINE
  8
158
 62
7
  6
CONTINUOUS
 10
44.400000
 20
58.700000
 11
42.400000
 21
56.700000
  0
LINE
  8
158
 62
7
  6
CONTINUOUS
 10
44.400000
 20
56.700000
 11
42.400000
 21
54.700000
  0
LINE
  8
158
 62
5
  6
L000000040000FF0000
 10
44.900000
 20
38.900000
 11
44.900000
 21
25.300000
  0
LINE
  8
158
 62
7
  6
L000000040000000000
 10
30.100000
 20
17.300000
 11
30.100000
 21
38.900000
  0
LINE
  8
158
 62
7
  6
CONTINUOUS
 10
31.000000
 20
35.800000
 11
29.000000
 21
33.800000
  0
LINE
  8
158
 62
7
  6
CONTINUOUS
 10
31.000000
 20
36.800000
 11
29.000000
 21
34.800000
  0
LINE
  8
158
 62
7
  6
CONTINUOUS
 10
31.000000
 20
34.800000
 11
29.000000
 21
32.800000
  0
LINE
  8
158
 62
7
  6
CONTINUOUS
 10
31.000000
 20
35.800000
 11
29.000000
 21
33.800000
  0
LINE
  8
158
 62
7
  6
CONTINUOUS
 10
31.000000
 20
36.800000
 11
29.000000
 21
34.800000
  0
LINE
  8
158
 62
7
  6
CONTINUOUS
 10
31.000000
 20
34.800000
 11
29.000000
 21
32.800000
  0
LINE
  8
158
 62
5
  6
L000000040000FF0000
 10
31.500000
 20
25.300000
 11
31.500000
 21
38.800000
  0
LINE
  8
158
 62
3
  6
L00000004000000FF00
 10
26.300000
 20
73.400000
 11
26.300000
 21
5.200000
  0
LINE
  8
158
 62
3
  6
L00000004000000FF00
 10
34.400000
 20
73.400000
 11
26.300000
 21
73.400000
  0
LINE
  8
158
 62
255
  6
L00000004000000007F
 10
30.800000
 20
74.400000
 11
27.200000
 21
74.400000
  0
LINE
  8
158
 62
255
  6
L00000004000000007F
 10
29.000000
 20
76.400000
 11
29.000000
 21
74.400000
  0
LINE
  8
158
 62
255
  6
L00000004000000007F
 10
27.200000
 20
74.400000
 11
27.200000
 21
76.400000
  0
LINE
  8
158
 62
7
  6
CONTINUOUS
 10
31.700000
 20
57.800000
 11
29.700000
 21
55.800000
  0
LINE
  8
158
 62
7
  6
CONTINUOUS
 10
31.700000
 20
58.800000
 11
29.700000
 21
56.800000
  0
LINE
  8
158
 62
7
  6
CONTINUOUS
 10
31.700000
 20
56.800000
 11
29.700000
 21
54.800000
  0
LINE
  8
158
 62
7
  6
CONTINUOUS
 10
31.700000
 20
57.800000
 11
29.700000
 21
55.800000
  0
LINE
  8
158
 62
7
  6
CONTINUOUS
 10
31.700000
 20
58.800000
 11
29.700000
 21
56.800000
  0
LINE
  8
158
 62
7
  6
CONTINUOUS
 10
31.700000
 20
56.800000
 11
29.700000
 21
54.800000
  0
LINE
  8
158
 62
5
  6
L000000040000FF0000
 10
32.600000
 20
76.400000
 11
32.600000
 21
53.900000
  0
LINE
  8
158
 62
3
  6
L00000004000000FF00
 10
47.000000
 20
73.500000
 11
48.700000
 21
73.500000
  0
LINE
  8
158
 62
3
  6
L00000004000000FF00
 10
47.000000
 20
73.500000
 11
47.000000
 21
76.400000
  0
LINE
  8
158
 62
3
  6
L00000004000000FF00
 10
34.400000
 20
73.400000
 11
34.400000
 21
76.400000
  0
LINE
  8
158
 62
255
  6
L00000004000000007F
 10
30.800000
 20
53.900000
 11
30.800000
 21
76.400000
  0
SOLID
  8
158
 62
255
  6
CONTINUOUS
 10
32.100000
 20
25.400000
 11
32.100000
 21
23.200000
 12
30.900000
 22
25.400000
 13
30.900000
 23
23.200000
  0
POLYLINE
  8
158
 62
7
  6
CONTINUOUS
 70
1
 66
1
  0
VERTEX
 10
32.100000
 20
25.400000
 30
0.000000
  8
158
 62
7
  6
CONTINUOUS
  0
VERTEX
 10
32.100000
 20
23.200000
 30
0.000000
  8
158
 62
7
  6
CONTINUOUS
  0
VERTEX
 10
30.900000
 20
23.200000
 30
0.000000
  8
158
 62
7
  6
CONTINUOUS
  0
VERTEX
 10
30.900000
 20
25.400000
 30
0.000000
  8
158
 62
7
  6
CONTINUOUS
  0
SEQEND
  0
CIRCLE
  8
158
 62
7
  6
CONTINUOUS
 10
31.500000
 20
24.300000
 30
0.0
 40
0.500000
  0
LINE
  8
158
 62
7
  6
CONTINUOUS
 10
32.000000
 20
24.300000
 11
31.000000
 21
24.300000
  0
SOLID
  8
158
 62
255
  6
CONTINUOUS
 10
45.600000
 20
25.400000
 11
45.600000
 21
23.200000
 12
44.400000
 22
25.400000
 13
44.400000
 23
23.200000
  0
POLYLINE
  8
158
 62
7
  6
CONTINUOUS
 70
1
 66
1
  0
VERTEX
 10
45.600000
 20
25.400000
 30
0.000000
  8
158
 62
7
  6
CONTINUOUS
  0
VERTEX
 10
45.600000
 20
23.200000
 30
0.000000
  8
158
 62
7
  6
CONTINUOUS
  0
VERTEX
 10
44.400000
 20
23.200000
 30
0.000000
  8
158
 62
7
  6
CONTINUOUS
  0
VERTEX
 10
44.400000
 20
25.400000
 30
0.000000
  8
158
 62
7
  6
CONTINUOUS
  0
SEQEND
  0
LINE
  8
158
 62
7
  6
CONTINUOUS
 10
45.500000
 20
24.300000
 11
44.500000
 21
24.300000
  0
CIRCLE
  8
158
 62
7
  6
CONTINUOUS
 10
45.000000
 20
24.300000
 30
0.0
 40
0.500000
  0
LINE
  8
158
 62
3
  6
L00000004000000FF00
 10
45.600000
 20
5.200000
 11
45.600000
 21
6.700000
  0
LINE
  8
158
 62
3
  6
L00000004000000FF00
 10
45.600000
 20
5.200000
 11
48.700000
 21
5.200000
  0
LINE
  8
158
 62
3
  6
L00000004000000FF00
 10
29.400000
 20
5.200000
 11
29.400000
 21
6.700000
  0
SOLID
  8
158
 62
255
  6
CONTINUOUS
 10
30.000000
 20
8.900000
 11
30.000000
 21
6.700000
 12
28.800000
 22
8.900000
 13
28.800000
 23
6.700000
  0
POLYLINE
  8
158
 62
7
  6
CONTINUOUS
 70
1
 66
1
  0
VERTEX
 10
30.000000
 20
8.900000
 30
0.000000
  8
158
 62
7
  6
CONTINUOUS
  0
VERTEX
 10
30.000000
 20
6.700000
 30
0.000000
  8
158
 62
7
  6
CONTINUOUS
  0
VERTEX
 10
28.800000
 20
6.700000
 30
0.000000
  8
158
 62
7
  6
CONTINUOUS
  0
VERTEX
 10
28.800000
 20
8.900000
 30
0.000000
  8
158
 62
7
  6
CONTINUOUS
  0
SEQEND
  0
CIRCLE
  8
158
 62
7
  6
CONTINUOUS
 10
29.400000
 20
7.800000
 30
0.0
 40
0.500000
  0
LINE
  8
158
 62
7
  6
CONTINUOUS
 10
29.900000
 20
7.800000
 11
28.900000
 21
7.800000
  0
SOLID
  8
158
 62
255
  6
CONTINUOUS
 10
46.200000
 20
8.900000
 11
46.200000
 21
6.700000
 12
45.000000
 22
8.900000
 13
45.000000
 23
6.700000
  0
POLYLINE
  8
158
 62
7
  6
CONTINUOUS
 70
1
 66
1
  0
VERTEX
 10
46.200000
 20
8.900000
 30
0.000000
  8
158
 62
7
  6
CONTINUOUS
  0
VERTEX
 10
46.200000
 20
6.700000
 30
0.000000
  8
158
 62
7
  6
CONTINUOUS
  0
VERTEX
 10
45.000000
 20
6.700000
 30
0.000000
  8
158
 62
7
  6
CONTINUOUS
  0
VERTEX
 10
45.000000
 20
8.900000
 30
0.000000
  8
158
 62
7
  6
CONTINUOUS
  0
SEQEND
  0
CIRCLE
  8
158
 62
7
  6
CONTINUOUS
 10
45.600000
 20
7.800000
 30
0.0
 40
0.500000
  0
LINE
  8
158
 62
7
  6
CONTINUOUS
 10
46.100000
 20
7.800000
 11
45.100000
 21
7.800000
  0
LINE
  8
158
 62
3
  6
L00000004000000FF00
 10
26.300000
 20
5.200000
 11
29.400000
 21
5.200000
  0
LINE
  8
158
 62
7
  6
L000000040000000000
 10
68.700000
 20
17.300000
 11
68.700000
 21
38.900000
  0
LINE
  8
158
 62
7
  6
CONTINUOUS
 10
69.700000
 20
35.100000
 11
67.700000
 21
33.100000
  0
LINE
  8
158
 62
7
  6
CONTINUOUS
 10
69.700000
 20
36.100000
 11
67.700000
 21
34.100000
  0
LINE
  8
158
 62
7
  6
CONTINUOUS
 10
69.700000
 20
34.100000
 11
67.700000
 21
32.100000
  0
LINE
  8
158
 62
7
  6
CONTINUOUS
 10
69.700000
 20
35.100000
 11
67.700000
 21
33.100000
  0
LINE
  8
158
 62
7
  6
CONTINUOUS
 10
69.700000
 20
36.100000
 11
67.700000
 21
34.100000
  0
LINE
  8
158
 62
7
  6
CONTINUOUS
 10
69.700000
 20
34.100000
 11
67.700000
 21
32.100000
  0
LINE
  8
158
 62
5
  6
L000000040000FF0000
 10
70.200000
 20
76.400000
 11
70.200000
 21
53.900000
  0
LINE
  8
158
 62
3
  6
L00000004000000FF00
 10
73.700000
 20
73.500000
 11
73.700000
 21
5.200000
  0
LINE
  8
158
 62
255
  6
L00000004000000007F
 10
68.400000
 20
53.900000
 11
68.400000
 21
76.400000
  0
LINE
  8
158
 62
255
  6
L00000004000000007F
 10
64.800000
 20
74.400000
 11
68.400000
 21
74.400000
  0
LINE
  8
158
 62
255
  6
L00000004000000007F
 10
64.800000
 20
76.400000
 11
64.800000
 21
74.400000
  0
LINE
  8
158
 62
255
  6
L00000004000000007F
 10
66.600000
 20
74.400000
 11
66.600000
 21
76.400000
  0
LINE
  8
158
 62
7
  6
CONTINUOUS
 10
69.400000
 20
57.700000
 11
67.400000
 21
55.700000
  0
LINE
  8
158
 62
7
  6
CONTINUOUS
 10
69.400000
 20
58.700000
 11
67.400000
 21
56.700000
  0
LINE
  8
158
 62
7
  6
CONTINUOUS
 10
69.400000
 20
56.700000
 11
67.400000
 21
54.700000
  0
LINE
  8
158
 62
7
  6
CONTINUOUS
 10
69.400000
 20
57.700000
 11
67.400000
 21
55.700000
  0
LINE
  8
158
 62
7
  6
CONTINUOUS
 10
69.400000
 20
58.700000
 11
67.400000
 21
56.700000
  0
LINE
  8
158
 62
7
  6
CONTINUOUS
 10
69.400000
 20
56.700000
 11
67.400000
 21
54.700000
  0
LINE
  8
158
 62
5
  6
L000000040000FF0000
 10
69.900000
 20
38.900000
 11
69.900000
 21
25.300000
  0
LINE
  8
158
 62
7
  6
L000000040000000000
 10
55.100000
 20
17.300000
 11
55.100000
 21
38.900000
  0
LINE
  8
158
 62
7
  6
CONTINUOUS
 10
56.000000
 20
35.800000
 11
54.000000
 21
33.800000
  0
LINE
  8
158
 62
7
  6
CONTINUOUS
 10
56.000000
 20
36.800000
 11
54.000000
 21
34.800000
  0
LINE
  8
158
 62
7
  6
CONTINUOUS
 10
56.000000
 20
34.800000
 11
54.000000
 21
32.800000
  0
LINE
  8
158
 62
7
  6
CONTINUOUS
 10
56.000000
 20
35.800000
 11
54.000000
 21
33.800000
  0
LINE
  8
158
 62
7
  6
CONTINUOUS
 10
56.000000
 20
36.800000
 11
54.000000
 21
34.800000
  0
LINE
  8
158
 62
7
  6
CONTINUOUS
 10
56.000000
 20
34.800000
 11
54.000000
 21
32.800000
  0
LINE
  8
158
 62
5
  6
L000000040000FF0000
 10
56.500000
 20
25.300000
 11
56.500000
 21
38.800000
  0
LINE
  8
158
 62
3
  6
L00000004000000FF00
 10
51.300000
 20
73.400000
 11
51.300000
 21
5.200000
  0
LINE
  8
158
 62
3
  6
L00000004000000FF00
 10
59.400000
 20
73.400000
 11
51.300000
 21
73.400000
  0
LINE
  8
158
 62
255
  6
L00000004000000007F
 10
55.800000
 20
74.400000
 11
52.200000
 21
74.400000
  0
LINE
  8
158
 62
255
  6
L00000004000000007F
 10
54.000000
 20
76.400000
 11
54.000000
 21
74.400000
  0
LINE
  8
158
 62
255
  6
L00000004000000007F
 10
52.200000
 20
74.400000
 11
52.200000
 21
76.400000
  0
LINE
  8
158
 62
7
  6
CONTINUOUS
 10
56.700000
 20
57.800000
 11
54.700000
 21
55.800000
  0
LINE
  8
158
 62
7
  6
CONTINUOUS
 10
56.700000
 20
58.800000
 11
54.700000
 21
56.800000
  0
LINE
  8
158
 62
7
  6
CONTINUOUS
 10
56.700000
 20
56.800000
 11
54.700000
 21
54.800000
  0
LINE
  8
158
 62
7
  6
CONTINUOUS
 10
56.700000
 20
57.800000
 11
54.700000
 21
55.800000
  0
LINE
  8
158
 62
7
  6
CONTINUOUS
 10
56.700000
 20
58.800000
 11
54.700000
 21
56.800000
  0
LINE
  8
158
 62
7
  6
CONTINUOUS
 10
56.700000
 20
56.800000
 11
54.700000
 21
54.800000
  0
LINE
  8
158
 62
5
  6
L000000040000FF0000
 10
57.600000
 20
76.400000
 11
57.600000
 21
53.900000
  0
LINE
  8
158
 62
3
  6
L00000004000000FF00
 10
72.000000
 20
73.500000
 11
73.700000
 21
73.500000
  0
LINE
  8
158
 62
3
  6
L00000004000000FF00
 10
72.000000
 20
73.500000
 11
72.000000
 21
76.400000
  0
LINE
  8
158
 62
3
  6
L00000004000000FF00
 10
59.400000
 20
73.400000
 11
59.400000
 21
76.400000
  0
LINE
  8
158
 62
255
  6
L00000004000000007F
 10
55.800000
 20
53.900000
 11
55.800000
 21
76.400000
  0
SOLID
  8
158
 62
255
  6
CONTINUOUS
 10
57.100000
 20
25.400000
 11
57.100000
 21
23.200000
 12
55.900000
 22
25.400000
 13
55.900000
 23
23.200000
  0
POLYLINE
  8
158
 62
7
  6
CONTINUOUS
 70
1
 66
1
  0
VERTEX
 10
57.100000
 20
25.400000
 30
0.000000
  8
158
 62
7
  6
CONTINUOUS
  0
VERTEX
 10
57.100000
 20
23.200000
 30
0.000000
  8
158
 62
7
  6
CONTINUOUS
  0
VERTEX
 10
55.900000
 20
23.200000
 30
0.000000
  8
158
 62
7
  6
CONTINUOUS
  0
VERTEX
 10
55.900000
 20
25.400000
 30
0.000000
  8
158
 62
7
  6
CONTINUOUS
  0
SEQEND
  0
CIRCLE
  8
158
 62
7
  6
CONTINUOUS
 10
56.500000
 20
24.300000
 30
0.0
 40
0.500000
  0
LINE
  8
158
 62
7
  6
CONTINUOUS
 10
57.000000
 20
24.300000
 11
56.000000
 21
24.300000
  0
SOLID
  8
158
 62
255
  6
CONTINUOUS
 10
70.600000
 20
25.400000
 11
70.600000
 21
23.200000
 12
69.400000
 22
25.400000
 13
69.400000
 23
23.200000
  0
POLYLINE
  8
158
 62
7
  6
CONTINUOUS
 70
1
 66
1
  0
VERTEX
 10
70.600000
 20
25.400000
 30
0.000000
  8
158
 62
7
  6
CONTINUOUS
  0
VERTEX
 10
70.600000
 20
23.200000
 30
0.000000
  8
158
 62
7
  6
CONTINUOUS
  0
VERTEX
 10
69.400000
 20
23.200000
 30
0.000000
  8
158
 62
7
  6
CONTINUOUS
  0
VERTEX
 10
69.400000
 20
25.400000
 30
0.000000
  8
158
 62
7
  6
CONTINUOUS
  0
SEQEND
  0
LINE
  8
158
 62
7
  6
CONTINUOUS
 10
70.500000
 20
24.300000
 11
69.500000
 21
24.300000
  0
CIRCLE
  8
158
 62
7
  6
CONTINUOUS
 10
70.000000
 20
24.300000
 30
0.0
 40
0.500000
  0
LINE
  8
158
 62
3
  6
L00000004000000FF00
 10
70.600000
 20
5.200000
 11
70.600000
 21
6.700000
  0
LINE
  8
158
 62
3
  6
L00000004000000FF00
 10
70.600000
 20
5.200000
 11
73.700000
 21
5.200000
  0
LINE
  8
158
 62
3
  6
L00000004000000FF00
 10
54.400000
 20
5.200000
 11
54.400000
 21
6.700000
  0
SOLID
  8
158
 62
255
  6
CONTINUOUS
 10
55.000000
 20
8.900000
 11
55.000000
 21
6.700000
 12
53.800000
 22
8.900000
 13
53.800000
 23
6.700000
  0
POLYLINE
  8
158
 62
7
  6
CONTINUOUS
 70
1
 66
1
  0
VERTEX
 10
55.000000
 20
8.900000
 30
0.000000
  8
158
 62
7
  6
CONTINUOUS
  0
VERTEX
 10
55.000000
 20
6.700000
 30
0.000000
  8
158
 62
7
  6
CONTINUOUS
  0
VERTEX
 10
53.800000
 20
6.700000
 30
0.000000
  8
158
 62
7
  6
CONTINUOUS
  0
VERTEX
 10
53.800000
 20
8.900000
 30
0.000000
  8
158
 62
7
  6
CONTINUOUS
  0
SEQEND
  0
CIRCLE
  8
158
 62
7
  6
CONTINUOUS
 10
54.400000
 20
7.800000
 30
0.0
 40
0.500000
  0
LINE
  8
158
 62
7
  6
CONTINUOUS
 10
54.900000
 20
7.800000
 11
53.900000
 21
7.800000
  0
SOLID
  8
158
 62
255
  6
CONTINUOUS
 10
71.200000
 20
8.900000
 11
71.200000
 21
6.700000
 12
70.000000
 22
8.900000
 13
70.000000
 23
6.700000
  0
POLYLINE
  8
158
 62
7
  6
CONTINUOUS
 70
1
 66
1
  0
VERTEX
 10
71.200000
 20
8.900000
 30
0.000000
  8
158
 62
7
  6
CONTINUOUS
  0
VERTEX
 10
71.200000
 20
6.700000
 30
0.000000
  8
158
 62
7
  6
CONTINUOUS
  0
VERTEX
 10
70.000000
 20
6.700000
 30
0.000000
  8
158
 62
7
  6
CONTINUOUS
  0
VERTEX
 10
70.000000
 20
8.900000
 30
0.000000
  8
158
 62
7
  6
CONTINUOUS
  0
SEQEND
  0
CIRCLE
  8
158
 62
7
  6
CONTINUOUS
 10
70.600000
 20
7.800000
 30
0.0
 40
0.500000
  0
LINE
  8
158
 62
7
  6
CONTINUOUS
 10
71.100000
 20
7.800000
 11
70.100000
 21
7.800000
  0
LINE
  8
158
 62
3
  6
L00000004000000FF00
 10
51.300000
 20
5.200000
 11
54.400000
 21
5.200000
  0
LINE
  8
160
 62
1
  6
L0141000200320000FF
 10
12.500000
 20
78.100000
 11
12.500000
 21
103.900000
  0
LINE
  8
160
 62
4
  6
L000000060000FFFF00
 10
1.000000
 20
75.900000
 11
1.000000
 21
103.900000
  0
LINE
  8
160
 62
1
  6
L0141000200320000FF
 10
37.500000
 20
78.100000
 11
37.500000
 21
103.900000
  0
LINE
  8
160
 62
1
  6
L0141000200320000FF
 10
62.500000
 20
78.100000
 11
62.500000
 21
103.900000
  0
LINE
  8
160
 62
4
  6
L000000060000FFFF00
 10
74.000000
 20
75.900000
 11
74.000000
 21
103.900000
  0
LINE
  8
160
 62
4
  6
L0000000A0000FFFF00
 10
25.000000
 20
75.900000
 11
25.000000
 21
103.900000
  0
LINE
  8
160
 62
4
  6
L0000000A0000FFFF00
 10
50.000000
 20
75.900000
 11
50.000000
 21
103.900000
  0
SOLID
  8
161
 62
3
  6
CONTINUOUS
 10
12.000000
 20
78.900000
 11
12.000000
 21
81.900000
 12
9.000000
 22
78.900000
 13
9.000000
 23
81.900000
  0
POLYLINE
  8
161
 62
7
  6
CONTINUOUS
 70
1
 66
1
  0
VERTEX
 10
12.000000
 20
78.900000
 30
0.000000
  8
161
 62
7
  6
CONTINUOUS
  0
VERTEX
 10
12.000000
 20
81.900000
 30
0.000000
  8
161
 62
7
  6
CONTINUOUS
  0
VERTEX
 10
9.000000
 20
81.900000
 30
0.000000
  8
161
 62
7
  6
CONTINUOUS
  0
VERTEX
 10
9.000000
 20
78.900000
 30
0.000000
  8
161
 62
7
  6
CONTINUOUS
  0
SEQEND
  0
TEXT
  8
161
 62
255
  6
L000000020000FFFFFF
 10
10.500000
 20
79.966667
 40
1.300000
  1
5+1
 50
0.000000
 51
0.000000
 72
1
 73
0
 11
10.500000
 21
79.966667
  0
SOLID
  8
161
 62
3
  6
CONTINUOUS
 10
16.000000
 20
78.900000
 11
16.000000
 21
81.900000
 12
13.000000
 22
78.900000
 13
13.000000
 23
81.900000
  0
POLYLINE
  8
161
 62
7
  6
CONTINUOUS
 70
1
 66
1
  0
VERTEX
 10
16.000000
 20
78.900000
 30
0.000000
  8
161
 62
7
  6
CONTINUOUS
  0
VERTEX
 10
16.000000
 20
81.900000
 30
0.000000
  8
161
 62
7
  6
CONTINUOUS
  0
VERTEX
 10
13.000000
 20
81.900000
 30
0.000000
  8
161
 62
7
  6
CONTINUOUS
  0
VERTEX
 10
13.000000
 20
78.900000
 30
0.000000
  8
161
 62
7
  6
CONTINUOUS
  0
SEQEND
  0
TEXT
  8
161
 62
255
  6
L000000020000FFFFFF
 10
14.500000
 20
79.966667
 40
1.300000
  1
5+1
 50
0.000000
 51
0.000000
 72
1
 73
0
 11
14.500000
 21
79.966667
  0
SOLID
  8
161
 62
3
  6
CONTINUOUS
 10
37.000000
 20
78.900000
 11
37.000000
 21
81.900000
 12
34.000000
 22
78.900000
 13
34.000000
 23
81.900000
  0
POLYLINE
  8
161
 62
7
  6
CONTINUOUS
 70
1
 66
1
  0
VERTEX
 10
37.000000
 20
78.900000
 30
0.000000
  8
161
 62
7
  6
CONTINUOUS
  0
VERTEX
 10
37.000000
 20
81.900000
 30
0.000000
  8
161
 62
7
  6
CONTINUOUS
  0
VERTEX
 10
34.000000
 20
81.900000
 30
0.000000
  8
161
 62
7
  6
CONTINUOUS
  0
VERTEX
 10
34.000000
 20
78.900000
 30
0.000000
  8
161
 62
7
  6
CONTINUOUS
  0
SEQEND
  0
TEXT
  8
161
 62
255
  6
L000000020000FFFFFF
 10
35.500000
 20
79.966667
 40
1.300000
  1
5+1
 50
0.000000
 51
0.000000
 72
1
 73
0
 11
35.500000
 21
79.966667
  0
SOLID
  8
161
 62
3
  6
CONTINUOUS
 10
41.000000
 20
78.900000
 11
41.000000
 21
81.900000
 12
38.000000
 22
78.900000
 13
38.000000
 23
81.900000
  0
POLYLINE
  8
161
 62
7
  6
CONTINUOUS
 70
1
 66
1
  0
VERTEX
 10
41.000000
 20
78.900000
 30
0.000000
  8
161
 62
7
  6
CONTINUOUS
  0
VERTEX
 10
41.000000
 20
81.900000
 30
0.000000
  8
161
 62
7
  6
CONTINUOUS
  0
VERTEX
 10
38.000000
 20
81.900000
 30
0.000000
  8
161
 62
7
  6
CONTINUOUS
  0
VERTEX
 10
38.000000
 20
78.900000
 30
0.000000
  8
161
 62
7
  6
CONTINUOUS
  0
SEQEND
  0
TEXT
  8
161
 62
255
  6
L000000020000FFFFFF
 10
39.500000
 20
79.966667
 40
1.300000
  1
5+1
 50
0.000000
 51
0.000000
 72
1
 73
0
 11
39.500000
 21
79.966667
  0
SOLID
  8
161
 62
3
  6
CONTINUOUS
 10
62.000000
 20
78.900000
 11
62.000000
 21
81.900000
 12
59.000000
 22
78.900000
 13
59.000000
 23
81.900000
  0
POLYLINE
  8
161
 62
7
  6
CONTINUOUS
 70
1
 66
1
  0
VERTEX
 10
62.000000
 20
78.900000
 30
0.000000
  8
161
 62
7
  6
CONTINUOUS
  0
VERTEX
 10
62.000000
 20
81.900000
 30
0.000000
  8
161
 62
7
  6
CONTINUOUS
  0
VERTEX
 10
59.000000
 20
81.900000
 30
0.000000
  8
161
 62
7
  6
CONTINUOUS
  0
VERTEX
 10
59.000000
 20
78.900000
 30
0.000000
  8
161
 62
7
  6
CONTINUOUS
  0
SEQEND
  0
TEXT
  8
161
 62
255
  6
L000000020000FFFFFF
 10
60.500000
 20
79.966667
 40
1.300000
  1
5+1
 50
0.000000
 51
0.000000
 72
1
 73
0
 11
60.500000
 21
79.966667
  0
SOLID
  8
161
 62
3
  6
CONTINUOUS
 10
66.000000
 20
78.900000
 11
66.000000
 21
81.900000
 12
63.000000
 22
78.900000
 13
63.000000
 23
81.900000
  0
POLYLINE
  8
161
 62
7
  6
CONTINUOUS
 70
1
 66
1
  0
VERTEX
 10
66.000000
 20
78.900000
 30
0.000000
  8
161
 62
7
  6
CONTINUOUS
  0
VERTEX
 10
66.000000
 20
81.900000
 30
0.000000
  8
161
 62
7
  6
CONTINUOUS
  0
VERTEX
 10
63.000000
 20
81.900000
 30
0.000000
  8
161
 62
7
  6
CONTINUOUS
  0
VERTEX
 10
63.000000
 20
78.900000
 30
0.000000
  8
161
 62
7
  6
CONTINUOUS
  0
SEQEND
  0
TEXT
  8
161
 62
255
  6
L000000020000FFFFFF
 10
64.500000
 20
79.966667
 40
1.300000
  1
5+1
 50
0.000000
 51
0.000000
 72
1
 73
0
 11
64.500000
 21
79.966667
  0
ENDBLK
  0
ENDSEC
  0
SECTION
  2
ENTITIES
  0
INSERT
  8
0
 2
bf37m6
 10
0.000000
 20
0.000000
 30
0.0
 50
0.0
  0
ENDSEC
  0
EOF
