  0
SECTION
  2
HEADER
  9
$ACADVER
  1
AC1009
  9
$INSBASE
 10
0.0
 20
0.0
 30
0.0
  9
$EXTMIN
 10
0.0
 20
0.0
 30
0.0
  9
$EXTMAX
 10
0.000000
 20
0.000000
 30
0.0
  9
$LIMMIN
 10
0.0
 20
0.0
  9
$LIMMAX
 10
0.000000
 20
0.000000
  0
ENDSEC
  0
SECTION
  2
TABLES
  0
TABLE
  2
LTYPE
 70
1
  0
LTYPE
  2
CONTINUOUS
 70
64
  3
Solid line
 72
65
 73
0
 40
0.000000
  0
ENDTAB
  0
TABLE
  2
LAYER
 70
8
  0
LAYER
  2
0
 70
64
 62
7
  6
CONTINUOUS
  0
LAYER
  2
1
 70
64
 62
7
  6
CONTINUOUS
  0
LAYER
  2
2
 70
64
 62
7
  6
CONTINUOUS
  0
LAYER
  2
3
 70
64
 62
-7
  6
CONTINUOUS
  0
LAYER
  2
4
 70
64
 62
7
  6
CONTINUOUS
  0
LAYER
  2
5
 70
64
 62
7
  6
CONTINUOUS
  0
LAYER
  2
6
 70
64
 62
7
  6
CONTINUOUS
  0
LAYER
  2
7
 70
64
 62
7
  6
CONTINUOUS
  0
LAYER
  2
8
 70
64
 62
7
  6
CONTINUOUS
  0
LAYER
  2
9
 70
64
 62
7
  6
CONTINUOUS
  0
LAYER
  2
10
 70
64
 62
7
  6
CONTINUOUS
  0
LAYER
  2
11
 70
64
 62
7
  6
CONTINUOUS
  0
LAYER
  2
12
 70
64
 62
7
  6
CONTINUOUS
  0
LAYER
  2
13
 70
64
 62
7
  6
CONTINUOUS
  0
LAYER
  2
14
 70
64
 62
7
  6
CONTINUOUS
  0
LAYER
  2
15
 70
64
 62
7
  6
CONTINUOUS
  0
LAYER
  2
16
 70
64
 62
7
  6
CONTINUOUS
  0
LAYER
  2
17
 70
64
 62
7
  6
CONTINUOUS
  0
LAYER
  2
18
 70
64
 62
7
  6
CONTINUOUS
  0
LAYER
  2
19
 70
64
 62
7
  6
CONTINUOUS
  0
LAYER
  2
20
 70
64
 62
7
  6
CONTINUOUS
  0
LAYER
  2
21
 70
64
 62
7
  6
CONTINUOUS
  0
LAYER
  2
22
 70
64
 62
7
  6
CONTINUOUS
  0
LAYER
  2
23
 70
64
 62
7
  6
CONTINUOUS
  0
LAYER
  2
24
 70
64
 62
7
  6
CONTINUOUS
  0
LAYER
  2
25
 70
64
 62
7
  6
CONTINUOUS
  0
LAYER
  2
26
 70
64
 62
7
  6
CONTINUOUS
  0
LAYER
  2
27
 70
64
 62
7
  6
CONTINUOUS
  0
LAYER
  2
28
 70
64
 62
7
  6
CONTINUOUS
  0
LAYER
  2
29
 70
64
 62
-7
  6
CONTINUOUS
  0
LAYER
  2
30
 70
64
 62
7
  6
CONTINUOUS
  0
LAYER
  2
31
 70
64
 62
7
  6
CONTINUOUS
  0
LAYER
  2
32
 70
64
 62
7
  6
CONTINUOUS
  0
LAYER
  2
33
 70
64
 62
7
  6
CONTINUOUS
  0
LAYER
  2
34
 70
64
 62
7
  6
CONTINUOUS
  0
LAYER
  2
35
 70
64
 62
7
  6
CONTINUOUS
  0
LAYER
  2
36
 70
64
 62
7
  6
CONTINUOUS
  0
LAYER
  2
37
 70
64
 62
7
  6
CONTINUOUS
  0
LAYER
  2
38
 70
64
 62
7
  6
CONTINUOUS
  0
LAYER
  2
39
 70
64
 62
7
  6
CONTINUOUS
  0
LAYER
  2
40
 70
64
 62
7
  6
CONTINUOUS
  0
LAYER
  2
41
 70
64
 62
7
  6
CONTINUOUS
  0
LAYER
  2
42
 70
64
 62
7
  6
CONTINUOUS
  0
LAYER
  2
43
 70
64
 62
7
  6
CONTINUOUS
  0
LAYER
  2
44
 70
64
 62
7
  6
CONTINUOUS
  0
LAYER
  2
45
 70
64
 62
7
  6
CONTINUOUS
  0
LAYER
  2
46
 70
64
 62
7
  6
CONTINUOUS
  0
LAYER
  2
47
 70
64
 62
-7
  6
CONTINUOUS
  0
LAYER
  2
48
 70
64
 62
-7
  6
CONTINUOUS
  0
LAYER
  2
49
 70
64
 62
-7
  6
CONTINUOUS
  0
LAYER
  2
50
 70
64
 62
-7
  6
CONTINUOUS
  0
LAYER
  2
51
 70
64
 62
-7
  6
CONTINUOUS
  0
LAYER
  2
52
 70
64
 62
-7
  6
CONTINUOUS
  0
LAYER
  2
53
 70
64
 62
-7
  6
CONTINUOUS
  0
LAYER
  2
54
 70
64
 62
-7
  6
CONTINUOUS
  0
LAYER
  2
55
 70
64
 62
-7
  6
CONTINUOUS
  0
LAYER
  2
56
 70
64
 62
7
  6
CONTINUOUS
  0
LAYER
  2
57
 70
64
 62
7
  6
CONTINUOUS
  0
LAYER
  2
58
 70
64
 62
7
  6
CONTINUOUS
  0
LAYER
  2
59
 70
64
 62
7
  6
CONTINUOUS
  0
LAYER
  2
60
 70
64
 62
7
  6
CONTINUOUS
  0
LAYER
  2
61
 70
64
 62
7
  6
CONTINUOUS
  0
LAYER
  2
62
 70
64
 62
7
  6
CONTINUOUS
  0
LAYER
  2
63
 70
64
 62
7
  6
CONTINUOUS
  0
LAYER
  2
64
 70
64
 62
7
  6
CONTINUOUS
  0
LAYER
  2
65
 70
64
 62
7
  6
CONTINUOUS
  0
LAYER
  2
66
 70
64
 62
7
  6
CONTINUOUS
  0
LAYER
  2
67
 70
64
 62
7
  6
CONTINUOUS
  0
LAYER
  2
68
 70
64
 62
7
  6
CONTINUOUS
  0
LAYER
  2
69
 70
64
 62
7
  6
CONTINUOUS
  0
LAYER
  2
70
 70
64
 62
7
  6
CONTINUOUS
  0
LAYER
  2
71
 70
64
 62
7
  6
CONTINUOUS
  0
LAYER
  2
72
 70
64
 62
7
  6
CONTINUOUS
  0
LAYER
  2
73
 70
64
 62
7
  6
CONTINUOUS
  0
LAYER
  2
74
 70
64
 62
7
  6
CONTINUOUS
  0
LAYER
  2
75
 70
64
 62
7
  6
CONTINUOUS
  0
LAYER
  2
76
 70
64
 62
7
  6
CONTINUOUS
  0
LAYER
  2
77
 70
64
 62
7
  6
CONTINUOUS
  0
LAYER
  2
78
 70
64
 62
7
  6
CONTINUOUS
  0
LAYER
  2
79
 70
64
 62
7
  6
CONTINUOUS
  0
LAYER
  2
80
 70
64
 62
7
  6
CONTINUOUS
  0
LAYER
  2
81
 70
64
 62
7
  6
CONTINUOUS
  0
LAYER
  2
82
 70
64
 62
7
  6
CONTINUOUS
  0
LAYER
  2
83
 70
64
 62
7
  6
CONTINUOUS
  0
LAYER
  2
84
 70
64
 62
7
  6
CONTINUOUS
  0
LAYER
  2
85
 70
64
 62
7
  6
CONTINUOUS
  0
LAYER
  2
86
 70
64
 62
7
  6
CONTINUOUS
  0
LAYER
  2
87
 70
64
 62
7
  6
CONTINUOUS
  0
LAYER
  2
88
 70
64
 62
7
  6
CONTINUOUS
  0
LAYER
  2
89
 70
64
 62
7
  6
CONTINUOUS
  0
LAYER
  2
90
 70
64
 62
7
  6
CONTINUOUS
  0
LAYER
  2
91
 70
64
 62
7
  6
CONTINUOUS
  0
LAYER
  2
92
 70
64
 62
7
  6
CONTINUOUS
  0
LAYER
  2
93
 70
64
 62
7
  6
CONTINUOUS
  0
LAYER
  2
94
 70
64
 62
7
  6
CONTINUOUS
  0
LAYER
  2
95
 70
64
 62
7
  6
CONTINUOUS
  0
LAYER
  2
96
 70
64
 62
7
  6
CONTINUOUS
  0
LAYER
  2
97
 70
64
 62
7
  6
CONTINUOUS
  0
LAYER
  2
98
 70
64
 62
7
  6
CONTINUOUS
  0
LAYER
  2
99
 70
64
 62
7
  6
CONTINUOUS
  0
LAYER
  2
100
 70
64
 62
7
  6
CONTINUOUS
  0
LAYER
  2
101
 70
64
 62
7
  6
CONTINUOUS
  0
LAYER
  2
102
 70
64
 62
7
  6
CONTINUOUS
  0
LAYER
  2
103
 70
64
 62
7
  6
CONTINUOUS
  0
LAYER
  2
104
 70
64
 62
7
  6
CONTINUOUS
  0
LAYER
  2
105
 70
64
 62
7
  6
CONTINUOUS
  0
LAYER
  2
106
 70
64
 62
7
  6
CONTINUOUS
  0
LAYER
  2
107
 70
64
 62
7
  6
CONTINUOUS
  0
LAYER
  2
108
 70
64
 62
7
  6
CONTINUOUS
  0
LAYER
  2
109
 70
64
 62
7
  6
CONTINUOUS
  0
LAYER
  2
110
 70
64
 62
7
  6
CONTINUOUS
  0
LAYER
  2
111
 70
64
 62
7
  6
CONTINUOUS
  0
LAYER
  2
112
 70
64
 62
7
  6
CONTINUOUS
  0
LAYER
  2
113
 70
64
 62
7
  6
CONTINUOUS
  0
LAYER
  2
114
 70
64
 62
7
  6
CONTINUOUS
  0
LAYER
  2
115
 70
64
 62
7
  6
CONTINUOUS
  0
LAYER
  2
116
 70
64
 62
7
  6
CONTINUOUS
  0
LAYER
  2
117
 70
64
 62
7
  6
CONTINUOUS
  0
LAYER
  2
118
 70
64
 62
7
  6
CONTINUOUS
  0
LAYER
  2
119
 70
64
 62
7
  6
CONTINUOUS
  0
LAYER
  2
120
 70
64
 62
7
  6
CONTINUOUS
  0
LAYER
  2
121
 70
64
 62
7
  6
CONTINUOUS
  0
LAYER
  2
122
 70
64
 62
7
  6
CONTINUOUS
  0
LAYER
  2
123
 70
64
 62
7
  6
CONTINUOUS
  0
LAYER
  2
124
 70
64
 62
7
  6
CONTINUOUS
  0
LAYER
  2
125
 70
64
 62
7
  6
CONTINUOUS
  0
LAYER
  2
126
 70
64
 62
7
  6
CONTINUOUS
  0
LAYER
  2
127
 70
64
 62
7
  6
CONTINUOUS
  0
LAYER
  2
128
 70
64
 62
7
  6
CONTINUOUS
  0
LAYER
  2
129
 70
64
 62
7
  6
CONTINUOUS
  0
LAYER
  2
130
 70
64
 62
7
  6
CONTINUOUS
  0
LAYER
  2
131
 70
64
 62
7
  6
CONTINUOUS
  0
LAYER
  2
132
 70
64
 62
7
  6
CONTINUOUS
  0
LAYER
  2
133
 70
64
 62
7
  6
CONTINUOUS
  0
LAYER
  2
134
 70
64
 62
7
  6
CONTINUOUS
  0
LAYER
  2
135
 70
64
 62
7
  6
CONTINUOUS
  0
LAYER
  2
136
 70
64
 62
7
  6
CONTINUOUS
  0
LAYER
  2
137
 70
64
 62
7
  6
CONTINUOUS
  0
LAYER
  2
138
 70
64
 62
7
  6
CONTINUOUS
  0
LAYER
  2
139
 70
64
 62
7
  6
CONTINUOUS
  0
LAYER
  2
140
 70
64
 62
7
  6
CONTINUOUS
  0
LAYER
  2
141
 70
64
 62
7
  6
CONTINUOUS
  0
LAYER
  2
142
 70
64
 62
7
  6
CONTINUOUS
  0
LAYER
  2
143
 70
64
 62
7
  6
CONTINUOUS
  0
LAYER
  2
144
 70
64
 62
7
  6
CONTINUOUS
  0
LAYER
  2
145
 70
64
 62
7
  6
CONTINUOUS
  0
LAYER
  2
146
 70
64
 62
7
  6
CONTINUOUS
  0
LAYER
  2
147
 70
64
 62
7
  6
CONTINUOUS
  0
LAYER
  2
148
 70
64
 62
7
  6
CONTINUOUS
  0
LAYER
  2
149
 70
64
 62
7
  6
CONTINUOUS
  0
LAYER
  2
150
 70
64
 62
7
  6
CONTINUOUS
  0
LAYER
  2
151
 70
64
 62
7
  6
CONTINUOUS
  0
LAYER
  2
152
 70
64
 62
7
  6
CONTINUOUS
  0
LAYER
  2
153
 70
64
 62
7
  6
CONTINUOUS
  0
LAYER
  2
154
 70
64
 62
7
  6
CONTINUOUS
  0
LAYER
  2
155
 70
64
 62
7
  6
CONTINUOUS
  0
LAYER
  2
156
 70
64
 62
7
  6
CONTINUOUS
  0
LAYER
  2
157
 70
64
 62
7
  6
CONTINUOUS
  0
LAYER
  2
158
 70
64
 62
7
  6
CONTINUOUS
  0
LAYER
  2
159
 70
64
 62
7
  6
CONTINUOUS
  0
LAYER
  2
160
 70
64
 62
7
  6
CONTINUOUS
  0
LAYER
  2
161
 70
64
 62
7
  6
CONTINUOUS
  0
LAYER
  2
162
 70
64
 62
7
  6
CONTINUOUS
  0
LAYER
  2
163
 70
64
 62
7
  6
CONTINUOUS
  0
LAYER
  2
164
 70
64
 62
7
  6
CONTINUOUS
  0
LAYER
  2
165
 70
64
 62
7
  6
CONTINUOUS
  0
LAYER
  2
166
 70
64
 62
7
  6
CONTINUOUS
  0
LAYER
  2
167
 70
64
 62
7
  6
CONTINUOUS
  0
LAYER
  2
168
 70
64
 62
7
  6
CONTINUOUS
  0
LAYER
  2
169
 70
64
 62
7
  6
CONTINUOUS
  0
LAYER
  2
170
 70
64
 62
7
  6
CONTINUOUS
  0
LAYER
  2
171
 70
64
 62
7
  6
CONTINUOUS
  0
LAYER
  2
172
 70
64
 62
7
  6
CONTINUOUS
  0
LAYER
  2
173
 70
64
 62
7
  6
CONTINUOUS
  0
LAYER
  2
174
 70
64
 62
7
  6
CONTINUOUS
  0
LAYER
  2
175
 70
64
 62
7
  6
CONTINUOUS
  0
LAYER
  2
176
 70
64
 62
7
  6
CONTINUOUS
  0
LAYER
  2
177
 70
64
 62
7
  6
CONTINUOUS
  0
LAYER
  2
178
 70
64
 62
7
  6
CONTINUOUS
  0
LAYER
  2
179
 70
64
 62
7
  6
CONTINUOUS
  0
LAYER
  2
180
 70
64
 62
7
  6
CONTINUOUS
  0
LAYER
  2
181
 70
64
 62
7
  6
CONTINUOUS
  0
LAYER
  2
182
 70
64
 62
7
  6
CONTINUOUS
  0
LAYER
  2
183
 70
64
 62
7
  6
CONTINUOUS
  0
LAYER
  2
184
 70
64
 62
7
  6
CONTINUOUS
  0
LAYER
  2
185
 70
64
 62
7
  6
CONTINUOUS
  0
LAYER
  2
186
 70
64
 62
7
  6
CONTINUOUS
  0
LAYER
  2
187
 70
64
 62
7
  6
CONTINUOUS
  0
LAYER
  2
188
 70
64
 62
7
  6
CONTINUOUS
  0
LAYER
  2
189
 70
64
 62
7
  6
CONTINUOUS
  0
LAYER
  2
190
 70
64
 62
7
  6
CONTINUOUS
  0
LAYER
  2
191
 70
64
 62
7
  6
CONTINUOUS
  0
LAYER
  2
192
 70
64
 62
7
  6
CONTINUOUS
  0
LAYER
  2
193
 70
64
 62
7
  6
CONTINUOUS
  0
LAYER
  2
194
 70
64
 62
7
  6
CONTINUOUS
  0
LAYER
  2
195
 70
64
 62
7
  6
CONTINUOUS
  0
LAYER
  2
196
 70
64
 62
7
  6
CONTINUOUS
  0
LAYER
  2
197
 70
64
 62
7
  6
CONTINUOUS
  0
LAYER
  2
198
 70
64
 62
7
  6
CONTINUOUS
  0
LAYER
  2
199
 70
64
 62
7
  6
CONTINUOUS
  0
ENDTAB
  0
ENDSEC
  0
SECTION
  2
BLOCKS
  0
BLOCK
  8
0
  2
r412t4b_e
 70
 0
 10
0.0
 20
0.0
 30
0.0
  0
SOLID
  8
0
 62
255
  6
CONTINUOUS
 10
105.300000
 20
185.300000
 11
105.300000
 21
-5.300000
 12
-5.300000
 22
185.300000
 13
-5.300000
 23
-5.300000
  0
POLYLINE
  8
0
 62
7
  6
CONTINUOUS
 70
1
 66
1
  0
VERTEX
 10
105.300000
 20
185.300000
 30
0.000000
  8
0
 62
7
  6
CONTINUOUS
  0
VERTEX
 10
105.300000
 20
-5.300000
 30
0.000000
  8
0
 62
7
  6
CONTINUOUS
  0
VERTEX
 10
-5.300000
 20
-5.300000
 30
0.000000
  8
0
 62
7
  6
CONTINUOUS
  0
VERTEX
 10
-5.300000
 20
185.300000
 30
0.000000
  8
0
 62
7
  6
CONTINUOUS
  0
SEQEND
  0
POLYLINE
  8
0
 62
7
  6
CONTINUOUS
 70
0
 66
1
  0
VERTEX
 10
-1.300000
 20
185.300000
  8
0
 62
7
  6
CONTINUOUS
  0
VERTEX
 10
-1.300000
 20
-5.300000
  8
0
 62
7
  6
CONTINUOUS
  0
SEQEND
  0
POLYLINE
  8
0
 62
7
  6
CONTINUOUS
 70
0
 66
1
  0
VERTEX
 10
-0.700000
 20
-1.300000
  8
0
 62
7
  6
CONTINUOUS
  0
VERTEX
 10
100.700000
 20
-1.300000
  8
0
 62
7
  6
CONTINUOUS
  0
SEQEND
  0
POLYLINE
  8
0
 62
7
  6
CONTINUOUS
 70
0
 66
1
  0
VERTEX
 10
-0.700000
 20
181.300000
  8
0
 62
7
  6
CONTINUOUS
  0
VERTEX
 10
100.700000
 20
181.300000
  8
0
 62
7
  6
CONTINUOUS
  0
SEQEND
  0
POLYLINE
  8
0
 62
7
  6
CONTINUOUS
 70
0
 66
1
  0
VERTEX
 10
101.300000
 20
-5.300000
  8
0
 62
7
  6
CONTINUOUS
  0
VERTEX
 10
101.300000
 20
185.300000
  8
0
 62
7
  6
CONTINUOUS
  0
SEQEND
  0
POLYLINE
  8
0
 62
7
  6
CONTINUOUS
 70
0
 66
1
  0
VERTEX
 10
100.700000
 20
-5.300000
  8
0
 62
7
  6
CONTINUOUS
  0
VERTEX
 10
100.700000
 20
185.300000
  8
0
 62
7
  6
CONTINUOUS
  0
SEQEND
  0
POLYLINE
  8
0
 62
7
  6
CONTINUOUS
 70
0
 66
1
  0
VERTEX
 10
103.600000
 20
-5.300000
  8
0
 62
7
  6
CONTINUOUS
  0
VERTEX
 10
103.600000
 20
185.300000
  8
0
 62
7
  6
CONTINUOUS
  0
SEQEND
  0
POLYLINE
  8
0
 62
7
  6
CONTINUOUS
 70
0
 66
1
  0
VERTEX
 10
101.900000
 20
-5.300000
  8
0
 62
7
  6
CONTINUOUS
  0
VERTEX
 10
101.900000
 20
185.300000
  8
0
 62
7
  6
CONTINUOUS
  0
SEQEND
  0
POLYLINE
  8
0
 62
7
  6
CONTINUOUS
 70
0
 66
1
  0
VERTEX
 10
-0.700000
 20
185.300000
  8
0
 62
7
  6
CONTINUOUS
  0
VERTEX
 10
-0.700000
 20
-5.300000
  8
0
 62
7
  6
CONTINUOUS
  0
SEQEND
  0
POLYLINE
  8
0
 62
7
  6
CONTINUOUS
 70
0
 66
1
  0
VERTEX
 10
-3.600000
 20
185.300000
  8
0
 62
7
  6
CONTINUOUS
  0
VERTEX
 10
-3.600000
 20
-5.300000
  8
0
 62
7
  6
CONTINUOUS
  0
SEQEND
  0
POLYLINE
  8
0
 62
7
  6
CONTINUOUS
 70
0
 66
1
  0
VERTEX
 10
-1.900000
 20
185.300000
  8
0
 62
7
  6
CONTINUOUS
  0
VERTEX
 10
-1.900000
 20
-5.300000
  8
0
 62
7
  6
CONTINUOUS
  0
SEQEND
  0
POLYLINE
  8
0
 62
7
  6
CONTINUOUS
 70
0
 66
1
  0
VERTEX
 10
-0.700000
 20
-0.700000
  8
0
 62
7
  6
CONTINUOUS
  0
VERTEX
 10
100.700000
 20
-0.700000
  8
0
 62
7
  6
CONTINUOUS
  0
SEQEND
  0
POLYLINE
  8
0
 62
7
  6
CONTINUOUS
 70
0
 66
1
  0
VERTEX
 10
-0.700000
 20
-3.600000
  8
0
 62
7
  6
CONTINUOUS
  0
VERTEX
 10
100.700000
 20
-3.600000
  8
0
 62
7
  6
CONTINUOUS
  0
SEQEND
  0
POLYLINE
  8
0
 62
7
  6
CONTINUOUS
 70
0
 66
1
  0
VERTEX
 10
-0.700000
 20
-1.900000
  8
0
 62
7
  6
CONTINUOUS
  0
VERTEX
 10
100.700000
 20
-1.900000
  8
0
 62
7
  6
CONTINUOUS
  0
SEQEND
  0
POLYLINE
  8
0
 62
7
  6
CONTINUOUS
 70
0
 66
1
  0
VERTEX
 10
-0.700000
 20
180.700000
  8
0
 62
7
  6
CONTINUOUS
  0
VERTEX
 10
100.700000
 20
180.700000
  8
0
 62
7
  6
CONTINUOUS
  0
SEQEND
  0
POLYLINE
  8
0
 62
7
  6
CONTINUOUS
 70
0
 66
1
  0
VERTEX
 10
-0.700000
 20
183.600000
  8
0
 62
7
  6
CONTINUOUS
  0
VERTEX
 10
100.700000
 20
183.600000
  8
0
 62
7
  6
CONTINUOUS
  0
SEQEND
  0
POLYLINE
  8
0
 62
7
  6
CONTINUOUS
 70
0
 66
1
  0
VERTEX
 10
-0.700000
 20
181.900000
  8
0
 62
7
  6
CONTINUOUS
  0
VERTEX
 10
100.700000
 20
181.900000
  8
0
 62
7
  6
CONTINUOUS
  0
SEQEND
  0
POLYLINE
  8
0
 62
7
  6
CONTINUOUS
 70
1
 66
1
  0
VERTEX
 10
-5.300000
 20
185.300000
  8
0
 62
7
  6
CONTINUOUS
  0
VERTEX
 10
3.500000
 20
185.300000
  8
0
 62
7
  6
CONTINUOUS
  0
VERTEX
 10
3.500000
 20
182.100000
  8
0
 62
7
  6
CONTINUOUS
  0
VERTEX
 10
-2.100000
 20
182.100000
  8
0
 62
7
  6
CONTINUOUS
  0
VERTEX
 10
-2.100000
 20
176.500000
  8
0
 62
7
  6
CONTINUOUS
  0
VERTEX
 10
-5.300000
 20
176.500000
  8
0
 62
7
  6
CONTINUOUS
  0
SEQEND
  0
SOLID
  8
0
 62
255
  6
CONTINUOUS
 10
-2.100000
 20
182.100000
 11
-2.100000
 21
180.500000
 12
-0.500000
 22
182.100000
 13
-0.500000
 23
180.500000
  0
POLYLINE
  8
0
 62
7
  6
CONTINUOUS
 70
1
 66
1
  0
VERTEX
 10
-2.100000
 20
182.100000
 30
0.000000
  8
0
 62
7
  6
CONTINUOUS
  0
VERTEX
 10
-2.100000
 20
180.500000
 30
0.000000
  8
0
 62
7
  6
CONTINUOUS
  0
VERTEX
 10
-0.500000
 20
180.500000
 30
0.000000
  8
0
 62
7
  6
CONTINUOUS
  0
VERTEX
 10
-0.500000
 20
182.100000
 30
0.000000
  8
0
 62
7
  6
CONTINUOUS
  0
SEQEND
  0
POLYLINE
  8
0
 62
7
  6
CONTINUOUS
 70
0
 66
1
  0
VERTEX
 10
-2.100000
 20
176.500000
  8
0
 62
7
  6
CONTINUOUS
  0
VERTEX
 10
-2.600000
 20
176.500000
  8
0
 62
7
  6
CONTINUOUS
  0
VERTEX
 10
-3.800000
 20
181.600000
  8
0
 62
7
  6
CONTINUOUS
  0
VERTEX
 10
-3.800000
 20
183.600000
  8
0
 62
7
  6
CONTINUOUS
  0
VERTEX
 10
-3.800000
 20
184.300000
  8
0
 62
7
  6
CONTINUOUS
  0
VERTEX
 10
3.500000
 20
182.600000
  8
0
 62
7
  6
CONTINUOUS
  0
VERTEX
 10
3.500000
 20
182.100000
  8
0
 62
7
  6
CONTINUOUS
  0
SEQEND
  0
CIRCLE
  8
0
 62
7
  6
CONTINUOUS
 10
-2.800000
 20
182.800000
 30
0.0
 40
0.500000
  0
POLYLINE
  8
0
 62
7
  6
CONTINUOUS
 70
1
 66
1
  0
VERTEX
 10
-4.800000
 20
184.300000
 30
0.000000
  8
0
 62
7
  6
CONTINUOUS
  0
VERTEX
 10
-4.800000
 20
181.600000
 30
0.000000
  8
0
 62
7
  6
CONTINUOUS
  0
VERTEX
 10
-3.800000
 20
181.600000
 30
0.000000
  8
0
 62
7
  6
CONTINUOUS
  0
VERTEX
 10
-3.800000
 20
184.300000
 30
0.000000
  8
0
 62
7
  6
CONTINUOUS
  0
SEQEND
  0
POLYLINE
  8
0
 62
7
  6
CONTINUOUS
 70
1
 66
1
  0
VERTEX
 10
-5.300000
 20
185.300000
 30
0.000000
  8
0
 62
7
  6
CONTINUOUS
  0
VERTEX
 10
-5.300000
 20
184.300000
 30
0.000000
  8
0
 62
7
  6
CONTINUOUS
  0
VERTEX
 10
-2.800000
 20
184.300000
 30
0.000000
  8
0
 62
7
  6
CONTINUOUS
  0
VERTEX
 10
-2.800000
 20
185.300000
 30
0.000000
  8
0
 62
7
  6
CONTINUOUS
  0
SEQEND
  0
POLYLINE
  8
0
 62
7
  6
CONTINUOUS
 70
0
 66
1
  0
VERTEX
 10
-2.800000
 20
184.300000
  8
0
 62
7
  6
CONTINUOUS
  0
VERTEX
 10
3.500000
 20
184.300000
  8
0
 62
7
  6
CONTINUOUS
  0
SEQEND
  0
POLYLINE
  8
0
 62
7
  6
CONTINUOUS
 70
0
 66
1
  0
VERTEX
 10
-4.800000
 20
176.500000
  8
0
 62
7
  6
CONTINUOUS
  0
VERTEX
 10
-4.800000
 20
181.600000
  8
0
 62
7
  6
CONTINUOUS
  0
SEQEND
  0
POLYLINE
  8
0
 62
7
  6
CONTINUOUS
 70
1
 66
1
  0
VERTEX
 10
105.300000
 20
185.300000
  8
0
 62
7
  6
CONTINUOUS
  0
VERTEX
 10
96.500000
 20
185.300000
  8
0
 62
7
  6
CONTINUOUS
  0
VERTEX
 10
96.500000
 20
182.100000
  8
0
 62
7
  6
CONTINUOUS
  0
VERTEX
 10
102.100000
 20
182.100000
  8
0
 62
7
  6
CONTINUOUS
  0
VERTEX
 10
102.100000
 20
176.500000
  8
0
 62
7
  6
CONTINUOUS
  0
VERTEX
 10
105.300000
 20
176.500000
  8
0
 62
7
  6
CONTINUOUS
  0
SEQEND
  0
SOLID
  8
0
 62
255
  6
CONTINUOUS
 10
100.500000
 20
182.100000
 11
100.500000
 21
180.500000
 12
102.100000
 22
182.100000
 13
102.100000
 23
180.500000
  0
POLYLINE
  8
0
 62
7
  6
CONTINUOUS
 70
1
 66
1
  0
VERTEX
 10
100.500000
 20
182.100000
 30
0.000000
  8
0
 62
7
  6
CONTINUOUS
  0
VERTEX
 10
100.500000
 20
180.500000
 30
0.000000
  8
0
 62
7
  6
CONTINUOUS
  0
VERTEX
 10
102.100000
 20
180.500000
 30
0.000000
  8
0
 62
7
  6
CONTINUOUS
  0
VERTEX
 10
102.100000
 20
182.100000
 30
0.000000
  8
0
 62
7
  6
CONTINUOUS
  0
SEQEND
  0
POLYLINE
  8
0
 62
7
  6
CONTINUOUS
 70
0
 66
1
  0
VERTEX
 10
102.100000
 20
176.500000
  8
0
 62
7
  6
CONTINUOUS
  0
VERTEX
 10
102.600000
 20
176.500000
  8
0
 62
7
  6
CONTINUOUS
  0
VERTEX
 10
103.800000
 20
181.600000
  8
0
 62
7
  6
CONTINUOUS
  0
VERTEX
 10
103.800000
 20
183.600000
  8
0
 62
7
  6
CONTINUOUS
  0
VERTEX
 10
103.800000
 20
184.300000
  8
0
 62
7
  6
CONTINUOUS
  0
VERTEX
 10
96.500000
 20
182.600000
  8
0
 62
7
  6
CONTINUOUS
  0
VERTEX
 10
96.500000
 20
182.100000
  8
0
 62
7
  6
CONTINUOUS
  0
SEQEND
  0
CIRCLE
  8
0
 62
7
  6
CONTINUOUS
 10
102.800000
 20
182.800000
 30
0.0
 40
0.500000
  0
POLYLINE
  8
0
 62
7
  6
CONTINUOUS
 70
1
 66
1
  0
VERTEX
 10
103.800000
 20
184.300000
 30
0.000000
  8
0
 62
7
  6
CONTINUOUS
  0
VERTEX
 10
103.800000
 20
181.600000
 30
0.000000
  8
0
 62
7
  6
CONTINUOUS
  0
VERTEX
 10
104.800000
 20
181.600000
 30
0.000000
  8
0
 62
7
  6
CONTINUOUS
  0
VERTEX
 10
104.800000
 20
184.300000
 30
0.000000
  8
0
 62
7
  6
CONTINUOUS
  0
SEQEND
  0
POLYLINE
  8
0
 62
7
  6
CONTINUOUS
 70
1
 66
1
  0
VERTEX
 10
102.800000
 20
185.300000
 30
0.000000
  8
0
 62
7
  6
CONTINUOUS
  0
VERTEX
 10
102.800000
 20
184.300000
 30
0.000000
  8
0
 62
7
  6
CONTINUOUS
  0
VERTEX
 10
105.300000
 20
184.300000
 30
0.000000
  8
0
 62
7
  6
CONTINUOUS
  0
VERTEX
 10
105.300000
 20
185.300000
 30
0.000000
  8
0
 62
7
  6
CONTINUOUS
  0
SEQEND
  0
POLYLINE
  8
0
 62
7
  6
CONTINUOUS
 70
0
 66
1
  0
VERTEX
 10
102.800000
 20
184.300000
  8
0
 62
7
  6
CONTINUOUS
  0
VERTEX
 10
96.500000
 20
184.300000
  8
0
 62
7
  6
CONTINUOUS
  0
SEQEND
  0
POLYLINE
  8
0
 62
7
  6
CONTINUOUS
 70
0
 66
1
  0
VERTEX
 10
104.800000
 20
176.500000
  8
0
 62
7
  6
CONTINUOUS
  0
VERTEX
 10
104.800000
 20
181.600000
  8
0
 62
7
  6
CONTINUOUS
  0
SEQEND
  0
POLYLINE
  8
0
 62
7
  6
CONTINUOUS
 70
1
 66
1
  0
VERTEX
 10
-5.300000
 20
-5.300000
  8
0
 62
7
  6
CONTINUOUS
  0
VERTEX
 10
3.500000
 20
-5.300000
  8
0
 62
7
  6
CONTINUOUS
  0
VERTEX
 10
3.500000
 20
-2.100000
  8
0
 62
7
  6
CONTINUOUS
  0
VERTEX
 10
-2.100000
 20
-2.100000
  8
0
 62
7
  6
CONTINUOUS
  0
VERTEX
 10
-2.100000
 20
3.500000
  8
0
 62
7
  6
CONTINUOUS
  0
VERTEX
 10
-5.300000
 20
3.500000
  8
0
 62
7
  6
CONTINUOUS
  0
SEQEND
  0
SOLID
  8
0
 62
255
  6
CONTINUOUS
 10
-0.500000
 20
-0.500000
 11
-0.500000
 21
-2.100000
 12
-2.100000
 22
-0.500000
 13
-2.100000
 23
-2.100000
  0
POLYLINE
  8
0
 62
7
  6
CONTINUOUS
 70
1
 66
1
  0
VERTEX
 10
-0.500000
 20
-0.500000
 30
0.000000
  8
0
 62
7
  6
CONTINUOUS
  0
VERTEX
 10
-0.500000
 20
-2.100000
 30
0.000000
  8
0
 62
7
  6
CONTINUOUS
  0
VERTEX
 10
-2.100000
 20
-2.100000
 30
0.000000
  8
0
 62
7
  6
CONTINUOUS
  0
VERTEX
 10
-2.100000
 20
-0.500000
 30
0.000000
  8
0
 62
7
  6
CONTINUOUS
  0
SEQEND
  0
POLYLINE
  8
0
 62
7
  6
CONTINUOUS
 70
0
 66
1
  0
VERTEX
 10
-2.100000
 20
3.500000
  8
0
 62
7
  6
CONTINUOUS
  0
VERTEX
 10
-2.600000
 20
3.500000
  8
0
 62
7
  6
CONTINUOUS
  0
VERTEX
 10
-3.800000
 20
-1.600000
  8
0
 62
7
  6
CONTINUOUS
  0
VERTEX
 10
-3.800000
 20
-3.600000
  8
0
 62
7
  6
CONTINUOUS
  0
VERTEX
 10
-3.800000
 20
-4.300000
  8
0
 62
7
  6
CONTINUOUS
  0
VERTEX
 10
3.500000
 20
-2.600000
  8
0
 62
7
  6
CONTINUOUS
  0
VERTEX
 10
3.500000
 20
-2.100000
  8
0
 62
7
  6
CONTINUOUS
  0
SEQEND
  0
CIRCLE
  8
0
 62
7
  6
CONTINUOUS
 10
-2.800000
 20
-2.800000
 30
0.0
 40
0.500000
  0
POLYLINE
  8
0
 62
7
  6
CONTINUOUS
 70
1
 66
1
  0
VERTEX
 10
-3.800000
 20
-4.300000
 30
0.000000
  8
0
 62
7
  6
CONTINUOUS
  0
VERTEX
 10
-3.800000
 20
-1.600000
 30
0.000000
  8
0
 62
7
  6
CONTINUOUS
  0
VERTEX
 10
-4.800000
 20
-1.600000
 30
0.000000
  8
0
 62
7
  6
CONTINUOUS
  0
VERTEX
 10
-4.800000
 20
-4.300000
 30
0.000000
  8
0
 62
7
  6
CONTINUOUS
  0
SEQEND
  0
POLYLINE
  8
0
 62
7
  6
CONTINUOUS
 70
1
 66
1
  0
VERTEX
 10
-2.800000
 20
-5.300000
 30
0.000000
  8
0
 62
7
  6
CONTINUOUS
  0
VERTEX
 10
-2.800000
 20
-4.300000
 30
0.000000
  8
0
 62
7
  6
CONTINUOUS
  0
VERTEX
 10
-5.300000
 20
-4.300000
 30
0.000000
  8
0
 62
7
  6
CONTINUOUS
  0
VERTEX
 10
-5.300000
 20
-5.300000
 30
0.000000
  8
0
 62
7
  6
CONTINUOUS
  0
SEQEND
  0
POLYLINE
  8
0
 62
7
  6
CONTINUOUS
 70
0
 66
1
  0
VERTEX
 10
-2.800000
 20
-4.300000
  8
0
 62
7
  6
CONTINUOUS
  0
VERTEX
 10
3.500000
 20
-4.300000
  8
0
 62
7
  6
CONTINUOUS
  0
SEQEND
  0
POLYLINE
  8
0
 62
7
  6
CONTINUOUS
 70
0
 66
1
  0
VERTEX
 10
-4.800000
 20
3.500000
  8
0
 62
7
  6
CONTINUOUS
  0
VERTEX
 10
-4.800000
 20
-1.600000
  8
0
 62
7
  6
CONTINUOUS
  0
SEQEND
  0
POLYLINE
  8
0
 62
7
  6
CONTINUOUS
 70
1
 66
1
  0
VERTEX
 10
105.300000
 20
-5.300000
  8
0
 62
7
  6
CONTINUOUS
  0
VERTEX
 10
96.500000
 20
-5.300000
  8
0
 62
7
  6
CONTINUOUS
  0
VERTEX
 10
96.500000
 20
-2.100000
  8
0
 62
7
  6
CONTINUOUS
  0
VERTEX
 10
102.100000
 20
-2.100000
  8
0
 62
7
  6
CONTINUOUS
  0
VERTEX
 10
102.100000
 20
3.500000
  8
0
 62
7
  6
CONTINUOUS
  0
VERTEX
 10
105.300000
 20
3.500000
  8
0
 62
7
  6
CONTINUOUS
  0
SEQEND
  0
SOLID
  8
0
 62
255
  6
CONTINUOUS
 10
100.500000
 20
-0.500000
 11
100.500000
 21
-2.100000
 12
102.100000
 22
-0.500000
 13
102.100000
 23
-2.100000
  0
POLYLINE
  8
0
 62
7
  6
CONTINUOUS
 70
1
 66
1
  0
VERTEX
 10
100.500000
 20
-0.500000
 30
0.000000
  8
0
 62
7
  6
CONTINUOUS
  0
VERTEX
 10
100.500000
 20
-2.100000
 30
0.000000
  8
0
 62
7
  6
CONTINUOUS
  0
VERTEX
 10
102.100000
 20
-2.100000
 30
0.000000
  8
0
 62
7
  6
CONTINUOUS
  0
VERTEX
 10
102.100000
 20
-0.500000
 30
0.000000
  8
0
 62
7
  6
CONTINUOUS
  0
SEQEND
  0
POLYLINE
  8
0
 62
7
  6
CONTINUOUS
 70
0
 66
1
  0
VERTEX
 10
102.100000
 20
3.500000
  8
0
 62
7
  6
CONTINUOUS
  0
VERTEX
 10
102.600000
 20
3.500000
  8
0
 62
7
  6
CONTINUOUS
  0
VERTEX
 10
103.800000
 20
-1.600000
  8
0
 62
7
  6
CONTINUOUS
  0
VERTEX
 10
103.800000
 20
-3.600000
  8
0
 62
7
  6
CONTINUOUS
  0
VERTEX
 10
103.800000
 20
-4.300000
  8
0
 62
7
  6
CONTINUOUS
  0
VERTEX
 10
96.500000
 20
-2.600000
  8
0
 62
7
  6
CONTINUOUS
  0
VERTEX
 10
96.500000
 20
-2.100000
  8
0
 62
7
  6
CONTINUOUS
  0
SEQEND
  0
CIRCLE
  8
0
 62
7
  6
CONTINUOUS
 10
102.800000
 20
-2.800000
 30
0.0
 40
0.500000
  0
POLYLINE
  8
0
 62
7
  6
CONTINUOUS
 70
1
 66
1
  0
VERTEX
 10
103.800000
 20
-1.600000
 30
0.000000
  8
0
 62
7
  6
CONTINUOUS
  0
VERTEX
 10
103.800000
 20
-4.300000
 30
0.000000
  8
0
 62
7
  6
CONTINUOUS
  0
VERTEX
 10
104.800000
 20
-4.300000
 30
0.000000
  8
0
 62
7
  6
CONTINUOUS
  0
VERTEX
 10
104.800000
 20
-1.600000
 30
0.000000
  8
0
 62
7
  6
CONTINUOUS
  0
SEQEND
  0
POLYLINE
  8
0
 62
7
  6
CONTINUOUS
 70
1
 66
1
  0
VERTEX
 10
102.800000
 20
-4.300000
 30
0.000000
  8
0
 62
7
  6
CONTINUOUS
  0
VERTEX
 10
102.800000
 20
-5.300000
 30
0.000000
  8
0
 62
7
  6
CONTINUOUS
  0
VERTEX
 10
105.300000
 20
-5.300000
 30
0.000000
  8
0
 62
7
  6
CONTINUOUS
  0
VERTEX
 10
105.300000
 20
-4.300000
 30
0.000000
  8
0
 62
7
  6
CONTINUOUS
  0
SEQEND
  0
POLYLINE
  8
0
 62
7
  6
CONTINUOUS
 70
0
 66
1
  0
VERTEX
 10
102.800000
 20
-4.300000
  8
0
 62
7
  6
CONTINUOUS
  0
VERTEX
 10
96.500000
 20
-4.300000
  8
0
 62
7
  6
CONTINUOUS
  0
SEQEND
  0
POLYLINE
  8
0
 62
7
  6
CONTINUOUS
 70
0
 66
1
  0
VERTEX
 10
104.800000
 20
3.500000
  8
0
 62
7
  6
CONTINUOUS
  0
VERTEX
 10
104.800000
 20
-1.600000
  8
0
 62
7
  6
CONTINUOUS
  0
SEQEND
  0
SOLID
  8
0
 62
255
  6
CONTINUOUS
 10
-2.400000
 20
163.500000
 11
-2.400000
 21
164.900000
 12
-5.300000
 22
163.500000
 13
-5.300000
 23
164.900000
  0
POLYLINE
  8
0
 62
7
  6
CONTINUOUS
 70
1
 66
1
  0
VERTEX
 10
-2.400000
 20
163.500000
 30
0.000000
  8
0
 62
7
  6
CONTINUOUS
  0
VERTEX
 10
-2.400000
 20
164.900000
 30
0.000000
  8
0
 62
7
  6
CONTINUOUS
  0
VERTEX
 10
-5.300000
 20
164.900000
 30
0.000000
  8
0
 62
7
  6
CONTINUOUS
  0
VERTEX
 10
-5.300000
 20
163.500000
 30
0.000000
  8
0
 62
7
  6
CONTINUOUS
  0
SEQEND
  0
SOLID
  8
0
 62
255
  6
CONTINUOUS
 10
-2.400000
 20
166.300000
 11
-2.400000
 21
167.700000
 12
-5.300000
 22
166.300000
 13
-5.300000
 23
167.700000
  0
POLYLINE
  8
0
 62
7
  6
CONTINUOUS
 70
1
 66
1
  0
VERTEX
 10
-2.400000
 20
166.300000
 30
0.000000
  8
0
 62
7
  6
CONTINUOUS
  0
VERTEX
 10
-2.400000
 20
167.700000
 30
0.000000
  8
0
 62
7
  6
CONTINUOUS
  0
VERTEX
 10
-5.300000
 20
167.700000
 30
0.000000
  8
0
 62
7
  6
CONTINUOUS
  0
VERTEX
 10
-5.300000
 20
166.300000
 30
0.000000
  8
0
 62
7
  6
CONTINUOUS
  0
SEQEND
  0
SOLID
  8
0
 62
255
  6
CONTINUOUS
 10
-1.400000
 20
159.900000
 11
-1.400000
 21
169.900000
 12
-2.400000
 22
159.900000
 13
-2.400000
 23
169.900000
  0
POLYLINE
  8
0
 62
7
  6
CONTINUOUS
 70
1
 66
1
  0
VERTEX
 10
-1.400000
 20
159.900000
 30
0.000000
  8
0
 62
7
  6
CONTINUOUS
  0
VERTEX
 10
-1.400000
 20
169.900000
 30
0.000000
  8
0
 62
7
  6
CONTINUOUS
  0
VERTEX
 10
-2.400000
 20
169.900000
 30
0.000000
  8
0
 62
7
  6
CONTINUOUS
  0
VERTEX
 10
-2.400000
 20
159.900000
 30
0.000000
  8
0
 62
7
  6
CONTINUOUS
  0
SEQEND
  0
POLYLINE
  8
0
 62
7
  6
CONTINUOUS
 70
0
 66
1
  0
VERTEX
 10
-2.400000
 20
168.400000
  8
0
 62
7
  6
CONTINUOUS
  0
VERTEX
 10
-1.900000
 20
168.400000
  8
0
 62
7
  6
CONTINUOUS
  0
VERTEX
 10
-1.900000
 20
162.800000
  8
0
 62
7
  6
CONTINUOUS
  0
VERTEX
 10
-2.400000
 20
162.800000
  8
0
 62
7
  6
CONTINUOUS
  0
SEQEND
  0
POLYLINE
  8
0
 62
7
  6
CONTINUOUS
 70
1
 66
1
  0
VERTEX
 10
-1.800000
 20
163.500000
 30
0.000000
  8
0
 62
7
  6
CONTINUOUS
  0
VERTEX
 10
-1.800000
 20
164.900000
 30
0.000000
  8
0
 62
7
  6
CONTINUOUS
  0
VERTEX
 10
-1.400000
 20
164.900000
 30
0.000000
  8
0
 62
7
  6
CONTINUOUS
  0
VERTEX
 10
-1.400000
 20
163.500000
 30
0.000000
  8
0
 62
7
  6
CONTINUOUS
  0
SEQEND
  0
POLYLINE
  8
0
 62
7
  6
CONTINUOUS
 70
1
 66
1
  0
VERTEX
 10
-1.800000
 20
166.300000
 30
0.000000
  8
0
 62
7
  6
CONTINUOUS
  0
VERTEX
 10
-1.800000
 20
167.700000
 30
0.000000
  8
0
 62
7
  6
CONTINUOUS
  0
VERTEX
 10
-1.400000
 20
167.700000
 30
0.000000
  8
0
 62
7
  6
CONTINUOUS
  0
VERTEX
 10
-1.400000
 20
166.300000
 30
0.000000
  8
0
 62
7
  6
CONTINUOUS
  0
SEQEND
  0
POLYLINE
  8
0
 62
7
  6
CONTINUOUS
 70
0
 66
1
  0
VERTEX
 10
-1.500000
 20
167.700000
  8
0
 62
7
  6
CONTINUOUS
  0
VERTEX
 10
-1.500000
 20
166.300000
  8
0
 62
7
  6
CONTINUOUS
  0
SEQEND
  0
POLYLINE
  8
0
 62
7
  6
CONTINUOUS
 70
0
 66
1
  0
VERTEX
 10
-1.500000
 20
164.900000
  8
0
 62
7
  6
CONTINUOUS
  0
VERTEX
 10
-1.500000
 20
163.500000
  8
0
 62
7
  6
CONTINUOUS
  0
SEQEND
  0
POLYLINE
  8
0
 62
7
  6
CONTINUOUS
 70
0
 66
1
  0
VERTEX
 10
-1.700000
 20
167.700000
  8
0
 62
7
  6
CONTINUOUS
  0
VERTEX
 10
-1.700000
 20
166.300000
  8
0
 62
7
  6
CONTINUOUS
  0
SEQEND
  0
POLYLINE
  8
0
 62
7
  6
CONTINUOUS
 70
0
 66
1
  0
VERTEX
 10
-1.700000
 20
164.900000
  8
0
 62
7
  6
CONTINUOUS
  0
VERTEX
 10
-1.700000
 20
163.500000
  8
0
 62
7
  6
CONTINUOUS
  0
SEQEND
  0
CIRCLE
  8
0
 62
7
  6
CONTINUOUS
 10
-3.800000
 20
164.200000
 30
0.0
 40
0.700000
  0
CIRCLE
  8
0
 62
7
  6
CONTINUOUS
 10
-3.800000
 20
167.000000
 30
0.0
 40
0.700000
  0
CIRCLE
  8
0
 62
7
  6
CONTINUOUS
 10
-3.800000
 20
164.200000
 30
0.0
 40
0.300000
  0
CIRCLE
  8
0
 62
7
  6
CONTINUOUS
 10
-3.800000
 20
167.000000
 30
0.0
 40
0.300000
  0
CIRCLE
  8
0
 62
7
  6
CONTINUOUS
 10
-3.800000
 20
164.200000
 30
0.0
 40
0.200000
  0
CIRCLE
  8
0
 62
7
  6
CONTINUOUS
 10
-3.800000
 20
167.000000
 30
0.0
 40
0.200000
  0
SOLID
  8
0
 62
255
  6
CONTINUOUS
 10
-2.400000
 20
162.100000
 11
-2.400000
 21
163.400000
 12
-5.300000
 22
162.100000
 13
-5.300000
 23
163.400000
  0
POLYLINE
  8
0
 62
7
  6
CONTINUOUS
 70
1
 66
1
  0
VERTEX
 10
-2.400000
 20
162.100000
 30
0.000000
  8
0
 62
7
  6
CONTINUOUS
  0
VERTEX
 10
-2.400000
 20
163.400000
 30
0.000000
  8
0
 62
7
  6
CONTINUOUS
  0
VERTEX
 10
-5.300000
 20
163.400000
 30
0.000000
  8
0
 62
7
  6
CONTINUOUS
  0
VERTEX
 10
-5.300000
 20
162.100000
 30
0.000000
  8
0
 62
7
  6
CONTINUOUS
  0
SEQEND
  0
SOLID
  8
0
 62
255
  6
CONTINUOUS
 10
-2.400000
 20
164.900000
 11
-2.400000
 21
166.200000
 12
-5.300000
 22
164.900000
 13
-5.300000
 23
166.200000
  0
POLYLINE
  8
0
 62
7
  6
CONTINUOUS
 70
1
 66
1
  0
VERTEX
 10
-2.400000
 20
164.900000
 30
0.000000
  8
0
 62
7
  6
CONTINUOUS
  0
VERTEX
 10
-2.400000
 20
166.200000
 30
0.000000
  8
0
 62
7
  6
CONTINUOUS
  0
VERTEX
 10
-5.300000
 20
166.200000
 30
0.000000
  8
0
 62
7
  6
CONTINUOUS
  0
VERTEX
 10
-5.300000
 20
164.900000
 30
0.000000
  8
0
 62
7
  6
CONTINUOUS
  0
SEQEND
  0
POLYLINE
  8
0
 62
7
  6
CONTINUOUS
 70
0
 66
1
  0
VERTEX
 10
-4.700000
 20
166.200000
  8
0
 62
7
  6
CONTINUOUS
  0
VERTEX
 10
-4.700000
 20
164.900000
  8
0
 62
7
  6
CONTINUOUS
  0
SEQEND
  0
POLYLINE
  8
0
 62
7
  6
CONTINUOUS
 70
0
 66
1
  0
VERTEX
 10
-4.700000
 20
163.400000
  8
0
 62
7
  6
CONTINUOUS
  0
VERTEX
 10
-4.700000
 20
162.100000
  8
0
 62
7
  6
CONTINUOUS
  0
SEQEND
  0
POLYLINE
  8
0
 62
7
  6
CONTINUOUS
 70
0
 66
1
  0
VERTEX
 10
-2.900000
 20
162.100000
  8
0
 62
7
  6
CONTINUOUS
  0
VERTEX
 10
-2.400000
 20
160.900000
  8
0
 62
7
  6
CONTINUOUS
  0
SEQEND
  0
CIRCLE
  8
0
 62
7
  6
CONTINUOUS
 10
-3.800000
 20
162.800000
 30
0.0
 40
0.200000
  0
CIRCLE
  8
0
 62
7
  6
CONTINUOUS
 10
-3.800000
 20
165.600000
 30
0.0
 40
0.200000
  0
SOLID
  8
0
 62
255
  6
CONTINUOUS
 10
-2.400000
 20
115.700000
 11
-2.400000
 21
117.100000
 12
-5.300000
 22
115.700000
 13
-5.300000
 23
117.100000
  0
POLYLINE
  8
0
 62
7
  6
CONTINUOUS
 70
1
 66
1
  0
VERTEX
 10
-2.400000
 20
115.700000
 30
0.000000
  8
0
 62
7
  6
CONTINUOUS
  0
VERTEX
 10
-2.400000
 20
117.100000
 30
0.000000
  8
0
 62
7
  6
CONTINUOUS
  0
VERTEX
 10
-5.300000
 20
117.100000
 30
0.000000
  8
0
 62
7
  6
CONTINUOUS
  0
VERTEX
 10
-5.300000
 20
115.700000
 30
0.000000
  8
0
 62
7
  6
CONTINUOUS
  0
SEQEND
  0
SOLID
  8
0
 62
255
  6
CONTINUOUS
 10
-2.400000
 20
118.500000
 11
-2.400000
 21
119.900000
 12
-5.300000
 22
118.500000
 13
-5.300000
 23
119.900000
  0
POLYLINE
  8
0
 62
7
  6
CONTINUOUS
 70
1
 66
1
  0
VERTEX
 10
-2.400000
 20
118.500000
 30
0.000000
  8
0
 62
7
  6
CONTINUOUS
  0
VERTEX
 10
-2.400000
 20
119.900000
 30
0.000000
  8
0
 62
7
  6
CONTINUOUS
  0
VERTEX
 10
-5.300000
 20
119.900000
 30
0.000000
  8
0
 62
7
  6
CONTINUOUS
  0
VERTEX
 10
-5.300000
 20
118.500000
 30
0.000000
  8
0
 62
7
  6
CONTINUOUS
  0
SEQEND
  0
SOLID
  8
0
 62
255
  6
CONTINUOUS
 10
-1.400000
 20
112.100000
 11
-1.400000
 21
122.100000
 12
-2.400000
 22
112.100000
 13
-2.400000
 23
122.100000
  0
POLYLINE
  8
0
 62
7
  6
CONTINUOUS
 70
1
 66
1
  0
VERTEX
 10
-1.400000
 20
112.100000
 30
0.000000
  8
0
 62
7
  6
CONTINUOUS
  0
VERTEX
 10
-1.400000
 20
122.100000
 30
0.000000
  8
0
 62
7
  6
CONTINUOUS
  0
VERTEX
 10
-2.400000
 20
122.100000
 30
0.000000
  8
0
 62
7
  6
CONTINUOUS
  0
VERTEX
 10
-2.400000
 20
112.100000
 30
0.000000
  8
0
 62
7
  6
CONTINUOUS
  0
SEQEND
  0
POLYLINE
  8
0
 62
7
  6
CONTINUOUS
 70
0
 66
1
  0
VERTEX
 10
-2.400000
 20
120.600000
  8
0
 62
7
  6
CONTINUOUS
  0
VERTEX
 10
-1.900000
 20
120.600000
  8
0
 62
7
  6
CONTINUOUS
  0
VERTEX
 10
-1.900000
 20
115.000000
  8
0
 62
7
  6
CONTINUOUS
  0
VERTEX
 10
-2.400000
 20
115.000000
  8
0
 62
7
  6
CONTINUOUS
  0
SEQEND
  0
POLYLINE
  8
0
 62
7
  6
CONTINUOUS
 70
1
 66
1
  0
VERTEX
 10
-1.800000
 20
115.700000
 30
0.000000
  8
0
 62
7
  6
CONTINUOUS
  0
VERTEX
 10
-1.800000
 20
117.100000
 30
0.000000
  8
0
 62
7
  6
CONTINUOUS
  0
VERTEX
 10
-1.400000
 20
117.100000
 30
0.000000
  8
0
 62
7
  6
CONTINUOUS
  0
VERTEX
 10
-1.400000
 20
115.700000
 30
0.000000
  8
0
 62
7
  6
CONTINUOUS
  0
SEQEND
  0
POLYLINE
  8
0
 62
7
  6
CONTINUOUS
 70
1
 66
1
  0
VERTEX
 10
-1.800000
 20
118.500000
 30
0.000000
  8
0
 62
7
  6
CONTINUOUS
  0
VERTEX
 10
-1.800000
 20
119.900000
 30
0.000000
  8
0
 62
7
  6
CONTINUOUS
  0
VERTEX
 10
-1.400000
 20
119.900000
 30
0.000000
  8
0
 62
7
  6
CONTINUOUS
  0
VERTEX
 10
-1.400000
 20
118.500000
 30
0.000000
  8
0
 62
7
  6
CONTINUOUS
  0
SEQEND
  0
POLYLINE
  8
0
 62
7
  6
CONTINUOUS
 70
0
 66
1
  0
VERTEX
 10
-1.500000
 20
119.900000
  8
0
 62
7
  6
CONTINUOUS
  0
VERTEX
 10
-1.500000
 20
118.500000
  8
0
 62
7
  6
CONTINUOUS
  0
SEQEND
  0
POLYLINE
  8
0
 62
7
  6
CONTINUOUS
 70
0
 66
1
  0
VERTEX
 10
-1.500000
 20
117.100000
  8
0
 62
7
  6
CONTINUOUS
  0
VERTEX
 10
-1.500000
 20
115.700000
  8
0
 62
7
  6
CONTINUOUS
  0
SEQEND
  0
POLYLINE
  8
0
 62
7
  6
CONTINUOUS
 70
0
 66
1
  0
VERTEX
 10
-1.700000
 20
119.900000
  8
0
 62
7
  6
CONTINUOUS
  0
VERTEX
 10
-1.700000
 20
118.500000
  8
0
 62
7
  6
CONTINUOUS
  0
SEQEND
  0
POLYLINE
  8
0
 62
7
  6
CONTINUOUS
 70
0
 66
1
  0
VERTEX
 10
-1.700000
 20
117.100000
  8
0
 62
7
  6
CONTINUOUS
  0
VERTEX
 10
-1.700000
 20
115.700000
  8
0
 62
7
  6
CONTINUOUS
  0
SEQEND
  0
CIRCLE
  8
0
 62
7
  6
CONTINUOUS
 10
-3.800000
 20
116.400000
 30
0.0
 40
0.700000
  0
CIRCLE
  8
0
 62
7
  6
CONTINUOUS
 10
-3.800000
 20
119.200000
 30
0.0
 40
0.700000
  0
CIRCLE
  8
0
 62
7
  6
CONTINUOUS
 10
-3.800000
 20
116.400000
 30
0.0
 40
0.300000
  0
CIRCLE
  8
0
 62
7
  6
CONTINUOUS
 10
-3.800000
 20
119.200000
 30
0.0
 40
0.300000
  0
CIRCLE
  8
0
 62
7
  6
CONTINUOUS
 10
-3.800000
 20
116.400000
 30
0.0
 40
0.200000
  0
CIRCLE
  8
0
 62
7
  6
CONTINUOUS
 10
-3.800000
 20
119.200000
 30
0.0
 40
0.200000
  0
SOLID
  8
0
 62
255
  6
CONTINUOUS
 10
-2.400000
 20
114.300000
 11
-2.400000
 21
115.600000
 12
-5.300000
 22
114.300000
 13
-5.300000
 23
115.600000
  0
POLYLINE
  8
0
 62
7
  6
CONTINUOUS
 70
1
 66
1
  0
VERTEX
 10
-2.400000
 20
114.300000
 30
0.000000
  8
0
 62
7
  6
CONTINUOUS
  0
VERTEX
 10
-2.400000
 20
115.600000
 30
0.000000
  8
0
 62
7
  6
CONTINUOUS
  0
VERTEX
 10
-5.300000
 20
115.600000
 30
0.000000
  8
0
 62
7
  6
CONTINUOUS
  0
VERTEX
 10
-5.300000
 20
114.300000
 30
0.000000
  8
0
 62
7
  6
CONTINUOUS
  0
SEQEND
  0
SOLID
  8
0
 62
255
  6
CONTINUOUS
 10
-2.400000
 20
117.100000
 11
-2.400000
 21
118.400000
 12
-5.300000
 22
117.100000
 13
-5.300000
 23
118.400000
  0
POLYLINE
  8
0
 62
7
  6
CONTINUOUS
 70
1
 66
1
  0
VERTEX
 10
-2.400000
 20
117.100000
 30
0.000000
  8
0
 62
7
  6
CONTINUOUS
  0
VERTEX
 10
-2.400000
 20
118.400000
 30
0.000000
  8
0
 62
7
  6
CONTINUOUS
  0
VERTEX
 10
-5.300000
 20
118.400000
 30
0.000000
  8
0
 62
7
  6
CONTINUOUS
  0
VERTEX
 10
-5.300000
 20
117.100000
 30
0.000000
  8
0
 62
7
  6
CONTINUOUS
  0
SEQEND
  0
POLYLINE
  8
0
 62
7
  6
CONTINUOUS
 70
0
 66
1
  0
VERTEX
 10
-4.700000
 20
118.400000
  8
0
 62
7
  6
CONTINUOUS
  0
VERTEX
 10
-4.700000
 20
117.100000
  8
0
 62
7
  6
CONTINUOUS
  0
SEQEND
  0
POLYLINE
  8
0
 62
7
  6
CONTINUOUS
 70
0
 66
1
  0
VERTEX
 10
-4.700000
 20
115.600000
  8
0
 62
7
  6
CONTINUOUS
  0
VERTEX
 10
-4.700000
 20
114.300000
  8
0
 62
7
  6
CONTINUOUS
  0
SEQEND
  0
POLYLINE
  8
0
 62
7
  6
CONTINUOUS
 70
0
 66
1
  0
VERTEX
 10
-2.900000
 20
114.300000
  8
0
 62
7
  6
CONTINUOUS
  0
VERTEX
 10
-2.400000
 20
113.100000
  8
0
 62
7
  6
CONTINUOUS
  0
SEQEND
  0
CIRCLE
  8
0
 62
7
  6
CONTINUOUS
 10
-3.800000
 20
115.000000
 30
0.0
 40
0.200000
  0
CIRCLE
  8
0
 62
7
  6
CONTINUOUS
 10
-3.800000
 20
117.800000
 30
0.0
 40
0.200000
  0
SOLID
  8
0
 62
255
  6
CONTINUOUS
 10
-2.400000
 20
62.800000
 11
-2.400000
 21
64.200000
 12
-5.300000
 22
62.800000
 13
-5.300000
 23
64.200000
  0
POLYLINE
  8
0
 62
7
  6
CONTINUOUS
 70
1
 66
1
  0
VERTEX
 10
-2.400000
 20
62.800000
 30
0.000000
  8
0
 62
7
  6
CONTINUOUS
  0
VERTEX
 10
-2.400000
 20
64.200000
 30
0.000000
  8
0
 62
7
  6
CONTINUOUS
  0
VERTEX
 10
-5.300000
 20
64.200000
 30
0.000000
  8
0
 62
7
  6
CONTINUOUS
  0
VERTEX
 10
-5.300000
 20
62.800000
 30
0.000000
  8
0
 62
7
  6
CONTINUOUS
  0
SEQEND
  0
SOLID
  8
0
 62
255
  6
CONTINUOUS
 10
-2.400000
 20
65.600000
 11
-2.400000
 21
67.000000
 12
-5.300000
 22
65.600000
 13
-5.300000
 23
67.000000
  0
POLYLINE
  8
0
 62
7
  6
CONTINUOUS
 70
1
 66
1
  0
VERTEX
 10
-2.400000
 20
65.600000
 30
0.000000
  8
0
 62
7
  6
CONTINUOUS
  0
VERTEX
 10
-2.400000
 20
67.000000
 30
0.000000
  8
0
 62
7
  6
CONTINUOUS
  0
VERTEX
 10
-5.300000
 20
67.000000
 30
0.000000
  8
0
 62
7
  6
CONTINUOUS
  0
VERTEX
 10
-5.300000
 20
65.600000
 30
0.000000
  8
0
 62
7
  6
CONTINUOUS
  0
SEQEND
  0
SOLID
  8
0
 62
255
  6
CONTINUOUS
 10
-1.400000
 20
59.200000
 11
-1.400000
 21
69.200000
 12
-2.400000
 22
59.200000
 13
-2.400000
 23
69.200000
  0
POLYLINE
  8
0
 62
7
  6
CONTINUOUS
 70
1
 66
1
  0
VERTEX
 10
-1.400000
 20
59.200000
 30
0.000000
  8
0
 62
7
  6
CONTINUOUS
  0
VERTEX
 10
-1.400000
 20
69.200000
 30
0.000000
  8
0
 62
7
  6
CONTINUOUS
  0
VERTEX
 10
-2.400000
 20
69.200000
 30
0.000000
  8
0
 62
7
  6
CONTINUOUS
  0
VERTEX
 10
-2.400000
 20
59.200000
 30
0.000000
  8
0
 62
7
  6
CONTINUOUS
  0
SEQEND
  0
POLYLINE
  8
0
 62
7
  6
CONTINUOUS
 70
0
 66
1
  0
VERTEX
 10
-2.400000
 20
67.700000
  8
0
 62
7
  6
CONTINUOUS
  0
VERTEX
 10
-1.900000
 20
67.700000
  8
0
 62
7
  6
CONTINUOUS
  0
VERTEX
 10
-1.900000
 20
62.100000
  8
0
 62
7
  6
CONTINUOUS
  0
VERTEX
 10
-2.400000
 20
62.100000
  8
0
 62
7
  6
CONTINUOUS
  0
SEQEND
  0
POLYLINE
  8
0
 62
7
  6
CONTINUOUS
 70
1
 66
1
  0
VERTEX
 10
-1.800000
 20
62.800000
 30
0.000000
  8
0
 62
7
  6
CONTINUOUS
  0
VERTEX
 10
-1.800000
 20
64.200000
 30
0.000000
  8
0
 62
7
  6
CONTINUOUS
  0
VERTEX
 10
-1.400000
 20
64.200000
 30
0.000000
  8
0
 62
7
  6
CONTINUOUS
  0
VERTEX
 10
-1.400000
 20
62.800000
 30
0.000000
  8
0
 62
7
  6
CONTINUOUS
  0
SEQEND
  0
POLYLINE
  8
0
 62
7
  6
CONTINUOUS
 70
1
 66
1
  0
VERTEX
 10
-1.800000
 20
65.600000
 30
0.000000
  8
0
 62
7
  6
CONTINUOUS
  0
VERTEX
 10
-1.800000
 20
67.000000
 30
0.000000
  8
0
 62
7
  6
CONTINUOUS
  0
VERTEX
 10
-1.400000
 20
67.000000
 30
0.000000
  8
0
 62
7
  6
CONTINUOUS
  0
VERTEX
 10
-1.400000
 20
65.600000
 30
0.000000
  8
0
 62
7
  6
CONTINUOUS
  0
SEQEND
  0
POLYLINE
  8
0
 62
7
  6
CONTINUOUS
 70
0
 66
1
  0
VERTEX
 10
-1.500000
 20
67.000000
  8
0
 62
7
  6
CONTINUOUS
  0
VERTEX
 10
-1.500000
 20
65.600000
  8
0
 62
7
  6
CONTINUOUS
  0
SEQEND
  0
POLYLINE
  8
0
 62
7
  6
CONTINUOUS
 70
0
 66
1
  0
VERTEX
 10
-1.500000
 20
64.200000
  8
0
 62
7
  6
CONTINUOUS
  0
VERTEX
 10
-1.500000
 20
62.800000
  8
0
 62
7
  6
CONTINUOUS
  0
SEQEND
  0
POLYLINE
  8
0
 62
7
  6
CONTINUOUS
 70
0
 66
1
  0
VERTEX
 10
-1.700000
 20
67.000000
  8
0
 62
7
  6
CONTINUOUS
  0
VERTEX
 10
-1.700000
 20
65.600000
  8
0
 62
7
  6
CONTINUOUS
  0
SEQEND
  0
POLYLINE
  8
0
 62
7
  6
CONTINUOUS
 70
0
 66
1
  0
VERTEX
 10
-1.700000
 20
64.200000
  8
0
 62
7
  6
CONTINUOUS
  0
VERTEX
 10
-1.700000
 20
62.800000
  8
0
 62
7
  6
CONTINUOUS
  0
SEQEND
  0
CIRCLE
  8
0
 62
7
  6
CONTINUOUS
 10
-3.800000
 20
63.500000
 30
0.0
 40
0.700000
  0
CIRCLE
  8
0
 62
7
  6
CONTINUOUS
 10
-3.800000
 20
66.300000
 30
0.0
 40
0.700000
  0
CIRCLE
  8
0
 62
7
  6
CONTINUOUS
 10
-3.800000
 20
63.500000
 30
0.0
 40
0.300000
  0
CIRCLE
  8
0
 62
7
  6
CONTINUOUS
 10
-3.800000
 20
66.300000
 30
0.0
 40
0.300000
  0
CIRCLE
  8
0
 62
7
  6
CONTINUOUS
 10
-3.800000
 20
63.500000
 30
0.0
 40
0.200000
  0
CIRCLE
  8
0
 62
7
  6
CONTINUOUS
 10
-3.800000
 20
66.300000
 30
0.0
 40
0.200000
  0
SOLID
  8
0
 62
255
  6
CONTINUOUS
 10
-2.400000
 20
61.400000
 11
-2.400000
 21
62.700000
 12
-5.300000
 22
61.400000
 13
-5.300000
 23
62.700000
  0
POLYLINE
  8
0
 62
7
  6
CONTINUOUS
 70
1
 66
1
  0
VERTEX
 10
-2.400000
 20
61.400000
 30
0.000000
  8
0
 62
7
  6
CONTINUOUS
  0
VERTEX
 10
-2.400000
 20
62.700000
 30
0.000000
  8
0
 62
7
  6
CONTINUOUS
  0
VERTEX
 10
-5.300000
 20
62.700000
 30
0.000000
  8
0
 62
7
  6
CONTINUOUS
  0
VERTEX
 10
-5.300000
 20
61.400000
 30
0.000000
  8
0
 62
7
  6
CONTINUOUS
  0
SEQEND
  0
SOLID
  8
0
 62
255
  6
CONTINUOUS
 10
-2.400000
 20
64.200000
 11
-2.400000
 21
65.500000
 12
-5.300000
 22
64.200000
 13
-5.300000
 23
65.500000
  0
POLYLINE
  8
0
 62
7
  6
CONTINUOUS
 70
1
 66
1
  0
VERTEX
 10
-2.400000
 20
64.200000
 30
0.000000
  8
0
 62
7
  6
CONTINUOUS
  0
VERTEX
 10
-2.400000
 20
65.500000
 30
0.000000
  8
0
 62
7
  6
CONTINUOUS
  0
VERTEX
 10
-5.300000
 20
65.500000
 30
0.000000
  8
0
 62
7
  6
CONTINUOUS
  0
VERTEX
 10
-5.300000
 20
64.200000
 30
0.000000
  8
0
 62
7
  6
CONTINUOUS
  0
SEQEND
  0
POLYLINE
  8
0
 62
7
  6
CONTINUOUS
 70
0
 66
1
  0
VERTEX
 10
-4.700000
 20
65.500000
  8
0
 62
7
  6
CONTINUOUS
  0
VERTEX
 10
-4.700000
 20
64.200000
  8
0
 62
7
  6
CONTINUOUS
  0
SEQEND
  0
POLYLINE
  8
0
 62
7
  6
CONTINUOUS
 70
0
 66
1
  0
VERTEX
 10
-4.700000
 20
62.700000
  8
0
 62
7
  6
CONTINUOUS
  0
VERTEX
 10
-4.700000
 20
61.400000
  8
0
 62
7
  6
CONTINUOUS
  0
SEQEND
  0
POLYLINE
  8
0
 62
7
  6
CONTINUOUS
 70
0
 66
1
  0
VERTEX
 10
-2.900000
 20
61.400000
  8
0
 62
7
  6
CONTINUOUS
  0
VERTEX
 10
-2.400000
 20
60.200000
  8
0
 62
7
  6
CONTINUOUS
  0
SEQEND
  0
CIRCLE
  8
0
 62
7
  6
CONTINUOUS
 10
-3.800000
 20
62.100000
 30
0.0
 40
0.200000
  0
CIRCLE
  8
0
 62
7
  6
CONTINUOUS
 10
-3.800000
 20
64.900000
 30
0.0
 40
0.200000
  0
SOLID
  8
0
 62
255
  6
CONTINUOUS
 10
-2.400000
 20
15.000000
 11
-2.400000
 21
16.400000
 12
-5.300000
 22
15.000000
 13
-5.300000
 23
16.400000
  0
POLYLINE
  8
0
 62
7
  6
CONTINUOUS
 70
1
 66
1
  0
VERTEX
 10
-2.400000
 20
15.000000
 30
0.000000
  8
0
 62
7
  6
CONTINUOUS
  0
VERTEX
 10
-2.400000
 20
16.400000
 30
0.000000
  8
0
 62
7
  6
CONTINUOUS
  0
VERTEX
 10
-5.300000
 20
16.400000
 30
0.000000
  8
0
 62
7
  6
CONTINUOUS
  0
VERTEX
 10
-5.300000
 20
15.000000
 30
0.000000
  8
0
 62
7
  6
CONTINUOUS
  0
SEQEND
  0
SOLID
  8
0
 62
255
  6
CONTINUOUS
 10
-2.400000
 20
17.800000
 11
-2.400000
 21
19.200000
 12
-5.300000
 22
17.800000
 13
-5.300000
 23
19.200000
  0
POLYLINE
  8
0
 62
7
  6
CONTINUOUS
 70
1
 66
1
  0
VERTEX
 10
-2.400000
 20
17.800000
 30
0.000000
  8
0
 62
7
  6
CONTINUOUS
  0
VERTEX
 10
-2.400000
 20
19.200000
 30
0.000000
  8
0
 62
7
  6
CONTINUOUS
  0
VERTEX
 10
-5.300000
 20
19.200000
 30
0.000000
  8
0
 62
7
  6
CONTINUOUS
  0
VERTEX
 10
-5.300000
 20
17.800000
 30
0.000000
  8
0
 62
7
  6
CONTINUOUS
  0
SEQEND
  0
SOLID
  8
0
 62
255
  6
CONTINUOUS
 10
-1.400000
 20
11.400000
 11
-1.400000
 21
21.400000
 12
-2.400000
 22
11.400000
 13
-2.400000
 23
21.400000
  0
POLYLINE
  8
0
 62
7
  6
CONTINUOUS
 70
1
 66
1
  0
VERTEX
 10
-1.400000
 20
11.400000
 30
0.000000
  8
0
 62
7
  6
CONTINUOUS
  0
VERTEX
 10
-1.400000
 20
21.400000
 30
0.000000
  8
0
 62
7
  6
CONTINUOUS
  0
VERTEX
 10
-2.400000
 20
21.400000
 30
0.000000
  8
0
 62
7
  6
CONTINUOUS
  0
VERTEX
 10
-2.400000
 20
11.400000
 30
0.000000
  8
0
 62
7
  6
CONTINUOUS
  0
SEQEND
  0
POLYLINE
  8
0
 62
7
  6
CONTINUOUS
 70
0
 66
1
  0
VERTEX
 10
-2.400000
 20
19.900000
  8
0
 62
7
  6
CONTINUOUS
  0
VERTEX
 10
-1.900000
 20
19.900000
  8
0
 62
7
  6
CONTINUOUS
  0
VERTEX
 10
-1.900000
 20
14.300000
  8
0
 62
7
  6
CONTINUOUS
  0
VERTEX
 10
-2.400000
 20
14.300000
  8
0
 62
7
  6
CONTINUOUS
  0
SEQEND
  0
POLYLINE
  8
0
 62
7
  6
CONTINUOUS
 70
1
 66
1
  0
VERTEX
 10
-1.800000
 20
15.000000
 30
0.000000
  8
0
 62
7
  6
CONTINUOUS
  0
VERTEX
 10
-1.800000
 20
16.400000
 30
0.000000
  8
0
 62
7
  6
CONTINUOUS
  0
VERTEX
 10
-1.400000
 20
16.400000
 30
0.000000
  8
0
 62
7
  6
CONTINUOUS
  0
VERTEX
 10
-1.400000
 20
15.000000
 30
0.000000
  8
0
 62
7
  6
CONTINUOUS
  0
SEQEND
  0
POLYLINE
  8
0
 62
7
  6
CONTINUOUS
 70
1
 66
1
  0
VERTEX
 10
-1.800000
 20
17.800000
 30
0.000000
  8
0
 62
7
  6
CONTINUOUS
  0
VERTEX
 10
-1.800000
 20
19.200000
 30
0.000000
  8
0
 62
7
  6
CONTINUOUS
  0
VERTEX
 10
-1.400000
 20
19.200000
 30
0.000000
  8
0
 62
7
  6
CONTINUOUS
  0
VERTEX
 10
-1.400000
 20
17.800000
 30
0.000000
  8
0
 62
7
  6
CONTINUOUS
  0
SEQEND
  0
POLYLINE
  8
0
 62
7
  6
CONTINUOUS
 70
0
 66
1
  0
VERTEX
 10
-1.500000
 20
19.200000
  8
0
 62
7
  6
CONTINUOUS
  0
VERTEX
 10
-1.500000
 20
17.800000
  8
0
 62
7
  6
CONTINUOUS
  0
SEQEND
  0
POLYLINE
  8
0
 62
7
  6
CONTINUOUS
 70
0
 66
1
  0
VERTEX
 10
-1.500000
 20
16.400000
  8
0
 62
7
  6
CONTINUOUS
  0
VERTEX
 10
-1.500000
 20
15.000000
  8
0
 62
7
  6
CONTINUOUS
  0
SEQEND
  0
POLYLINE
  8
0
 62
7
  6
CONTINUOUS
 70
0
 66
1
  0
VERTEX
 10
-1.700000
 20
19.200000
  8
0
 62
7
  6
CONTINUOUS
  0
VERTEX
 10
-1.700000
 20
17.800000
  8
0
 62
7
  6
CONTINUOUS
  0
SEQEND
  0
POLYLINE
  8
0
 62
7
  6
CONTINUOUS
 70
0
 66
1
  0
VERTEX
 10
-1.700000
 20
16.400000
  8
0
 62
7
  6
CONTINUOUS
  0
VERTEX
 10
-1.700000
 20
15.000000
  8
0
 62
7
  6
CONTINUOUS
  0
SEQEND
  0
CIRCLE
  8
0
 62
7
  6
CONTINUOUS
 10
-3.800000
 20
15.700000
 30
0.0
 40
0.700000
  0
CIRCLE
  8
0
 62
7
  6
CONTINUOUS
 10
-3.800000
 20
18.500000
 30
0.0
 40
0.700000
  0
CIRCLE
  8
0
 62
7
  6
CONTINUOUS
 10
-3.800000
 20
15.700000
 30
0.0
 40
0.300000
  0
CIRCLE
  8
0
 62
7
  6
CONTINUOUS
 10
-3.800000
 20
18.500000
 30
0.0
 40
0.300000
  0
CIRCLE
  8
0
 62
7
  6
CONTINUOUS
 10
-3.800000
 20
15.700000
 30
0.0
 40
0.200000
  0
CIRCLE
  8
0
 62
7
  6
CONTINUOUS
 10
-3.800000
 20
18.500000
 30
0.0
 40
0.200000
  0
SOLID
  8
0
 62
255
  6
CONTINUOUS
 10
-2.400000
 20
13.600000
 11
-2.400000
 21
14.900000
 12
-5.300000
 22
13.600000
 13
-5.300000
 23
14.900000
  0
POLYLINE
  8
0
 62
7
  6
CONTINUOUS
 70
1
 66
1
  0
VERTEX
 10
-2.400000
 20
13.600000
 30
0.000000
  8
0
 62
7
  6
CONTINUOUS
  0
VERTEX
 10
-2.400000
 20
14.900000
 30
0.000000
  8
0
 62
7
  6
CONTINUOUS
  0
VERTEX
 10
-5.300000
 20
14.900000
 30
0.000000
  8
0
 62
7
  6
CONTINUOUS
  0
VERTEX
 10
-5.300000
 20
13.600000
 30
0.000000
  8
0
 62
7
  6
CONTINUOUS
  0
SEQEND
  0
SOLID
  8
0
 62
255
  6
CONTINUOUS
 10
-2.400000
 20
16.400000
 11
-2.400000
 21
17.700000
 12
-5.300000
 22
16.400000
 13
-5.300000
 23
17.700000
  0
POLYLINE
  8
0
 62
7
  6
CONTINUOUS
 70
1
 66
1
  0
VERTEX
 10
-2.400000
 20
16.400000
 30
0.000000
  8
0
 62
7
  6
CONTINUOUS
  0
VERTEX
 10
-2.400000
 20
17.700000
 30
0.000000
  8
0
 62
7
  6
CONTINUOUS
  0
VERTEX
 10
-5.300000
 20
17.700000
 30
0.000000
  8
0
 62
7
  6
CONTINUOUS
  0
VERTEX
 10
-5.300000
 20
16.400000
 30
0.000000
  8
0
 62
7
  6
CONTINUOUS
  0
SEQEND
  0
POLYLINE
  8
0
 62
7
  6
CONTINUOUS
 70
0
 66
1
  0
VERTEX
 10
-4.700000
 20
17.700000
  8
0
 62
7
  6
CONTINUOUS
  0
VERTEX
 10
-4.700000
 20
16.400000
  8
0
 62
7
  6
CONTINUOUS
  0
SEQEND
  0
POLYLINE
  8
0
 62
7
  6
CONTINUOUS
 70
0
 66
1
  0
VERTEX
 10
-4.700000
 20
14.900000
  8
0
 62
7
  6
CONTINUOUS
  0
VERTEX
 10
-4.700000
 20
13.600000
  8
0
 62
7
  6
CONTINUOUS
  0
SEQEND
  0
POLYLINE
  8
0
 62
7
  6
CONTINUOUS
 70
0
 66
1
  0
VERTEX
 10
-2.900000
 20
13.600000
  8
0
 62
7
  6
CONTINUOUS
  0
VERTEX
 10
-2.400000
 20
12.400000
  8
0
 62
7
  6
CONTINUOUS
  0
SEQEND
  0
CIRCLE
  8
0
 62
7
  6
CONTINUOUS
 10
-3.800000
 20
14.300000
 30
0.0
 40
0.200000
  0
CIRCLE
  8
0
 62
7
  6
CONTINUOUS
 10
-3.800000
 20
17.100000
 30
0.0
 40
0.200000
  0
SOLID
  8
0
 62
255
  6
CONTINUOUS
 10
102.400000
 20
163.500000
 11
102.400000
 21
162.100000
 12
105.300000
 22
163.500000
 13
105.300000
 23
162.100000
  0
POLYLINE
  8
0
 62
7
  6
CONTINUOUS
 70
1
 66
1
  0
VERTEX
 10
102.400000
 20
163.500000
 30
0.000000
  8
0
 62
7
  6
CONTINUOUS
  0
VERTEX
 10
102.400000
 20
162.100000
 30
0.000000
  8
0
 62
7
  6
CONTINUOUS
  0
VERTEX
 10
105.300000
 20
162.100000
 30
0.000000
  8
0
 62
7
  6
CONTINUOUS
  0
VERTEX
 10
105.300000
 20
163.500000
 30
0.000000
  8
0
 62
7
  6
CONTINUOUS
  0
SEQEND
  0
SOLID
  8
0
 62
255
  6
CONTINUOUS
 10
102.400000
 20
164.900000
 11
102.400000
 21
163.600000
 12
105.300000
 22
164.900000
 13
105.300000
 23
163.600000
  0
POLYLINE
  8
0
 62
7
  6
CONTINUOUS
 70
1
 66
1
  0
VERTEX
 10
102.400000
 20
164.900000
 30
0.000000
  8
0
 62
7
  6
CONTINUOUS
  0
VERTEX
 10
102.400000
 20
163.600000
 30
0.000000
  8
0
 62
7
  6
CONTINUOUS
  0
VERTEX
 10
105.300000
 20
163.600000
 30
0.000000
  8
0
 62
7
  6
CONTINUOUS
  0
VERTEX
 10
105.300000
 20
164.900000
 30
0.000000
  8
0
 62
7
  6
CONTINUOUS
  0
SEQEND
  0
SOLID
  8
0
 62
255
  6
CONTINUOUS
 10
102.400000
 20
166.300000
 11
102.400000
 21
164.900000
 12
105.300000
 22
166.300000
 13
105.300000
 23
164.900000
  0
POLYLINE
  8
0
 62
7
  6
CONTINUOUS
 70
1
 66
1
  0
VERTEX
 10
102.400000
 20
166.300000
 30
0.000000
  8
0
 62
7
  6
CONTINUOUS
  0
VERTEX
 10
102.400000
 20
164.900000
 30
0.000000
  8
0
 62
7
  6
CONTINUOUS
  0
VERTEX
 10
105.300000
 20
164.900000
 30
0.000000
  8
0
 62
7
  6
CONTINUOUS
  0
VERTEX
 10
105.300000
 20
166.300000
 30
0.000000
  8
0
 62
7
  6
CONTINUOUS
  0
SEQEND
  0
SOLID
  8
0
 62
255
  6
CONTINUOUS
 10
101.400000
 20
169.900000
 11
101.400000
 21
159.900000
 12
102.400000
 22
169.900000
 13
102.400000
 23
159.900000
  0
POLYLINE
  8
0
 62
7
  6
CONTINUOUS
 70
1
 66
1
  0
VERTEX
 10
101.400000
 20
169.900000
 30
0.000000
  8
0
 62
7
  6
CONTINUOUS
  0
VERTEX
 10
101.400000
 20
159.900000
 30
0.000000
  8
0
 62
7
  6
CONTINUOUS
  0
VERTEX
 10
102.400000
 20
159.900000
 30
0.000000
  8
0
 62
7
  6
CONTINUOUS
  0
VERTEX
 10
102.400000
 20
169.900000
 30
0.000000
  8
0
 62
7
  6
CONTINUOUS
  0
SEQEND
  0
POLYLINE
  8
0
 62
7
  6
CONTINUOUS
 70
0
 66
1
  0
VERTEX
 10
102.400000
 20
161.400000
  8
0
 62
7
  6
CONTINUOUS
  0
VERTEX
 10
101.900000
 20
161.400000
  8
0
 62
7
  6
CONTINUOUS
  0
VERTEX
 10
101.900000
 20
167.000000
  8
0
 62
7
  6
CONTINUOUS
  0
VERTEX
 10
102.400000
 20
167.000000
  8
0
 62
7
  6
CONTINUOUS
  0
SEQEND
  0
POLYLINE
  8
0
 62
7
  6
CONTINUOUS
 70
1
 66
1
  0
VERTEX
 10
101.400000
 20
166.300000
 30
0.000000
  8
0
 62
7
  6
CONTINUOUS
  0
VERTEX
 10
101.400000
 20
164.900000
 30
0.000000
  8
0
 62
7
  6
CONTINUOUS
  0
VERTEX
 10
101.800000
 20
164.900000
 30
0.000000
  8
0
 62
7
  6
CONTINUOUS
  0
VERTEX
 10
101.800000
 20
166.300000
 30
0.000000
  8
0
 62
7
  6
CONTINUOUS
  0
SEQEND
  0
POLYLINE
  8
0
 62
7
  6
CONTINUOUS
 70
1
 66
1
  0
VERTEX
 10
101.400000
 20
163.500000
 30
0.000000
  8
0
 62
7
  6
CONTINUOUS
  0
VERTEX
 10
101.400000
 20
162.100000
 30
0.000000
  8
0
 62
7
  6
CONTINUOUS
  0
VERTEX
 10
101.800000
 20
162.100000
 30
0.000000
  8
0
 62
7
  6
CONTINUOUS
  0
VERTEX
 10
101.800000
 20
163.500000
 30
0.000000
  8
0
 62
7
  6
CONTINUOUS
  0
SEQEND
  0
POLYLINE
  8
0
 62
7
  6
CONTINUOUS
 70
0
 66
1
  0
VERTEX
 10
101.500000
 20
162.100000
  8
0
 62
7
  6
CONTINUOUS
  0
VERTEX
 10
101.500000
 20
163.500000
  8
0
 62
7
  6
CONTINUOUS
  0
SEQEND
  0
POLYLINE
  8
0
 62
7
  6
CONTINUOUS
 70
0
 66
1
  0
VERTEX
 10
101.500000
 20
164.900000
  8
0
 62
7
  6
CONTINUOUS
  0
VERTEX
 10
101.500000
 20
166.300000
  8
0
 62
7
  6
CONTINUOUS
  0
SEQEND
  0
POLYLINE
  8
0
 62
7
  6
CONTINUOUS
 70
0
 66
1
  0
VERTEX
 10
101.700000
 20
162.100000
  8
0
 62
7
  6
CONTINUOUS
  0
VERTEX
 10
101.700000
 20
163.500000
  8
0
 62
7
  6
CONTINUOUS
  0
SEQEND
  0
POLYLINE
  8
0
 62
7
  6
CONTINUOUS
 70
0
 66
1
  0
VERTEX
 10
101.700000
 20
164.900000
  8
0
 62
7
  6
CONTINUOUS
  0
VERTEX
 10
101.700000
 20
166.300000
  8
0
 62
7
  6
CONTINUOUS
  0
SEQEND
  0
CIRCLE
  8
0
 62
7
  6
CONTINUOUS
 10
103.800000
 20
165.600000
 30
0.0
 40
0.700000
  0
CIRCLE
  8
0
 62
7
  6
CONTINUOUS
 10
103.800000
 20
162.800000
 30
0.0
 40
0.700000
  0
CIRCLE
  8
0
 62
7
  6
CONTINUOUS
 10
103.800000
 20
165.600000
 30
0.0
 40
0.300000
  0
CIRCLE
  8
0
 62
7
  6
CONTINUOUS
 10
103.800000
 20
162.800000
 30
0.0
 40
0.300000
  0
CIRCLE
  8
0
 62
7
  6
CONTINUOUS
 10
103.800000
 20
165.600000
 30
0.0
 40
0.200000
  0
CIRCLE
  8
0
 62
7
  6
CONTINUOUS
 10
103.800000
 20
162.800000
 30
0.0
 40
0.200000
  0
SOLID
  8
0
 62
255
  6
CONTINUOUS
 10
102.400000
 20
167.700000
 11
102.400000
 21
166.400000
 12
105.300000
 22
167.700000
 13
105.300000
 23
166.400000
  0
POLYLINE
  8
0
 62
7
  6
CONTINUOUS
 70
1
 66
1
  0
VERTEX
 10
102.400000
 20
167.700000
 30
0.000000
  8
0
 62
7
  6
CONTINUOUS
  0
VERTEX
 10
102.400000
 20
166.400000
 30
0.000000
  8
0
 62
7
  6
CONTINUOUS
  0
VERTEX
 10
105.300000
 20
166.400000
 30
0.000000
  8
0
 62
7
  6
CONTINUOUS
  0
VERTEX
 10
105.300000
 20
167.700000
 30
0.000000
  8
0
 62
7
  6
CONTINUOUS
  0
SEQEND
  0
POLYLINE
  8
0
 62
7
  6
CONTINUOUS
 70
0
 66
1
  0
VERTEX
 10
104.700000
 20
163.600000
  8
0
 62
7
  6
CONTINUOUS
  0
VERTEX
 10
104.700000
 20
164.900000
  8
0
 62
7
  6
CONTINUOUS
  0
SEQEND
  0
POLYLINE
  8
0
 62
7
  6
CONTINUOUS
 70
0
 66
1
  0
VERTEX
 10
104.700000
 20
166.400000
  8
0
 62
7
  6
CONTINUOUS
  0
VERTEX
 10
104.700000
 20
167.700000
  8
0
 62
7
  6
CONTINUOUS
  0
SEQEND
  0
POLYLINE
  8
0
 62
7
  6
CONTINUOUS
 70
0
 66
1
  0
VERTEX
 10
102.400000
 20
160.400000
  8
0
 62
7
  6
CONTINUOUS
  0
VERTEX
 10
103.000000
 20
162.100000
  8
0
 62
7
  6
CONTINUOUS
  0
SEQEND
  0
CIRCLE
  8
0
 62
7
  6
CONTINUOUS
 10
103.800000
 20
167.000000
 30
0.0
 40
0.200000
  0
CIRCLE
  8
0
 62
7
  6
CONTINUOUS
 10
103.800000
 20
164.200000
 30
0.0
 40
0.200000
  0
SOLID
  8
0
 62
255
  6
CONTINUOUS
 10
102.400000
 20
115.700000
 11
102.400000
 21
114.300000
 12
105.300000
 22
115.700000
 13
105.300000
 23
114.300000
  0
POLYLINE
  8
0
 62
7
  6
CONTINUOUS
 70
1
 66
1
  0
VERTEX
 10
102.400000
 20
115.700000
 30
0.000000
  8
0
 62
7
  6
CONTINUOUS
  0
VERTEX
 10
102.400000
 20
114.300000
 30
0.000000
  8
0
 62
7
  6
CONTINUOUS
  0
VERTEX
 10
105.300000
 20
114.300000
 30
0.000000
  8
0
 62
7
  6
CONTINUOUS
  0
VERTEX
 10
105.300000
 20
115.700000
 30
0.000000
  8
0
 62
7
  6
CONTINUOUS
  0
SEQEND
  0
SOLID
  8
0
 62
255
  6
CONTINUOUS
 10
102.400000
 20
117.100000
 11
102.400000
 21
115.800000
 12
105.300000
 22
117.100000
 13
105.300000
 23
115.800000
  0
POLYLINE
  8
0
 62
7
  6
CONTINUOUS
 70
1
 66
1
  0
VERTEX
 10
102.400000
 20
117.100000
 30
0.000000
  8
0
 62
7
  6
CONTINUOUS
  0
VERTEX
 10
102.400000
 20
115.800000
 30
0.000000
  8
0
 62
7
  6
CONTINUOUS
  0
VERTEX
 10
105.300000
 20
115.800000
 30
0.000000
  8
0
 62
7
  6
CONTINUOUS
  0
VERTEX
 10
105.300000
 20
117.100000
 30
0.000000
  8
0
 62
7
  6
CONTINUOUS
  0
SEQEND
  0
SOLID
  8
0
 62
255
  6
CONTINUOUS
 10
102.400000
 20
118.500000
 11
102.400000
 21
117.100000
 12
105.300000
 22
118.500000
 13
105.300000
 23
117.100000
  0
POLYLINE
  8
0
 62
7
  6
CONTINUOUS
 70
1
 66
1
  0
VERTEX
 10
102.400000
 20
118.500000
 30
0.000000
  8
0
 62
7
  6
CONTINUOUS
  0
VERTEX
 10
102.400000
 20
117.100000
 30
0.000000
  8
0
 62
7
  6
CONTINUOUS
  0
VERTEX
 10
105.300000
 20
117.100000
 30
0.000000
  8
0
 62
7
  6
CONTINUOUS
  0
VERTEX
 10
105.300000
 20
118.500000
 30
0.000000
  8
0
 62
7
  6
CONTINUOUS
  0
SEQEND
  0
SOLID
  8
0
 62
255
  6
CONTINUOUS
 10
101.400000
 20
122.100000
 11
101.400000
 21
112.100000
 12
102.400000
 22
122.100000
 13
102.400000
 23
112.100000
  0
POLYLINE
  8
0
 62
7
  6
CONTINUOUS
 70
1
 66
1
  0
VERTEX
 10
101.400000
 20
122.100000
 30
0.000000
  8
0
 62
7
  6
CONTINUOUS
  0
VERTEX
 10
101.400000
 20
112.100000
 30
0.000000
  8
0
 62
7
  6
CONTINUOUS
  0
VERTEX
 10
102.400000
 20
112.100000
 30
0.000000
  8
0
 62
7
  6
CONTINUOUS
  0
VERTEX
 10
102.400000
 20
122.100000
 30
0.000000
  8
0
 62
7
  6
CONTINUOUS
  0
SEQEND
  0
POLYLINE
  8
0
 62
7
  6
CONTINUOUS
 70
0
 66
1
  0
VERTEX
 10
102.400000
 20
113.600000
  8
0
 62
7
  6
CONTINUOUS
  0
VERTEX
 10
101.900000
 20
113.600000
  8
0
 62
7
  6
CONTINUOUS
  0
VERTEX
 10
101.900000
 20
119.200000
  8
0
 62
7
  6
CONTINUOUS
  0
VERTEX
 10
102.400000
 20
119.200000
  8
0
 62
7
  6
CONTINUOUS
  0
SEQEND
  0
POLYLINE
  8
0
 62
7
  6
CONTINUOUS
 70
1
 66
1
  0
VERTEX
 10
101.400000
 20
118.500000
 30
0.000000
  8
0
 62
7
  6
CONTINUOUS
  0
VERTEX
 10
101.400000
 20
117.100000
 30
0.000000
  8
0
 62
7
  6
CONTINUOUS
  0
VERTEX
 10
101.800000
 20
117.100000
 30
0.000000
  8
0
 62
7
  6
CONTINUOUS
  0
VERTEX
 10
101.800000
 20
118.500000
 30
0.000000
  8
0
 62
7
  6
CONTINUOUS
  0
SEQEND
  0
POLYLINE
  8
0
 62
7
  6
CONTINUOUS
 70
1
 66
1
  0
VERTEX
 10
101.400000
 20
115.700000
 30
0.000000
  8
0
 62
7
  6
CONTINUOUS
  0
VERTEX
 10
101.400000
 20
114.300000
 30
0.000000
  8
0
 62
7
  6
CONTINUOUS
  0
VERTEX
 10
101.800000
 20
114.300000
 30
0.000000
  8
0
 62
7
  6
CONTINUOUS
  0
VERTEX
 10
101.800000
 20
115.700000
 30
0.000000
  8
0
 62
7
  6
CONTINUOUS
  0
SEQEND
  0
POLYLINE
  8
0
 62
7
  6
CONTINUOUS
 70
0
 66
1
  0
VERTEX
 10
101.500000
 20
114.300000
  8
0
 62
7
  6
CONTINUOUS
  0
VERTEX
 10
101.500000
 20
115.700000
  8
0
 62
7
  6
CONTINUOUS
  0
SEQEND
  0
POLYLINE
  8
0
 62
7
  6
CONTINUOUS
 70
0
 66
1
  0
VERTEX
 10
101.500000
 20
117.100000
  8
0
 62
7
  6
CONTINUOUS
  0
VERTEX
 10
101.500000
 20
118.500000
  8
0
 62
7
  6
CONTINUOUS
  0
SEQEND
  0
POLYLINE
  8
0
 62
7
  6
CONTINUOUS
 70
0
 66
1
  0
VERTEX
 10
101.700000
 20
114.300000
  8
0
 62
7
  6
CONTINUOUS
  0
VERTEX
 10
101.700000
 20
115.700000
  8
0
 62
7
  6
CONTINUOUS
  0
SEQEND
  0
POLYLINE
  8
0
 62
7
  6
CONTINUOUS
 70
0
 66
1
  0
VERTEX
 10
101.700000
 20
117.100000
  8
0
 62
7
  6
CONTINUOUS
  0
VERTEX
 10
101.700000
 20
118.500000
  8
0
 62
7
  6
CONTINUOUS
  0
SEQEND
  0
CIRCLE
  8
0
 62
7
  6
CONTINUOUS
 10
103.800000
 20
117.800000
 30
0.0
 40
0.700000
  0
CIRCLE
  8
0
 62
7
  6
CONTINUOUS
 10
103.800000
 20
115.000000
 30
0.0
 40
0.700000
  0
CIRCLE
  8
0
 62
7
  6
CONTINUOUS
 10
103.800000
 20
117.800000
 30
0.0
 40
0.300000
  0
CIRCLE
  8
0
 62
7
  6
CONTINUOUS
 10
103.800000
 20
115.000000
 30
0.0
 40
0.300000
  0
CIRCLE
  8
0
 62
7
  6
CONTINUOUS
 10
103.800000
 20
117.800000
 30
0.0
 40
0.200000
  0
CIRCLE
  8
0
 62
7
  6
CONTINUOUS
 10
103.800000
 20
115.000000
 30
0.0
 40
0.200000
  0
SOLID
  8
0
 62
255
  6
CONTINUOUS
 10
102.400000
 20
119.900000
 11
102.400000
 21
118.600000
 12
105.300000
 22
119.900000
 13
105.300000
 23
118.600000
  0
POLYLINE
  8
0
 62
7
  6
CONTINUOUS
 70
1
 66
1
  0
VERTEX
 10
102.400000
 20
119.900000
 30
0.000000
  8
0
 62
7
  6
CONTINUOUS
  0
VERTEX
 10
102.400000
 20
118.600000
 30
0.000000
  8
0
 62
7
  6
CONTINUOUS
  0
VERTEX
 10
105.300000
 20
118.600000
 30
0.000000
  8
0
 62
7
  6
CONTINUOUS
  0
VERTEX
 10
105.300000
 20
119.900000
 30
0.000000
  8
0
 62
7
  6
CONTINUOUS
  0
SEQEND
  0
POLYLINE
  8
0
 62
7
  6
CONTINUOUS
 70
0
 66
1
  0
VERTEX
 10
104.700000
 20
115.800000
  8
0
 62
7
  6
CONTINUOUS
  0
VERTEX
 10
104.700000
 20
117.100000
  8
0
 62
7
  6
CONTINUOUS
  0
SEQEND
  0
POLYLINE
  8
0
 62
7
  6
CONTINUOUS
 70
0
 66
1
  0
VERTEX
 10
104.700000
 20
118.600000
  8
0
 62
7
  6
CONTINUOUS
  0
VERTEX
 10
104.700000
 20
119.900000
  8
0
 62
7
  6
CONTINUOUS
  0
SEQEND
  0
POLYLINE
  8
0
 62
7
  6
CONTINUOUS
 70
0
 66
1
  0
VERTEX
 10
102.400000
 20
112.600000
  8
0
 62
7
  6
CONTINUOUS
  0
VERTEX
 10
103.000000
 20
114.300000
  8
0
 62
7
  6
CONTINUOUS
  0
SEQEND
  0
CIRCLE
  8
0
 62
7
  6
CONTINUOUS
 10
103.800000
 20
119.200000
 30
0.0
 40
0.200000
  0
CIRCLE
  8
0
 62
7
  6
CONTINUOUS
 10
103.800000
 20
116.400000
 30
0.0
 40
0.200000
  0
SOLID
  8
0
 62
255
  6
CONTINUOUS
 10
102.400000
 20
62.800000
 11
102.400000
 21
61.400000
 12
105.300000
 22
62.800000
 13
105.300000
 23
61.400000
  0
POLYLINE
  8
0
 62
7
  6
CONTINUOUS
 70
1
 66
1
  0
VERTEX
 10
102.400000
 20
62.800000
 30
0.000000
  8
0
 62
7
  6
CONTINUOUS
  0
VERTEX
 10
102.400000
 20
61.400000
 30
0.000000
  8
0
 62
7
  6
CONTINUOUS
  0
VERTEX
 10
105.300000
 20
61.400000
 30
0.000000
  8
0
 62
7
  6
CONTINUOUS
  0
VERTEX
 10
105.300000
 20
62.800000
 30
0.000000
  8
0
 62
7
  6
CONTINUOUS
  0
SEQEND
  0
SOLID
  8
0
 62
255
  6
CONTINUOUS
 10
102.400000
 20
64.200000
 11
102.400000
 21
62.900000
 12
105.300000
 22
64.200000
 13
105.300000
 23
62.900000
  0
POLYLINE
  8
0
 62
7
  6
CONTINUOUS
 70
1
 66
1
  0
VERTEX
 10
102.400000
 20
64.200000
 30
0.000000
  8
0
 62
7
  6
CONTINUOUS
  0
VERTEX
 10
102.400000
 20
62.900000
 30
0.000000
  8
0
 62
7
  6
CONTINUOUS
  0
VERTEX
 10
105.300000
 20
62.900000
 30
0.000000
  8
0
 62
7
  6
CONTINUOUS
  0
VERTEX
 10
105.300000
 20
64.200000
 30
0.000000
  8
0
 62
7
  6
CONTINUOUS
  0
SEQEND
  0
SOLID
  8
0
 62
255
  6
CONTINUOUS
 10
102.400000
 20
65.600000
 11
102.400000
 21
64.200000
 12
105.300000
 22
65.600000
 13
105.300000
 23
64.200000
  0
POLYLINE
  8
0
 62
7
  6
CONTINUOUS
 70
1
 66
1
  0
VERTEX
 10
102.400000
 20
65.600000
 30
0.000000
  8
0
 62
7
  6
CONTINUOUS
  0
VERTEX
 10
102.400000
 20
64.200000
 30
0.000000
  8
0
 62
7
  6
CONTINUOUS
  0
VERTEX
 10
105.300000
 20
64.200000
 30
0.000000
  8
0
 62
7
  6
CONTINUOUS
  0
VERTEX
 10
105.300000
 20
65.600000
 30
0.000000
  8
0
 62
7
  6
CONTINUOUS
  0
SEQEND
  0
SOLID
  8
0
 62
255
  6
CONTINUOUS
 10
101.400000
 20
69.200000
 11
101.400000
 21
59.200000
 12
102.400000
 22
69.200000
 13
102.400000
 23
59.200000
  0
POLYLINE
  8
0
 62
7
  6
CONTINUOUS
 70
1
 66
1
  0
VERTEX
 10
101.400000
 20
69.200000
 30
0.000000
  8
0
 62
7
  6
CONTINUOUS
  0
VERTEX
 10
101.400000
 20
59.200000
 30
0.000000
  8
0
 62
7
  6
CONTINUOUS
  0
VERTEX
 10
102.400000
 20
59.200000
 30
0.000000
  8
0
 62
7
  6
CONTINUOUS
  0
VERTEX
 10
102.400000
 20
69.200000
 30
0.000000
  8
0
 62
7
  6
CONTINUOUS
  0
SEQEND
  0
POLYLINE
  8
0
 62
7
  6
CONTINUOUS
 70
0
 66
1
  0
VERTEX
 10
102.400000
 20
60.700000
  8
0
 62
7
  6
CONTINUOUS
  0
VERTEX
 10
101.900000
 20
60.700000
  8
0
 62
7
  6
CONTINUOUS
  0
VERTEX
 10
101.900000
 20
66.300000
  8
0
 62
7
  6
CONTINUOUS
  0
VERTEX
 10
102.400000
 20
66.300000
  8
0
 62
7
  6
CONTINUOUS
  0
SEQEND
  0
POLYLINE
  8
0
 62
7
  6
CONTINUOUS
 70
1
 66
1
  0
VERTEX
 10
101.400000
 20
65.600000
 30
0.000000
  8
0
 62
7
  6
CONTINUOUS
  0
VERTEX
 10
101.400000
 20
64.200000
 30
0.000000
  8
0
 62
7
  6
CONTINUOUS
  0
VERTEX
 10
101.800000
 20
64.200000
 30
0.000000
  8
0
 62
7
  6
CONTINUOUS
  0
VERTEX
 10
101.800000
 20
65.600000
 30
0.000000
  8
0
 62
7
  6
CONTINUOUS
  0
SEQEND
  0
POLYLINE
  8
0
 62
7
  6
CONTINUOUS
 70
1
 66
1
  0
VERTEX
 10
101.400000
 20
62.800000
 30
0.000000
  8
0
 62
7
  6
CONTINUOUS
  0
VERTEX
 10
101.400000
 20
61.400000
 30
0.000000
  8
0
 62
7
  6
CONTINUOUS
  0
VERTEX
 10
101.800000
 20
61.400000
 30
0.000000
  8
0
 62
7
  6
CONTINUOUS
  0
VERTEX
 10
101.800000
 20
62.800000
 30
0.000000
  8
0
 62
7
  6
CONTINUOUS
  0
SEQEND
  0
POLYLINE
  8
0
 62
7
  6
CONTINUOUS
 70
0
 66
1
  0
VERTEX
 10
101.500000
 20
61.400000
  8
0
 62
7
  6
CONTINUOUS
  0
VERTEX
 10
101.500000
 20
62.800000
  8
0
 62
7
  6
CONTINUOUS
  0
SEQEND
  0
POLYLINE
  8
0
 62
7
  6
CONTINUOUS
 70
0
 66
1
  0
VERTEX
 10
101.500000
 20
64.200000
  8
0
 62
7
  6
CONTINUOUS
  0
VERTEX
 10
101.500000
 20
65.600000
  8
0
 62
7
  6
CONTINUOUS
  0
SEQEND
  0
POLYLINE
  8
0
 62
7
  6
CONTINUOUS
 70
0
 66
1
  0
VERTEX
 10
101.700000
 20
61.400000
  8
0
 62
7
  6
CONTINUOUS
  0
VERTEX
 10
101.700000
 20
62.800000
  8
0
 62
7
  6
CONTINUOUS
  0
SEQEND
  0
POLYLINE
  8
0
 62
7
  6
CONTINUOUS
 70
0
 66
1
  0
VERTEX
 10
101.700000
 20
64.200000
  8
0
 62
7
  6
CONTINUOUS
  0
VERTEX
 10
101.700000
 20
65.600000
  8
0
 62
7
  6
CONTINUOUS
  0
SEQEND
  0
CIRCLE
  8
0
 62
7
  6
CONTINUOUS
 10
103.800000
 20
64.900000
 30
0.0
 40
0.700000
  0
CIRCLE
  8
0
 62
7
  6
CONTINUOUS
 10
103.800000
 20
62.100000
 30
0.0
 40
0.700000
  0
CIRCLE
  8
0
 62
7
  6
CONTINUOUS
 10
103.800000
 20
64.900000
 30
0.0
 40
0.300000
  0
CIRCLE
  8
0
 62
7
  6
CONTINUOUS
 10
103.800000
 20
62.100000
 30
0.0
 40
0.300000
  0
CIRCLE
  8
0
 62
7
  6
CONTINUOUS
 10
103.800000
 20
64.900000
 30
0.0
 40
0.200000
  0
CIRCLE
  8
0
 62
7
  6
CONTINUOUS
 10
103.800000
 20
62.100000
 30
0.0
 40
0.200000
  0
SOLID
  8
0
 62
255
  6
CONTINUOUS
 10
102.400000
 20
67.000000
 11
102.400000
 21
65.700000
 12
105.300000
 22
67.000000
 13
105.300000
 23
65.700000
  0
POLYLINE
  8
0
 62
7
  6
CONTINUOUS
 70
1
 66
1
  0
VERTEX
 10
102.400000
 20
67.000000
 30
0.000000
  8
0
 62
7
  6
CONTINUOUS
  0
VERTEX
 10
102.400000
 20
65.700000
 30
0.000000
  8
0
 62
7
  6
CONTINUOUS
  0
VERTEX
 10
105.300000
 20
65.700000
 30
0.000000
  8
0
 62
7
  6
CONTINUOUS
  0
VERTEX
 10
105.300000
 20
67.000000
 30
0.000000
  8
0
 62
7
  6
CONTINUOUS
  0
SEQEND
  0
POLYLINE
  8
0
 62
7
  6
CONTINUOUS
 70
0
 66
1
  0
VERTEX
 10
104.700000
 20
62.900000
  8
0
 62
7
  6
CONTINUOUS
  0
VERTEX
 10
104.700000
 20
64.200000
  8
0
 62
7
  6
CONTINUOUS
  0
SEQEND
  0
POLYLINE
  8
0
 62
7
  6
CONTINUOUS
 70
0
 66
1
  0
VERTEX
 10
104.700000
 20
65.700000
  8
0
 62
7
  6
CONTINUOUS
  0
VERTEX
 10
104.700000
 20
67.000000
  8
0
 62
7
  6
CONTINUOUS
  0
SEQEND
  0
POLYLINE
  8
0
 62
7
  6
CONTINUOUS
 70
0
 66
1
  0
VERTEX
 10
102.400000
 20
59.700000
  8
0
 62
7
  6
CONTINUOUS
  0
VERTEX
 10
103.000000
 20
61.400000
  8
0
 62
7
  6
CONTINUOUS
  0
SEQEND
  0
CIRCLE
  8
0
 62
7
  6
CONTINUOUS
 10
103.800000
 20
66.300000
 30
0.0
 40
0.200000
  0
CIRCLE
  8
0
 62
7
  6
CONTINUOUS
 10
103.800000
 20
63.500000
 30
0.0
 40
0.200000
  0
SOLID
  8
0
 62
255
  6
CONTINUOUS
 10
102.400000
 20
15.000000
 11
102.400000
 21
13.600000
 12
105.300000
 22
15.000000
 13
105.300000
 23
13.600000
  0
POLYLINE
  8
0
 62
7
  6
CONTINUOUS
 70
1
 66
1
  0
VERTEX
 10
102.400000
 20
15.000000
 30
0.000000
  8
0
 62
7
  6
CONTINUOUS
  0
VERTEX
 10
102.400000
 20
13.600000
 30
0.000000
  8
0
 62
7
  6
CONTINUOUS
  0
VERTEX
 10
105.300000
 20
13.600000
 30
0.000000
  8
0
 62
7
  6
CONTINUOUS
  0
VERTEX
 10
105.300000
 20
15.000000
 30
0.000000
  8
0
 62
7
  6
CONTINUOUS
  0
SEQEND
  0
SOLID
  8
0
 62
255
  6
CONTINUOUS
 10
102.400000
 20
16.400000
 11
102.400000
 21
15.100000
 12
105.300000
 22
16.400000
 13
105.300000
 23
15.100000
  0
POLYLINE
  8
0
 62
7
  6
CONTINUOUS
 70
1
 66
1
  0
VERTEX
 10
102.400000
 20
16.400000
 30
0.000000
  8
0
 62
7
  6
CONTINUOUS
  0
VERTEX
 10
102.400000
 20
15.100000
 30
0.000000
  8
0
 62
7
  6
CONTINUOUS
  0
VERTEX
 10
105.300000
 20
15.100000
 30
0.000000
  8
0
 62
7
  6
CONTINUOUS
  0
VERTEX
 10
105.300000
 20
16.400000
 30
0.000000
  8
0
 62
7
  6
CONTINUOUS
  0
SEQEND
  0
SOLID
  8
0
 62
255
  6
CONTINUOUS
 10
102.400000
 20
17.800000
 11
102.400000
 21
16.400000
 12
105.300000
 22
17.800000
 13
105.300000
 23
16.400000
  0
POLYLINE
  8
0
 62
7
  6
CONTINUOUS
 70
1
 66
1
  0
VERTEX
 10
102.400000
 20
17.800000
 30
0.000000
  8
0
 62
7
  6
CONTINUOUS
  0
VERTEX
 10
102.400000
 20
16.400000
 30
0.000000
  8
0
 62
7
  6
CONTINUOUS
  0
VERTEX
 10
105.300000
 20
16.400000
 30
0.000000
  8
0
 62
7
  6
CONTINUOUS
  0
VERTEX
 10
105.300000
 20
17.800000
 30
0.000000
  8
0
 62
7
  6
CONTINUOUS
  0
SEQEND
  0
SOLID
  8
0
 62
255
  6
CONTINUOUS
 10
101.400000
 20
21.400000
 11
101.400000
 21
11.400000
 12
102.400000
 22
21.400000
 13
102.400000
 23
11.400000
  0
POLYLINE
  8
0
 62
7
  6
CONTINUOUS
 70
1
 66
1
  0
VERTEX
 10
101.400000
 20
21.400000
 30
0.000000
  8
0
 62
7
  6
CONTINUOUS
  0
VERTEX
 10
101.400000
 20
11.400000
 30
0.000000
  8
0
 62
7
  6
CONTINUOUS
  0
VERTEX
 10
102.400000
 20
11.400000
 30
0.000000
  8
0
 62
7
  6
CONTINUOUS
  0
VERTEX
 10
102.400000
 20
21.400000
 30
0.000000
  8
0
 62
7
  6
CONTINUOUS
  0
SEQEND
  0
POLYLINE
  8
0
 62
7
  6
CONTINUOUS
 70
0
 66
1
  0
VERTEX
 10
102.400000
 20
12.900000
  8
0
 62
7
  6
CONTINUOUS
  0
VERTEX
 10
101.900000
 20
12.900000
  8
0
 62
7
  6
CONTINUOUS
  0
VERTEX
 10
101.900000
 20
18.500000
  8
0
 62
7
  6
CONTINUOUS
  0
VERTEX
 10
102.400000
 20
18.500000
  8
0
 62
7
  6
CONTINUOUS
  0
SEQEND
  0
POLYLINE
  8
0
 62
7
  6
CONTINUOUS
 70
1
 66
1
  0
VERTEX
 10
101.400000
 20
17.800000
 30
0.000000
  8
0
 62
7
  6
CONTINUOUS
  0
VERTEX
 10
101.400000
 20
16.400000
 30
0.000000
  8
0
 62
7
  6
CONTINUOUS
  0
VERTEX
 10
101.800000
 20
16.400000
 30
0.000000
  8
0
 62
7
  6
CONTINUOUS
  0
VERTEX
 10
101.800000
 20
17.800000
 30
0.000000
  8
0
 62
7
  6
CONTINUOUS
  0
SEQEND
  0
POLYLINE
  8
0
 62
7
  6
CONTINUOUS
 70
1
 66
1
  0
VERTEX
 10
101.400000
 20
15.000000
 30
0.000000
  8
0
 62
7
  6
CONTINUOUS
  0
VERTEX
 10
101.400000
 20
13.600000
 30
0.000000
  8
0
 62
7
  6
CONTINUOUS
  0
VERTEX
 10
101.800000
 20
13.600000
 30
0.000000
  8
0
 62
7
  6
CONTINUOUS
  0
VERTEX
 10
101.800000
 20
15.000000
 30
0.000000
  8
0
 62
7
  6
CONTINUOUS
  0
SEQEND
  0
POLYLINE
  8
0
 62
7
  6
CONTINUOUS
 70
0
 66
1
  0
VERTEX
 10
101.500000
 20
13.600000
  8
0
 62
7
  6
CONTINUOUS
  0
VERTEX
 10
101.500000
 20
15.000000
  8
0
 62
7
  6
CONTINUOUS
  0
SEQEND
  0
POLYLINE
  8
0
 62
7
  6
CONTINUOUS
 70
0
 66
1
  0
VERTEX
 10
101.500000
 20
16.400000
  8
0
 62
7
  6
CONTINUOUS
  0
VERTEX
 10
101.500000
 20
17.800000
  8
0
 62
7
  6
CONTINUOUS
  0
SEQEND
  0
POLYLINE
  8
0
 62
7
  6
CONTINUOUS
 70
0
 66
1
  0
VERTEX
 10
101.700000
 20
13.600000
  8
0
 62
7
  6
CONTINUOUS
  0
VERTEX
 10
101.700000
 20
15.000000
  8
0
 62
7
  6
CONTINUOUS
  0
SEQEND
  0
POLYLINE
  8
0
 62
7
  6
CONTINUOUS
 70
0
 66
1
  0
VERTEX
 10
101.700000
 20
16.400000
  8
0
 62
7
  6
CONTINUOUS
  0
VERTEX
 10
101.700000
 20
17.800000
  8
0
 62
7
  6
CONTINUOUS
  0
SEQEND
  0
CIRCLE
  8
0
 62
7
  6
CONTINUOUS
 10
103.800000
 20
17.100000
 30
0.0
 40
0.700000
  0
CIRCLE
  8
0
 62
7
  6
CONTINUOUS
 10
103.800000
 20
14.300000
 30
0.0
 40
0.700000
  0
CIRCLE
  8
0
 62
7
  6
CONTINUOUS
 10
103.800000
 20
17.100000
 30
0.0
 40
0.300000
  0
CIRCLE
  8
0
 62
7
  6
CONTINUOUS
 10
103.800000
 20
14.300000
 30
0.0
 40
0.300000
  0
CIRCLE
  8
0
 62
7
  6
CONTINUOUS
 10
103.800000
 20
17.100000
 30
0.0
 40
0.200000
  0
CIRCLE
  8
0
 62
7
  6
CONTINUOUS
 10
103.800000
 20
14.300000
 30
0.0
 40
0.200000
  0
SOLID
  8
0
 62
255
  6
CONTINUOUS
 10
102.400000
 20
19.200000
 11
102.400000
 21
17.900000
 12
105.300000
 22
19.200000
 13
105.300000
 23
17.900000
  0
POLYLINE
  8
0
 62
7
  6
CONTINUOUS
 70
1
 66
1
  0
VERTEX
 10
102.400000
 20
19.200000
 30
0.000000
  8
0
 62
7
  6
CONTINUOUS
  0
VERTEX
 10
102.400000
 20
17.900000
 30
0.000000
  8
0
 62
7
  6
CONTINUOUS
  0
VERTEX
 10
105.300000
 20
17.900000
 30
0.000000
  8
0
 62
7
  6
CONTINUOUS
  0
VERTEX
 10
105.300000
 20
19.200000
 30
0.000000
  8
0
 62
7
  6
CONTINUOUS
  0
SEQEND
  0
POLYLINE
  8
0
 62
7
  6
CONTINUOUS
 70
0
 66
1
  0
VERTEX
 10
104.700000
 20
15.100000
  8
0
 62
7
  6
CONTINUOUS
  0
VERTEX
 10
104.700000
 20
16.400000
  8
0
 62
7
  6
CONTINUOUS
  0
SEQEND
  0
POLYLINE
  8
0
 62
7
  6
CONTINUOUS
 70
0
 66
1
  0
VERTEX
 10
104.700000
 20
17.900000
  8
0
 62
7
  6
CONTINUOUS
  0
VERTEX
 10
104.700000
 20
19.200000
  8
0
 62
7
  6
CONTINUOUS
  0
SEQEND
  0
POLYLINE
  8
0
 62
7
  6
CONTINUOUS
 70
0
 66
1
  0
VERTEX
 10
102.400000
 20
11.900000
  8
0
 62
7
  6
CONTINUOUS
  0
VERTEX
 10
103.000000
 20
13.600000
  8
0
 62
7
  6
CONTINUOUS
  0
SEQEND
  0
CIRCLE
  8
0
 62
7
  6
CONTINUOUS
 10
103.800000
 20
18.500000
 30
0.0
 40
0.200000
  0
CIRCLE
  8
0
 62
7
  6
CONTINUOUS
 10
103.800000
 20
15.700000
 30
0.0
 40
0.200000
  0
POLYLINE
  8
0
 62
7
  6
CONTINUOUS
 70
1
 66
1
  0
VERTEX
 10
-2.400000
 20
119.900000
  8
0
 62
7
  6
CONTINUOUS
  0
VERTEX
 10
-2.400000
 20
121.600000
  8
0
 62
7
  6
CONTINUOUS
  0
VERTEX
 10
-3.000000
 20
119.900000
  8
0
 62
7
  6
CONTINUOUS
  0
SEQEND
  0
POLYLINE
  8
0
 62
7
  6
CONTINUOUS
 70
1
 66
1
  0
VERTEX
 10
-2.400000
 20
167.700000
  8
0
 62
7
  6
CONTINUOUS
  0
VERTEX
 10
-2.400000
 20
169.400000
  8
0
 62
7
  6
CONTINUOUS
  0
VERTEX
 10
-3.000000
 20
167.700000
  8
0
 62
7
  6
CONTINUOUS
  0
SEQEND
  0
POLYLINE
  8
0
 62
7
  6
CONTINUOUS
 70
1
 66
1
  0
VERTEX
 10
-2.400000
 20
67.000000
  8
0
 62
7
  6
CONTINUOUS
  0
VERTEX
 10
-2.400000
 20
68.700000
  8
0
 62
7
  6
CONTINUOUS
  0
VERTEX
 10
-3.000000
 20
67.000000
  8
0
 62
7
  6
CONTINUOUS
  0
SEQEND
  0
POLYLINE
  8
0
 62
7
  6
CONTINUOUS
 70
1
 66
1
  0
VERTEX
 10
-2.400000
 20
19.200000
  8
0
 62
7
  6
CONTINUOUS
  0
VERTEX
 10
-2.400000
 20
20.900000
  8
0
 62
7
  6
CONTINUOUS
  0
VERTEX
 10
-3.000000
 20
19.200000
  8
0
 62
7
  6
CONTINUOUS
  0
SEQEND
  0
POLYLINE
  8
0
 62
7
  6
CONTINUOUS
 70
1
 66
1
  0
VERTEX
 10
102.400000
 20
167.700000
  8
0
 62
7
  6
CONTINUOUS
  0
VERTEX
 10
102.900000
 20
167.700000
  8
0
 62
7
  6
CONTINUOUS
  0
VERTEX
 10
102.400000
 20
168.900000
  8
0
 62
7
  6
CONTINUOUS
  0
SEQEND
  0
POLYLINE
  8
0
 62
7
  6
CONTINUOUS
 70
1
 66
1
  0
VERTEX
 10
102.400000
 20
119.900000
  8
0
 62
7
  6
CONTINUOUS
  0
VERTEX
 10
102.900000
 20
119.900000
  8
0
 62
7
  6
CONTINUOUS
  0
VERTEX
 10
102.400000
 20
121.100000
  8
0
 62
7
  6
CONTINUOUS
  0
SEQEND
  0
POLYLINE
  8
0
 62
7
  6
CONTINUOUS
 70
1
 66
1
  0
VERTEX
 10
102.400000
 20
67.000000
  8
0
 62
7
  6
CONTINUOUS
  0
VERTEX
 10
102.900000
 20
67.000000
  8
0
 62
7
  6
CONTINUOUS
  0
VERTEX
 10
102.400000
 20
68.200000
  8
0
 62
7
  6
CONTINUOUS
  0
SEQEND
  0
POLYLINE
  8
0
 62
7
  6
CONTINUOUS
 70
1
 66
1
  0
VERTEX
 10
102.400000
 20
19.200000
  8
0
 62
7
  6
CONTINUOUS
  0
VERTEX
 10
102.900000
 20
19.200000
  8
0
 62
7
  6
CONTINUOUS
  0
VERTEX
 10
102.400000
 20
20.400000
  8
0
 62
7
  6
CONTINUOUS
  0
SEQEND
  0
ENDBLK
  0
ENDSEC
  0
SECTION
  2
ENTITIES
  0
INSERT
  8
0
 2
r412t4b_e
 10
0.000000
 20
0.000000
 30
0.0
 50
0.0
  0
ENDSEC
  0
EOF
