  0
SECTION
  2
HEADER
  9
$ACADVER
  1
AC1009
  9
$INSBASE
 10
0.0
 20
0.0
 30
0.0
  9
$EXTMIN
 10
0.0
 20
0.0
 30
0.0
  9
$EXTMAX
 10
0.000000
 20
0.000000
 30
0.0
  9
$LIMMIN
 10
0.0
 20
0.0
  9
$LIMMAX
 10
0.000000
 20
0.000000
  0
ENDSEC
  0
SECTION
  2
TABLES
  0
TABLE
  2
LTYPE
 70
2
  0
LTYPE
  2
L000000020000FFFFFF
 70
64
  3
Solid line
 72
65
 73
0
 40
0.000000
  0
LTYPE
  2
CONTINUOUS
 70
64
  3
Solid line
 72
65
 73
0
 40
0.000000
  0
ENDTAB
  0
TABLE
  2
LAYER
 70
8
  0
LAYER
  2
0
 70
64
 62
7
  6
CONTINUOUS
  0
LAYER
  2
1
 70
64
 62
7
  6
CONTINUOUS
  0
LAYER
  2
2
 70
64
 62
7
  6
CONTINUOUS
  0
LAYER
  2
3
 70
64
 62
-7
  6
CONTINUOUS
  0
LAYER
  2
4
 70
64
 62
7
  6
CONTINUOUS
  0
LAYER
  2
5
 70
64
 62
7
  6
CONTINUOUS
  0
LAYER
  2
6
 70
64
 62
7
  6
CONTINUOUS
  0
LAYER
  2
7
 70
64
 62
-7
  6
CONTINUOUS
  0
LAYER
  2
8
 70
64
 62
7
  6
CONTINUOUS
  0
LAYER
  2
9
 70
64
 62
7
  6
CONTINUOUS
  0
LAYER
  2
10
 70
64
 62
-7
  6
CONTINUOUS
  0
LAYER
  2
11
 70
64
 62
-7
  6
CONTINUOUS
  0
LAYER
  2
12
 70
64
 62
7
  6
CONTINUOUS
  0
LAYER
  2
13
 70
64
 62
7
  6
CONTINUOUS
  0
LAYER
  2
14
 70
64
 62
7
  6
CONTINUOUS
  0
LAYER
  2
15
 70
64
 62
7
  6
CONTINUOUS
  0
LAYER
  2
16
 70
64
 62
7
  6
CONTINUOUS
  0
LAYER
  2
17
 70
64
 62
7
  6
CONTINUOUS
  0
LAYER
  2
18
 70
64
 62
7
  6
CONTINUOUS
  0
LAYER
  2
19
 70
64
 62
7
  6
CONTINUOUS
  0
ENDTAB
  0
ENDSEC
  0
SECTION
  2
BLOCKS
  0
BLOCK
  8
0
  2
ta31_e
 70
 0
 10
0.0
 20
0.0
 30
0.0
  0
SOLID
  8
0
 62
255
  6
CONTINUOUS
 10
28.700000
 20
48.700000
 11
28.700000
 21
-3.700000
 12
-3.700000
 22
48.700000
 13
-3.700000
 23
-3.700000
  0
POLYLINE
  8
0
 62
7
  6
CONTINUOUS
 70
1
 66
1
  0
VERTEX
 10
28.700000
 20
48.700000
 30
0.000000
  8
0
 62
7
  6
CONTINUOUS
  0
VERTEX
 10
28.700000
 20
-3.700000
 30
0.000000
  8
0
 62
7
  6
CONTINUOUS
  0
VERTEX
 10
-3.700000
 20
-3.700000
 30
0.000000
  8
0
 62
7
  6
CONTINUOUS
  0
VERTEX
 10
-3.700000
 20
48.700000
 30
0.000000
  8
0
 62
7
  6
CONTINUOUS
  0
SEQEND
  0
POLYLINE
  8
0
 62
7
  6
CONTINUOUS
 70
1
 66
1
  0
VERTEX
 10
25.500000
 20
45.500000
 30
0.000000
  8
0
 62
7
  6
CONTINUOUS
  0
VERTEX
 10
25.500000
 20
-0.500000
 30
0.000000
  8
0
 62
7
  6
CONTINUOUS
  0
VERTEX
 10
-0.500000
 20
-0.500000
 30
0.000000
  8
0
 62
7
  6
CONTINUOUS
  0
VERTEX
 10
-0.500000
 20
45.500000
 30
0.000000
  8
0
 62
7
  6
CONTINUOUS
  0
SEQEND
  0
ENDBLK
  0
BLOCK
  8
3
  2
ta31_d
 70
 0
 10
0.0
 20
0.0
 30
0.0
  0
SOLID
  8
3
 62
255
  6
CONTINUOUS
 10
25.500000
 20
45.500000
 11
25.500000
 21
-0.500000
 12
-0.500000
 22
45.500000
 13
-0.500000
 23
-0.500000
  0
POLYLINE
  8
3
 62
7
  6
CONTINUOUS
 70
1
 66
1
  0
VERTEX
 10
25.500000
 20
45.500000
 30
0.000000
  8
3
 62
7
  6
CONTINUOUS
  0
VERTEX
 10
25.500000
 20
-0.500000
 30
0.000000
  8
3
 62
7
  6
CONTINUOUS
  0
VERTEX
 10
-0.500000
 20
-0.500000
 30
0.000000
  8
3
 62
7
  6
CONTINUOUS
  0
VERTEX
 10
-0.500000
 20
45.500000
 30
0.000000
  8
3
 62
7
  6
CONTINUOUS
  0
SEQEND
  0
POLYLINE
  8
3
 62
7
  6
CONTINUOUS
 70
1
 66
1
  0
VERTEX
 10
25.000000
 20
45.000000
 30
0.000000
  8
3
 62
7
  6
CONTINUOUS
  0
VERTEX
 10
25.000000
 20
0.000000
 30
0.000000
  8
3
 62
7
  6
CONTINUOUS
  0
VERTEX
 10
0.000000
 20
0.000000
 30
0.000000
  8
3
 62
7
  6
CONTINUOUS
  0
VERTEX
 10
0.000000
 20
45.000000
 30
0.000000
  8
3
 62
7
  6
CONTINUOUS
  0
SEQEND
  0
ENDBLK
  0
BLOCK
  8
7
  2
zb113
 70
 0
 10
0.0
 20
0.0
 30
0.0
  0
SOLID
  8
7
 62
255
  6
L000000020000FFFFFF
 10
1.900000
 20
-8.500000
 11
1.900000
 21
8.600000
 12
-1.900000
 22
-8.500000
 13
-1.900000
 23
8.600000
  0
POLYLINE
  8
7
 62
255
  6
L000000020000FFFFFF
 70
1
 66
1
  0
VERTEX
 10
1.900000
 20
-8.500000
 30
0.000000
  8
7
 62
255
  6
L000000020000FFFFFF
  0
VERTEX
 10
1.900000
 20
8.600000
 30
0.000000
  8
7
 62
255
  6
L000000020000FFFFFF
  0
VERTEX
 10
-1.900000
 20
8.600000
 30
0.000000
  8
7
 62
255
  6
L000000020000FFFFFF
  0
VERTEX
 10
-1.900000
 20
-8.500000
 30
0.000000
  8
7
 62
255
  6
L000000020000FFFFFF
  0
SEQEND
  0
POLYLINE
  8
7
 62
7
  6
CONTINUOUS
 70
0
 66
1
  0
VERTEX
 10
1.600000
 20
3.300000
  8
7
 62
7
  6
CONTINUOUS
  0
VERTEX
 10
1.600000
 20
8.300000
  8
7
 62
7
  6
CONTINUOUS
  0
SEQEND
  0
ARC
  8
7
 62
7
  6
CONTINUOUS
 10
0.000000
 20
0.200000
 30
0.000000
 40
3.300000
 50
54.865807
 51
125.134193
  0
ARC
  8
7
 62
7
  6
CONTINUOUS
 10
0.000000
 20
-0.200000
 30
0.000000
 40
3.300000
 50
-125.134193
 51
-54.865807
  0
POLYLINE
  8
7
 62
7
  6
CONTINUOUS
 70
0
 66
1
  0
VERTEX
 10
-1.900000
 20
8.200000
  8
7
 62
7
  6
CONTINUOUS
  0
VERTEX
 10
-1.900000
 20
-8.100000
  8
7
 62
7
  6
CONTINUOUS
  0
SEQEND
  0
POLYLINE
  8
7
 62
7
  6
CONTINUOUS
 70
0
 66
1
  0
VERTEX
 10
1.900000
 20
-8.100000
  8
7
 62
7
  6
CONTINUOUS
  0
VERTEX
 10
1.900000
 20
8.200000
  8
7
 62
7
  6
CONTINUOUS
  0
SEQEND
  0
ARC
  8
7
 62
7
  6
CONTINUOUS
 10
0.000000
 20
0.300000
 30
0.000000
 40
3.900000
 50
-119.197486
 51
-60.802514
  0
ARC
  8
7
 62
7
  6
CONTINUOUS
 10
0.000000
 20
-0.300000
 30
0.000000
 40
3.900000
 50
60.802514
 51
119.197486
  0
POLYLINE
  8
7
 62
7
  6
CONTINUOUS
 70
0
 66
1
  0
VERTEX
 10
-1.600000
 20
8.400000
  8
7
 62
7
  6
CONTINUOUS
  0
VERTEX
 10
-1.600000
 20
3.300000
  8
7
 62
7
  6
CONTINUOUS
  0
SEQEND
  0
POLYLINE
  8
7
 62
7
  6
CONTINUOUS
 70
0
 66
1
  0
VERTEX
 10
-1.600000
 20
3.100000
  8
7
 62
7
  6
CONTINUOUS
  0
VERTEX
 10
-1.600000
 20
-3.000000
  8
7
 62
7
  6
CONTINUOUS
  0
SEQEND
  0
POLYLINE
  8
7
 62
7
  6
CONTINUOUS
 70
0
 66
1
  0
VERTEX
 10
-1.600000
 20
-3.300000
  8
7
 62
7
  6
CONTINUOUS
  0
VERTEX
 10
-1.600000
 20
-8.300000
  8
7
 62
7
  6
CONTINUOUS
  0
SEQEND
  0
POLYLINE
  8
7
 62
7
  6
CONTINUOUS
 70
0
 66
1
  0
VERTEX
 10
1.600000
 20
-8.200000
  8
7
 62
7
  6
CONTINUOUS
  0
VERTEX
 10
1.600000
 20
-3.200000
  8
7
 62
7
  6
CONTINUOUS
  0
SEQEND
  0
POLYLINE
  8
7
 62
7
  6
CONTINUOUS
 70
0
 66
1
  0
VERTEX
 10
1.600000
 20
-3.000000
  8
7
 62
7
  6
CONTINUOUS
  0
VERTEX
 10
1.600000
 20
3.000000
  8
7
 62
7
  6
CONTINUOUS
  0
SEQEND
  0
POLYLINE
  8
7
 62
7
  6
CONTINUOUS
 70
0
 66
1
  0
VERTEX
 10
0.000000
 20
3.500000
  8
7
 62
7
  6
CONTINUOUS
  0
VERTEX
 10
0.000000
 20
-3.400000
  8
7
 62
7
  6
CONTINUOUS
  0
SEQEND
  0
POLYLINE
  8
7
 62
7
  6
CONTINUOUS
 70
0
 66
1
  0
VERTEX
 10
-1.300000
 20
2.100000
  8
7
 62
7
  6
CONTINUOUS
  0
VERTEX
 10
-1.300000
 20
-2.000000
  8
7
 62
7
  6
CONTINUOUS
  0
SEQEND
  0
POLYLINE
  8
7
 62
7
  6
CONTINUOUS
 70
0
 66
1
  0
VERTEX
 10
-1.000000
 20
-1.500000
  8
7
 62
7
  6
CONTINUOUS
  0
VERTEX
 10
-1.000000
 20
1.600000
  8
7
 62
7
  6
CONTINUOUS
  0
SEQEND
  0
POLYLINE
  8
7
 62
7
  6
CONTINUOUS
 70
0
 66
1
  0
VERTEX
 10
-1.900000
 20
-8.100000
  8
7
 62
7
  6
CONTINUOUS
  0
VERTEX
 10
-1.600000
 20
-8.300000
  8
7
 62
7
  6
CONTINUOUS
  0
VERTEX
 10
-0.600000
 20
-8.500000
  8
7
 62
7
  6
CONTINUOUS
  0
VERTEX
 10
0.700000
 20
-8.500000
  8
7
 62
7
  6
CONTINUOUS
  0
VERTEX
 10
1.500000
 20
-8.300000
  8
7
 62
7
  6
CONTINUOUS
  0
VERTEX
 10
1.900000
 20
-8.100000
  8
7
 62
7
  6
CONTINUOUS
  0
SEQEND
  0
POLYLINE
  8
7
 62
7
  6
CONTINUOUS
 70
0
 66
1
  0
VERTEX
 10
-1.900000
 20
8.200000
  8
7
 62
7
  6
CONTINUOUS
  0
VERTEX
 10
-1.600000
 20
8.400000
  8
7
 62
7
  6
CONTINUOUS
  0
VERTEX
 10
-0.600000
 20
8.600000
  8
7
 62
7
  6
CONTINUOUS
  0
VERTEX
 10
0.700000
 20
8.600000
  8
7
 62
7
  6
CONTINUOUS
  0
VERTEX
 10
1.500000
 20
8.400000
  8
7
 62
7
  6
CONTINUOUS
  0
VERTEX
 10
1.900000
 20
8.200000
  8
7
 62
7
  6
CONTINUOUS
  0
SEQEND
  0
POLYLINE
  8
7
 62
7
  6
CONTINUOUS
 70
0
 66
1
  0
VERTEX
 10
-1.900000
 20
2.600000
  8
7
 62
7
  6
CONTINUOUS
  0
VERTEX
 10
-1.600000
 20
2.400000
  8
7
 62
7
  6
CONTINUOUS
  0
VERTEX
 10
-1.300000
 20
2.100000
  8
7
 62
7
  6
CONTINUOUS
  0
VERTEX
 10
-1.000000
 20
1.600000
  8
7
 62
7
  6
CONTINUOUS
  0
VERTEX
 10
-0.600000
 20
0.600000
  8
7
 62
7
  6
CONTINUOUS
  0
VERTEX
 10
-0.500000
 20
0.000000
  8
7
 62
7
  6
CONTINUOUS
  0
VERTEX
 10
-0.600000
 20
-0.700000
  8
7
 62
7
  6
CONTINUOUS
  0
VERTEX
 10
-1.000000
 20
-1.500000
  8
7
 62
7
  6
CONTINUOUS
  0
VERTEX
 10
-1.300000
 20
-2.000000
  8
7
 62
7
  6
CONTINUOUS
  0
VERTEX
 10
-1.900000
 20
-2.600000
  8
7
 62
7
  6
CONTINUOUS
  0
SEQEND
  0
ENDBLK
  0
ENDSEC
  0
SECTION
  2
ENTITIES
  0
INSERT
  8
0
 2
ta31_e
 10
0.000000
 20
0.000000
 30
0.0
 50
0.0
  0
INSERT
  8
3
 2
ta31_d
 10
0.000000
 20
0.000000
 30
0.0
 50
0.0
  0
INSERT
  8
7
 2
zb113
 10
3.000000
 20
22.500000
 30
0.0
 50
0.0
  0
ENDSEC
  0
EOF
