  0
SECTION
  2
HEADER
  9
$ACADVER
  1
AC1009
  9
$INSBASE
 10
0.0
 20
0.0
 30
0.0
  9
$EXTMIN
 10
0.0
 20
0.0
 30
0.0
  9
$EXTMAX
 10
0.000000
 20
0.000000
 30
0.0
  9
$LIMMIN
 10
0.0
 20
0.0
  9
$LIMMAX
 10
0.000000
 20
0.000000
  0
ENDSEC
  0
SECTION
  2
TABLES
  0
TABLE
  2
LTYPE
 70
2
  0
LTYPE
  2
L0000000200000000FF
 70
64
  3
Solid line
 72
65
 73
0
 40
0.000000
  0
LTYPE
  2
CONTINUOUS
 70
64
  3
Solid line
 72
65
 73
0
 40
0.000000
  0
ENDTAB
  0
TABLE
  2
LAYER
 70
8
  0
LAYER
  2
0
 70
64
 62
7
  6
CONTINUOUS
  0
LAYER
  2
1
 70
64
 62
7
  6
CONTINUOUS
  0
LAYER
  2
2
 70
64
 62
7
  6
CONTINUOUS
  0
LAYER
  2
3
 70
64
 62
7
  6
CONTINUOUS
  0
LAYER
  2
4
 70
64
 62
7
  6
CONTINUOUS
  0
LAYER
  2
5
 70
64
 62
7
  6
CONTINUOUS
  0
LAYER
  2
6
 70
64
 62
7
  6
CONTINUOUS
  0
LAYER
  2
7
 70
64
 62
-7
  6
CONTINUOUS
  0
LAYER
  2
8
 70
64
 62
7
  6
CONTINUOUS
  0
LAYER
  2
9
 70
64
 62
7
  6
CONTINUOUS
  0
LAYER
  2
10
 70
64
 62
-7
  6
CONTINUOUS
  0
LAYER
  2
11
 70
64
 62
-7
  6
CONTINUOUS
  0
LAYER
  2
12
 70
64
 62
7
  6
CONTINUOUS
  0
LAYER
  2
13
 70
64
 62
7
  6
CONTINUOUS
  0
LAYER
  2
14
 70
64
 62
7
  6
CONTINUOUS
  0
LAYER
  2
15
 70
64
 62
-7
  6
CONTINUOUS
  0
LAYER
  2
16
 70
64
 62
7
  6
CONTINUOUS
  0
LAYER
  2
17
 70
64
 62
7
  6
CONTINUOUS
  0
LAYER
  2
18
 70
64
 62
7
  6
CONTINUOUS
  0
LAYER
  2
19
 70
64
 62
7
  6
CONTINUOUS
  0
LAYER
  2
20
 70
64
 62
7
  6
CONTINUOUS
  0
LAYER
  2
21
 70
64
 62
7
  6
CONTINUOUS
  0
LAYER
  2
22
 70
64
 62
7
  6
CONTINUOUS
  0
LAYER
  2
23
 70
64
 62
7
  6
CONTINUOUS
  0
LAYER
  2
24
 70
64
 62
7
  6
CONTINUOUS
  0
LAYER
  2
25
 70
64
 62
7
  6
CONTINUOUS
  0
LAYER
  2
26
 70
64
 62
7
  6
CONTINUOUS
  0
LAYER
  2
27
 70
64
 62
7
  6
CONTINUOUS
  0
LAYER
  2
28
 70
64
 62
7
  6
CONTINUOUS
  0
LAYER
  2
29
 70
64
 62
-7
  6
CONTINUOUS
  0
LAYER
  2
30
 70
64
 62
-7
  6
CONTINUOUS
  0
LAYER
  2
31
 70
64
 62
7
  6
CONTINUOUS
  0
LAYER
  2
32
 70
64
 62
7
  6
CONTINUOUS
  0
LAYER
  2
33
 70
64
 62
7
  6
CONTINUOUS
  0
LAYER
  2
34
 70
64
 62
7
  6
CONTINUOUS
  0
LAYER
  2
35
 70
64
 62
7
  6
CONTINUOUS
  0
LAYER
  2
36
 70
64
 62
7
  6
CONTINUOUS
  0
LAYER
  2
37
 70
64
 62
7
  6
CONTINUOUS
  0
LAYER
  2
38
 70
64
 62
-7
  6
CONTINUOUS
  0
LAYER
  2
39
 70
64
 62
-7
  6
CONTINUOUS
  0
LAYER
  2
40
 70
64
 62
7
  6
CONTINUOUS
  0
LAYER
  2
41
 70
64
 62
7
  6
CONTINUOUS
  0
LAYER
  2
42
 70
64
 62
7
  6
CONTINUOUS
  0
LAYER
  2
43
 70
64
 62
7
  6
CONTINUOUS
  0
LAYER
  2
44
 70
64
 62
7
  6
CONTINUOUS
  0
LAYER
  2
45
 70
64
 62
7
  6
CONTINUOUS
  0
LAYER
  2
46
 70
64
 62
7
  6
CONTINUOUS
  0
LAYER
  2
47
 70
64
 62
7
  6
CONTINUOUS
  0
LAYER
  2
48
 70
64
 62
7
  6
CONTINUOUS
  0
LAYER
  2
49
 70
64
 62
7
  6
CONTINUOUS
  0
LAYER
  2
50
 70
64
 62
7
  6
CONTINUOUS
  0
LAYER
  2
51
 70
64
 62
7
  6
CONTINUOUS
  0
LAYER
  2
52
 70
64
 62
7
  6
CONTINUOUS
  0
LAYER
  2
53
 70
64
 62
7
  6
CONTINUOUS
  0
LAYER
  2
54
 70
64
 62
7
  6
CONTINUOUS
  0
LAYER
  2
55
 70
64
 62
7
  6
CONTINUOUS
  0
LAYER
  2
56
 70
64
 62
-7
  6
CONTINUOUS
  0
LAYER
  2
57
 70
64
 62
7
  6
CONTINUOUS
  0
LAYER
  2
58
 70
64
 62
-7
  6
CONTINUOUS
  0
LAYER
  2
59
 70
64
 62
-7
  6
CONTINUOUS
  0
LAYER
  2
60
 70
64
 62
-7
  6
CONTINUOUS
  0
LAYER
  2
61
 70
64
 62
7
  6
CONTINUOUS
  0
LAYER
  2
62
 70
64
 62
7
  6
CONTINUOUS
  0
LAYER
  2
63
 70
64
 62
7
  6
CONTINUOUS
  0
LAYER
  2
64
 70
64
 62
7
  6
CONTINUOUS
  0
LAYER
  2
65
 70
64
 62
7
  6
CONTINUOUS
  0
LAYER
  2
66
 70
64
 62
7
  6
CONTINUOUS
  0
LAYER
  2
67
 70
64
 62
7
  6
CONTINUOUS
  0
LAYER
  2
68
 70
64
 62
7
  6
CONTINUOUS
  0
LAYER
  2
69
 70
64
 62
7
  6
CONTINUOUS
  0
LAYER
  2
70
 70
64
 62
7
  6
CONTINUOUS
  0
LAYER
  2
71
 70
64
 62
7
  6
CONTINUOUS
  0
LAYER
  2
72
 70
64
 62
7
  6
CONTINUOUS
  0
LAYER
  2
73
 70
64
 62
7
  6
CONTINUOUS
  0
LAYER
  2
74
 70
64
 62
7
  6
CONTINUOUS
  0
LAYER
  2
75
 70
64
 62
7
  6
CONTINUOUS
  0
LAYER
  2
76
 70
64
 62
7
  6
CONTINUOUS
  0
LAYER
  2
77
 70
64
 62
7
  6
CONTINUOUS
  0
LAYER
  2
78
 70
64
 62
7
  6
CONTINUOUS
  0
LAYER
  2
79
 70
64
 62
7
  6
CONTINUOUS
  0
LAYER
  2
80
 70
64
 62
7
  6
CONTINUOUS
  0
LAYER
  2
81
 70
64
 62
7
  6
CONTINUOUS
  0
LAYER
  2
82
 70
64
 62
7
  6
CONTINUOUS
  0
LAYER
  2
83
 70
64
 62
-7
  6
CONTINUOUS
  0
LAYER
  2
84
 70
64
 62
-7
  6
CONTINUOUS
  0
LAYER
  2
85
 70
64
 62
-7
  6
CONTINUOUS
  0
LAYER
  2
86
 70
64
 62
-7
  6
CONTINUOUS
  0
LAYER
  2
87
 70
64
 62
-7
  6
CONTINUOUS
  0
LAYER
  2
88
 70
64
 62
-7
  6
CONTINUOUS
  0
LAYER
  2
89
 70
64
 62
-7
  6
CONTINUOUS
  0
LAYER
  2
90
 70
64
 62
-7
  6
CONTINUOUS
  0
LAYER
  2
91
 70
64
 62
-7
  6
CONTINUOUS
  0
LAYER
  2
92
 70
64
 62
7
  6
CONTINUOUS
  0
LAYER
  2
93
 70
64
 62
7
  6
CONTINUOUS
  0
LAYER
  2
94
 70
64
 62
7
  6
CONTINUOUS
  0
LAYER
  2
95
 70
64
 62
7
  6
CONTINUOUS
  0
LAYER
  2
96
 70
64
 62
7
  6
CONTINUOUS
  0
LAYER
  2
97
 70
64
 62
7
  6
CONTINUOUS
  0
LAYER
  2
98
 70
64
 62
7
  6
CONTINUOUS
  0
LAYER
  2
99
 70
64
 62
7
  6
CONTINUOUS
  0
LAYER
  2
100
 70
64
 62
7
  6
CONTINUOUS
  0
LAYER
  2
101
 70
64
 62
7
  6
CONTINUOUS
  0
LAYER
  2
102
 70
64
 62
7
  6
CONTINUOUS
  0
LAYER
  2
103
 70
64
 62
7
  6
CONTINUOUS
  0
LAYER
  2
104
 70
64
 62
7
  6
CONTINUOUS
  0
LAYER
  2
105
 70
64
 62
7
  6
CONTINUOUS
  0
LAYER
  2
106
 70
64
 62
7
  6
CONTINUOUS
  0
LAYER
  2
107
 70
64
 62
7
  6
CONTINUOUS
  0
LAYER
  2
108
 70
64
 62
7
  6
CONTINUOUS
  0
LAYER
  2
109
 70
64
 62
7
  6
CONTINUOUS
  0
LAYER
  2
110
 70
64
 62
-7
  6
CONTINUOUS
  0
LAYER
  2
111
 70
64
 62
-7
  6
CONTINUOUS
  0
LAYER
  2
112
 70
64
 62
-7
  6
CONTINUOUS
  0
LAYER
  2
113
 70
64
 62
-7
  6
CONTINUOUS
  0
LAYER
  2
114
 70
64
 62
-7
  6
CONTINUOUS
  0
LAYER
  2
115
 70
64
 62
-7
  6
CONTINUOUS
  0
LAYER
  2
116
 70
64
 62
-7
  6
CONTINUOUS
  0
LAYER
  2
117
 70
64
 62
-7
  6
CONTINUOUS
  0
LAYER
  2
118
 70
64
 62
-7
  6
CONTINUOUS
  0
LAYER
  2
119
 70
64
 62
-7
  6
CONTINUOUS
  0
LAYER
  2
120
 70
64
 62
-7
  6
CONTINUOUS
  0
LAYER
  2
121
 70
64
 62
-7
  6
CONTINUOUS
  0
LAYER
  2
122
 70
64
 62
-7
  6
CONTINUOUS
  0
LAYER
  2
123
 70
64
 62
-7
  6
CONTINUOUS
  0
LAYER
  2
124
 70
64
 62
-7
  6
CONTINUOUS
  0
LAYER
  2
125
 70
64
 62
-7
  6
CONTINUOUS
  0
LAYER
  2
126
 70
64
 62
-7
  6
CONTINUOUS
  0
LAYER
  2
127
 70
64
 62
-7
  6
CONTINUOUS
  0
LAYER
  2
128
 70
64
 62
7
  6
CONTINUOUS
  0
LAYER
  2
129
 70
64
 62
7
  6
CONTINUOUS
  0
LAYER
  2
130
 70
64
 62
7
  6
CONTINUOUS
  0
LAYER
  2
131
 70
64
 62
7
  6
CONTINUOUS
  0
LAYER
  2
132
 70
64
 62
7
  6
CONTINUOUS
  0
LAYER
  2
133
 70
64
 62
7
  6
CONTINUOUS
  0
LAYER
  2
134
 70
64
 62
7
  6
CONTINUOUS
  0
LAYER
  2
135
 70
64
 62
7
  6
CONTINUOUS
  0
LAYER
  2
136
 70
64
 62
7
  6
CONTINUOUS
  0
LAYER
  2
137
 70
64
 62
7
  6
CONTINUOUS
  0
LAYER
  2
138
 70
64
 62
7
  6
CONTINUOUS
  0
LAYER
  2
139
 70
64
 62
7
  6
CONTINUOUS
  0
LAYER
  2
140
 70
64
 62
7
  6
CONTINUOUS
  0
LAYER
  2
141
 70
64
 62
7
  6
CONTINUOUS
  0
LAYER
  2
142
 70
64
 62
7
  6
CONTINUOUS
  0
LAYER
  2
143
 70
64
 62
7
  6
CONTINUOUS
  0
LAYER
  2
144
 70
64
 62
7
  6
CONTINUOUS
  0
LAYER
  2
145
 70
64
 62
7
  6
CONTINUOUS
  0
LAYER
  2
146
 70
64
 62
7
  6
CONTINUOUS
  0
LAYER
  2
147
 70
64
 62
7
  6
CONTINUOUS
  0
LAYER
  2
148
 70
64
 62
7
  6
CONTINUOUS
  0
LAYER
  2
149
 70
64
 62
7
  6
CONTINUOUS
  0
LAYER
  2
150
 70
64
 62
7
  6
CONTINUOUS
  0
LAYER
  2
151
 70
64
 62
7
  6
CONTINUOUS
  0
LAYER
  2
152
 70
64
 62
7
  6
CONTINUOUS
  0
LAYER
  2
153
 70
64
 62
7
  6
CONTINUOUS
  0
LAYER
  2
154
 70
64
 62
7
  6
CONTINUOUS
  0
LAYER
  2
155
 70
64
 62
-7
  6
CONTINUOUS
  0
LAYER
  2
156
 70
64
 62
-7
  6
CONTINUOUS
  0
LAYER
  2
157
 70
64
 62
-7
  6
CONTINUOUS
  0
LAYER
  2
158
 70
64
 62
-7
  6
CONTINUOUS
  0
LAYER
  2
159
 70
64
 62
-7
  6
CONTINUOUS
  0
LAYER
  2
160
 70
64
 62
-7
  6
CONTINUOUS
  0
LAYER
  2
161
 70
64
 62
-7
  6
CONTINUOUS
  0
LAYER
  2
162
 70
64
 62
-7
  6
CONTINUOUS
  0
LAYER
  2
163
 70
64
 62
-7
  6
CONTINUOUS
  0
LAYER
  2
164
 70
64
 62
7
  6
CONTINUOUS
  0
LAYER
  2
165
 70
64
 62
7
  6
CONTINUOUS
  0
LAYER
  2
166
 70
64
 62
7
  6
CONTINUOUS
  0
LAYER
  2
167
 70
64
 62
7
  6
CONTINUOUS
  0
LAYER
  2
168
 70
64
 62
7
  6
CONTINUOUS
  0
LAYER
  2
169
 70
64
 62
7
  6
CONTINUOUS
  0
LAYER
  2
170
 70
64
 62
7
  6
CONTINUOUS
  0
LAYER
  2
171
 70
64
 62
7
  6
CONTINUOUS
  0
LAYER
  2
172
 70
64
 62
7
  6
CONTINUOUS
  0
LAYER
  2
173
 70
64
 62
7
  6
CONTINUOUS
  0
LAYER
  2
174
 70
64
 62
7
  6
CONTINUOUS
  0
LAYER
  2
175
 70
64
 62
7
  6
CONTINUOUS
  0
LAYER
  2
176
 70
64
 62
7
  6
CONTINUOUS
  0
LAYER
  2
177
 70
64
 62
7
  6
CONTINUOUS
  0
LAYER
  2
178
 70
64
 62
7
  6
CONTINUOUS
  0
LAYER
  2
179
 70
64
 62
7
  6
CONTINUOUS
  0
LAYER
  2
180
 70
64
 62
7
  6
CONTINUOUS
  0
LAYER
  2
181
 70
64
 62
7
  6
CONTINUOUS
  0
LAYER
  2
182
 70
64
 62
7
  6
CONTINUOUS
  0
LAYER
  2
183
 70
64
 62
7
  6
CONTINUOUS
  0
LAYER
  2
184
 70
64
 62
7
  6
CONTINUOUS
  0
LAYER
  2
185
 70
64
 62
7
  6
CONTINUOUS
  0
LAYER
  2
186
 70
64
 62
7
  6
CONTINUOUS
  0
LAYER
  2
187
 70
64
 62
7
  6
CONTINUOUS
  0
LAYER
  2
188
 70
64
 62
7
  6
CONTINUOUS
  0
LAYER
  2
189
 70
64
 62
7
  6
CONTINUOUS
  0
LAYER
  2
190
 70
64
 62
7
  6
CONTINUOUS
  0
LAYER
  2
191
 70
64
 62
7
  6
CONTINUOUS
  0
LAYER
  2
192
 70
64
 62
7
  6
CONTINUOUS
  0
LAYER
  2
193
 70
64
 62
7
  6
CONTINUOUS
  0
LAYER
  2
194
 70
64
 62
7
  6
CONTINUOUS
  0
LAYER
  2
195
 70
64
 62
7
  6
CONTINUOUS
  0
LAYER
  2
196
 70
64
 62
7
  6
CONTINUOUS
  0
LAYER
  2
197
 70
64
 62
7
  6
CONTINUOUS
  0
LAYER
  2
198
 70
64
 62
7
  6
CONTINUOUS
  0
LAYER
  2
199
 70
64
 62
7
  6
CONTINUOUS
  0
ENDTAB
  0
ENDSEC
  0
SECTION
  2
BLOCKS
  0
BLOCK
  8
0
  2
wr210
 70
 0
 10
0.0
 20
0.0
 30
0.0
  0
POLYLINE
  8
23
 62
1
  6
L0000000200000000FF
 70
1
 66
1
  0
VERTEX
 10
49.500000
 20
196.700000
 30
0.000000
  8
23
 62
1
  6
L0000000200000000FF
  0
VERTEX
 10
49.500000
 20
199.000000
 30
0.000000
  8
23
 62
1
  6
L0000000200000000FF
  0
VERTEX
 10
47.700000
 20
199.000000
 30
0.000000
  8
23
 62
1
  6
L0000000200000000FF
  0
VERTEX
 10
47.700000
 20
196.700000
 30
0.000000
  8
23
 62
1
  6
L0000000200000000FF
  0
SEQEND
  0
POLYLINE
  8
23
 62
1
  6
L0000000200000000FF
 70
1
 66
1
  0
VERTEX
 10
45.700000
 20
200.500000
 30
0.000000
  8
23
 62
1
  6
L0000000200000000FF
  0
VERTEX
 10
45.700000
 20
198.700000
 30
0.000000
  8
23
 62
1
  6
L0000000200000000FF
  0
VERTEX
 10
48.000000
 20
198.700000
 30
0.000000
  8
23
 62
1
  6
L0000000200000000FF
  0
VERTEX
 10
48.000000
 20
200.500000
 30
0.000000
  8
23
 62
1
  6
L0000000200000000FF
  0
SEQEND
  0
POLYLINE
  8
23
 62
1
  6
L0000000200000000FF
 70
1
 66
1
  0
VERTEX
 10
0.500000
 20
196.700000
 30
0.000000
  8
23
 62
1
  6
L0000000200000000FF
  0
VERTEX
 10
0.500000
 20
199.000000
 30
0.000000
  8
23
 62
1
  6
L0000000200000000FF
  0
VERTEX
 10
2.300000
 20
199.000000
 30
0.000000
  8
23
 62
1
  6
L0000000200000000FF
  0
VERTEX
 10
2.300000
 20
196.700000
 30
0.000000
  8
23
 62
1
  6
L0000000200000000FF
  0
SEQEND
  0
POLYLINE
  8
23
 62
1
  6
L0000000200000000FF
 70
1
 66
1
  0
VERTEX
 10
4.300000
 20
200.500000
 30
0.000000
  8
23
 62
1
  6
L0000000200000000FF
  0
VERTEX
 10
4.300000
 20
198.600000
 30
0.000000
  8
23
 62
1
  6
L0000000200000000FF
  0
VERTEX
 10
2.000000
 20
198.600000
 30
0.000000
  8
23
 62
1
  6
L0000000200000000FF
  0
VERTEX
 10
2.000000
 20
200.500000
 30
0.000000
  8
23
 62
1
  6
L0000000200000000FF
  0
SEQEND
  0
POLYLINE
  8
23
 62
7
  6
CONTINUOUS
 70
1
 66
1
  0
VERTEX
 10
47.800000
 20
199.000000
 30
0.000000
  8
23
 62
7
  6
CONTINUOUS
  0
VERTEX
 10
47.800000
 20
201.000000
 30
0.000000
  8
23
 62
7
  6
CONTINUOUS
  0
VERTEX
 10
2.200000
 20
201.000000
 30
0.000000
  8
23
 62
7
  6
CONTINUOUS
  0
VERTEX
 10
2.200000
 20
199.000000
 30
0.000000
  8
23
 62
7
  6
CONTINUOUS
  0
SEQEND
  0
POLYLINE
  8
23
 62
1
  6
L0000000200000000FF
 70
1
 66
1
  0
VERTEX
 10
45.700000
 20
9.500000
 30
0.000000
  8
23
 62
1
  6
L0000000200000000FF
  0
VERTEX
 10
45.700000
 20
11.300000
 30
0.000000
  8
23
 62
1
  6
L0000000200000000FF
  0
VERTEX
 10
48.000000
 20
11.300000
 30
0.000000
  8
23
 62
1
  6
L0000000200000000FF
  0
VERTEX
 10
48.000000
 20
9.500000
 30
0.000000
  8
23
 62
1
  6
L0000000200000000FF
  0
SEQEND
  0
POLYLINE
  8
23
 62
1
  6
L0000000200000000FF
 70
1
 66
1
  0
VERTEX
 10
49.500000
 20
13.300000
 30
0.000000
  8
23
 62
1
  6
L0000000200000000FF
  0
VERTEX
 10
49.500000
 20
11.000000
 30
0.000000
  8
23
 62
1
  6
L0000000200000000FF
  0
VERTEX
 10
47.700000
 20
11.000000
 30
0.000000
  8
23
 62
1
  6
L0000000200000000FF
  0
VERTEX
 10
47.700000
 20
13.300000
 30
0.000000
  8
23
 62
1
  6
L0000000200000000FF
  0
SEQEND
  0
POLYLINE
  8
23
 62
1
  6
L0000000200000000FF
 70
1
 66
1
  0
VERTEX
 10
4.300000
 20
9.500000
 30
0.000000
  8
23
 62
1
  6
L0000000200000000FF
  0
VERTEX
 10
4.300000
 20
11.300000
 30
0.000000
  8
23
 62
1
  6
L0000000200000000FF
  0
VERTEX
 10
2.000000
 20
11.300000
 30
0.000000
  8
23
 62
1
  6
L0000000200000000FF
  0
VERTEX
 10
2.000000
 20
9.500000
 30
0.000000
  8
23
 62
1
  6
L0000000200000000FF
  0
SEQEND
  0
POLYLINE
  8
23
 62
1
  6
L0000000200000000FF
 70
1
 66
1
  0
VERTEX
 10
0.500000
 20
13.300000
 30
0.000000
  8
23
 62
1
  6
L0000000200000000FF
  0
VERTEX
 10
0.500000
 20
11.000000
 30
0.000000
  8
23
 62
1
  6
L0000000200000000FF
  0
VERTEX
 10
2.300000
 20
11.000000
 30
0.000000
  8
23
 62
1
  6
L0000000200000000FF
  0
VERTEX
 10
2.300000
 20
13.300000
 30
0.000000
  8
23
 62
1
  6
L0000000200000000FF
  0
SEQEND
  0
POLYLINE
  8
23
 62
7
  6
CONTINUOUS
 70
1
 66
1
  0
VERTEX
 10
47.800000
 20
9.000000
 30
0.000000
  8
23
 62
7
  6
CONTINUOUS
  0
VERTEX
 10
47.800000
 20
11.000000
 30
0.000000
  8
23
 62
7
  6
CONTINUOUS
  0
VERTEX
 10
2.200000
 20
11.000000
 30
0.000000
  8
23
 62
7
  6
CONTINUOUS
  0
VERTEX
 10
2.200000
 20
9.000000
 30
0.000000
  8
23
 62
7
  6
CONTINUOUS
  0
SEQEND
  0
POLYLINE
  8
20
 62
7
  6
CONTINUOUS
 70
1
 66
1
  0
VERTEX
 10
2.000000
 20
0.000000
 30
0.000000
  8
20
 62
7
  6
CONTINUOUS
  0
VERTEX
 10
2.000000
 20
210.000000
 30
0.000000
  8
20
 62
7
  6
CONTINUOUS
  0
VERTEX
 10
0.000000
 20
210.000000
 30
0.000000
  8
20
 62
7
  6
CONTINUOUS
  0
VERTEX
 10
0.000000
 20
0.000000
 30
0.000000
  8
20
 62
7
  6
CONTINUOUS
  0
SEQEND
  0
POLYLINE
  8
20
 62
7
  6
CONTINUOUS
 70
1
 66
1
  0
VERTEX
 10
2.000000
 20
190.000000
 30
0.000000
  8
20
 62
7
  6
CONTINUOUS
  0
VERTEX
 10
2.000000
 20
199.000000
 30
0.000000
  8
20
 62
7
  6
CONTINUOUS
  0
VERTEX
 10
0.000000
 20
199.000000
 30
0.000000
  8
20
 62
7
  6
CONTINUOUS
  0
VERTEX
 10
0.000000
 20
190.000000
 30
0.000000
  8
20
 62
7
  6
CONTINUOUS
  0
SEQEND
  0
TEXT
  8
20
 62
7
  6
CONTINUOUS
 10
0.533333
 20
198.000000
 40
1.400000
  1
WR210
 50
-90.000000
 51
0.000000
 72
0
 73
0
  0
POLYLINE
  8
20
 62
7
  6
CONTINUOUS
 70
1
 66
1
  0
VERTEX
 10
50.000000
 20
0.000000
 30
0.000000
  8
20
 62
7
  6
CONTINUOUS
  0
VERTEX
 10
50.000000
 20
210.000000
 30
0.000000
  8
20
 62
7
  6
CONTINUOUS
  0
VERTEX
 10
48.000000
 20
210.000000
 30
0.000000
  8
20
 62
7
  6
CONTINUOUS
  0
VERTEX
 10
48.000000
 20
0.000000
 30
0.000000
  8
20
 62
7
  6
CONTINUOUS
  0
SEQEND
  0
ENDBLK
  0
ENDSEC
  0
SECTION
  2
ENTITIES
  0
INSERT
  8
0
 2
wr210
 10
0.000000
 20
0.000000
 30
0.0
 50
0.0
  0
ENDSEC
  0
EOF
