  0
SECTION
  2
HEADER
  9
$ACADVER
  1
AC1009
  9
$INSBASE
 10
0.0
 20
0.0
 30
0.0
  9
$EXTMIN
 10
0.0
 20
0.0
 30
0.0
  9
$EXTMAX
 10
0.000000
 20
0.000000
 30
0.0
  9
$LIMMIN
 10
0.0
 20
0.0
  9
$LIMMAX
 10
0.000000
 20
0.000000
  0
ENDSEC
  0
SECTION
  2
TABLES
  0
TABLE
  2
LTYPE
 70
3
  0
LTYPE
  2
CONTINUOUS
 70
64
  3
Solid line
 72
65
 73
0
 40
0.000000
  0
LTYPE
  2
L000000000000000000
 70
64
  3
Solid line
 72
65
 73
0
 40
0.000000
  0
LTYPE
  2
L000000020000008000
 70
64
  3
Solid line
 72
65
 73
0
 40
0.000000
  0
ENDTAB
  0
TABLE
  2
LAYER
 70
8
  0
LAYER
  2
0
 70
64
 62
7
  6
CONTINUOUS
  0
LAYER
  2
1
 70
64
 62
7
  6
CONTINUOUS
  0
LAYER
  2
2
 70
64
 62
7
  6
CONTINUOUS
  0
LAYER
  2
3
 70
64
 62
7
  6
CONTINUOUS
  0
LAYER
  2
4
 70
64
 62
7
  6
CONTINUOUS
  0
LAYER
  2
5
 70
64
 62
7
  6
CONTINUOUS
  0
LAYER
  2
6
 70
64
 62
7
  6
CONTINUOUS
  0
LAYER
  2
7
 70
64
 62
7
  6
CONTINUOUS
  0
LAYER
  2
8
 70
64
 62
7
  6
CONTINUOUS
  0
LAYER
  2
9
 70
64
 62
7
  6
CONTINUOUS
  0
LAYER
  2
10
 70
64
 62
7
  6
CONTINUOUS
  0
LAYER
  2
11
 70
64
 62
7
  6
CONTINUOUS
  0
LAYER
  2
12
 70
64
 62
7
  6
CONTINUOUS
  0
LAYER
  2
13
 70
64
 62
7
  6
CONTINUOUS
  0
LAYER
  2
14
 70
64
 62
7
  6
CONTINUOUS
  0
LAYER
  2
15
 70
64
 62
7
  6
CONTINUOUS
  0
LAYER
  2
16
 70
64
 62
7
  6
CONTINUOUS
  0
LAYER
  2
17
 70
64
 62
7
  6
CONTINUOUS
  0
LAYER
  2
18
 70
64
 62
7
  6
CONTINUOUS
  0
LAYER
  2
19
 70
64
 62
7
  6
CONTINUOUS
  0
LAYER
  2
20
 70
64
 62
7
  6
CONTINUOUS
  0
LAYER
  2
21
 70
64
 62
7
  6
CONTINUOUS
  0
LAYER
  2
22
 70
64
 62
7
  6
CONTINUOUS
  0
LAYER
  2
23
 70
64
 62
7
  6
CONTINUOUS
  0
LAYER
  2
24
 70
64
 62
7
  6
CONTINUOUS
  0
LAYER
  2
25
 70
64
 62
7
  6
CONTINUOUS
  0
LAYER
  2
26
 70
64
 62
7
  6
CONTINUOUS
  0
LAYER
  2
27
 70
64
 62
7
  6
CONTINUOUS
  0
LAYER
  2
28
 70
64
 62
7
  6
CONTINUOUS
  0
LAYER
  2
29
 70
64
 62
-7
  6
CONTINUOUS
  0
LAYER
  2
30
 70
64
 62
-7
  6
CONTINUOUS
  0
LAYER
  2
31
 70
64
 62
7
  6
CONTINUOUS
  0
LAYER
  2
32
 70
64
 62
7
  6
CONTINUOUS
  0
LAYER
  2
33
 70
64
 62
7
  6
CONTINUOUS
  0
LAYER
  2
34
 70
64
 62
7
  6
CONTINUOUS
  0
LAYER
  2
35
 70
64
 62
7
  6
CONTINUOUS
  0
LAYER
  2
36
 70
64
 62
7
  6
CONTINUOUS
  0
LAYER
  2
37
 70
64
 62
7
  6
CONTINUOUS
  0
LAYER
  2
38
 70
64
 62
-7
  6
CONTINUOUS
  0
LAYER
  2
39
 70
64
 62
7
  6
CONTINUOUS
  0
LAYER
  2
40
 70
64
 62
7
  6
CONTINUOUS
  0
LAYER
  2
41
 70
64
 62
7
  6
CONTINUOUS
  0
LAYER
  2
42
 70
64
 62
7
  6
CONTINUOUS
  0
LAYER
  2
43
 70
64
 62
7
  6
CONTINUOUS
  0
LAYER
  2
44
 70
64
 62
7
  6
CONTINUOUS
  0
LAYER
  2
45
 70
64
 62
7
  6
CONTINUOUS
  0
LAYER
  2
46
 70
64
 62
7
  6
CONTINUOUS
  0
LAYER
  2
47
 70
64
 62
7
  6
CONTINUOUS
  0
LAYER
  2
48
 70
64
 62
7
  6
CONTINUOUS
  0
LAYER
  2
49
 70
64
 62
7
  6
CONTINUOUS
  0
LAYER
  2
50
 70
64
 62
7
  6
CONTINUOUS
  0
LAYER
  2
51
 70
64
 62
7
  6
CONTINUOUS
  0
LAYER
  2
52
 70
64
 62
7
  6
CONTINUOUS
  0
LAYER
  2
53
 70
64
 62
7
  6
CONTINUOUS
  0
LAYER
  2
54
 70
64
 62
7
  6
CONTINUOUS
  0
LAYER
  2
55
 70
64
 62
7
  6
CONTINUOUS
  0
LAYER
  2
56
 70
64
 62
-7
  6
CONTINUOUS
  0
LAYER
  2
57
 70
64
 62
-7
  6
CONTINUOUS
  0
LAYER
  2
58
 70
64
 62
7
  6
CONTINUOUS
  0
LAYER
  2
59
 70
64
 62
-7
  6
CONTINUOUS
  0
LAYER
  2
60
 70
64
 62
-7
  6
CONTINUOUS
  0
LAYER
  2
61
 70
64
 62
7
  6
CONTINUOUS
  0
LAYER
  2
62
 70
64
 62
7
  6
CONTINUOUS
  0
LAYER
  2
63
 70
64
 62
7
  6
CONTINUOUS
  0
LAYER
  2
64
 70
64
 62
7
  6
CONTINUOUS
  0
LAYER
  2
65
 70
64
 62
7
  6
CONTINUOUS
  0
LAYER
  2
66
 70
64
 62
7
  6
CONTINUOUS
  0
LAYER
  2
67
 70
64
 62
7
  6
CONTINUOUS
  0
LAYER
  2
68
 70
64
 62
7
  6
CONTINUOUS
  0
LAYER
  2
69
 70
64
 62
7
  6
CONTINUOUS
  0
LAYER
  2
70
 70
64
 62
7
  6
CONTINUOUS
  0
LAYER
  2
71
 70
64
 62
7
  6
CONTINUOUS
  0
LAYER
  2
72
 70
64
 62
7
  6
CONTINUOUS
  0
LAYER
  2
73
 70
64
 62
7
  6
CONTINUOUS
  0
LAYER
  2
74
 70
64
 62
7
  6
CONTINUOUS
  0
LAYER
  2
75
 70
64
 62
7
  6
CONTINUOUS
  0
LAYER
  2
76
 70
64
 62
7
  6
CONTINUOUS
  0
LAYER
  2
77
 70
64
 62
7
  6
CONTINUOUS
  0
LAYER
  2
78
 70
64
 62
7
  6
CONTINUOUS
  0
LAYER
  2
79
 70
64
 62
7
  6
CONTINUOUS
  0
LAYER
  2
80
 70
64
 62
7
  6
CONTINUOUS
  0
LAYER
  2
81
 70
64
 62
7
  6
CONTINUOUS
  0
LAYER
  2
82
 70
64
 62
7
  6
CONTINUOUS
  0
LAYER
  2
83
 70
64
 62
7
  6
CONTINUOUS
  0
LAYER
  2
84
 70
64
 62
7
  6
CONTINUOUS
  0
LAYER
  2
85
 70
64
 62
7
  6
CONTINUOUS
  0
LAYER
  2
86
 70
64
 62
7
  6
CONTINUOUS
  0
LAYER
  2
87
 70
64
 62
7
  6
CONTINUOUS
  0
LAYER
  2
88
 70
64
 62
7
  6
CONTINUOUS
  0
LAYER
  2
89
 70
64
 62
7
  6
CONTINUOUS
  0
LAYER
  2
90
 70
64
 62
7
  6
CONTINUOUS
  0
LAYER
  2
91
 70
64
 62
7
  6
CONTINUOUS
  0
LAYER
  2
92
 70
64
 62
7
  6
CONTINUOUS
  0
LAYER
  2
93
 70
64
 62
7
  6
CONTINUOUS
  0
LAYER
  2
94
 70
64
 62
7
  6
CONTINUOUS
  0
LAYER
  2
95
 70
64
 62
7
  6
CONTINUOUS
  0
LAYER
  2
96
 70
64
 62
7
  6
CONTINUOUS
  0
LAYER
  2
97
 70
64
 62
7
  6
CONTINUOUS
  0
LAYER
  2
98
 70
64
 62
7
  6
CONTINUOUS
  0
LAYER
  2
99
 70
64
 62
7
  6
CONTINUOUS
  0
LAYER
  2
100
 70
64
 62
7
  6
CONTINUOUS
  0
LAYER
  2
101
 70
64
 62
7
  6
CONTINUOUS
  0
LAYER
  2
102
 70
64
 62
7
  6
CONTINUOUS
  0
LAYER
  2
103
 70
64
 62
7
  6
CONTINUOUS
  0
LAYER
  2
104
 70
64
 62
7
  6
CONTINUOUS
  0
LAYER
  2
105
 70
64
 62
7
  6
CONTINUOUS
  0
LAYER
  2
106
 70
64
 62
7
  6
CONTINUOUS
  0
LAYER
  2
107
 70
64
 62
7
  6
CONTINUOUS
  0
LAYER
  2
108
 70
64
 62
7
  6
CONTINUOUS
  0
LAYER
  2
109
 70
64
 62
7
  6
CONTINUOUS
  0
LAYER
  2
110
 70
64
 62
7
  6
CONTINUOUS
  0
LAYER
  2
111
 70
64
 62
7
  6
CONTINUOUS
  0
LAYER
  2
112
 70
64
 62
7
  6
CONTINUOUS
  0
LAYER
  2
113
 70
64
 62
7
  6
CONTINUOUS
  0
LAYER
  2
114
 70
64
 62
7
  6
CONTINUOUS
  0
LAYER
  2
115
 70
64
 62
7
  6
CONTINUOUS
  0
LAYER
  2
116
 70
64
 62
7
  6
CONTINUOUS
  0
LAYER
  2
117
 70
64
 62
7
  6
CONTINUOUS
  0
LAYER
  2
118
 70
64
 62
7
  6
CONTINUOUS
  0
LAYER
  2
119
 70
64
 62
7
  6
CONTINUOUS
  0
LAYER
  2
120
 70
64
 62
7
  6
CONTINUOUS
  0
LAYER
  2
121
 70
64
 62
7
  6
CONTINUOUS
  0
LAYER
  2
122
 70
64
 62
7
  6
CONTINUOUS
  0
LAYER
  2
123
 70
64
 62
7
  6
CONTINUOUS
  0
LAYER
  2
124
 70
64
 62
7
  6
CONTINUOUS
  0
LAYER
  2
125
 70
64
 62
7
  6
CONTINUOUS
  0
LAYER
  2
126
 70
64
 62
7
  6
CONTINUOUS
  0
LAYER
  2
127
 70
64
 62
7
  6
CONTINUOUS
  0
LAYER
  2
128
 70
64
 62
7
  6
CONTINUOUS
  0
LAYER
  2
129
 70
64
 62
7
  6
CONTINUOUS
  0
LAYER
  2
130
 70
64
 62
7
  6
CONTINUOUS
  0
LAYER
  2
131
 70
64
 62
7
  6
CONTINUOUS
  0
LAYER
  2
132
 70
64
 62
7
  6
CONTINUOUS
  0
LAYER
  2
133
 70
64
 62
7
  6
CONTINUOUS
  0
LAYER
  2
134
 70
64
 62
7
  6
CONTINUOUS
  0
LAYER
  2
135
 70
64
 62
7
  6
CONTINUOUS
  0
LAYER
  2
136
 70
64
 62
7
  6
CONTINUOUS
  0
LAYER
  2
137
 70
64
 62
7
  6
CONTINUOUS
  0
LAYER
  2
138
 70
64
 62
7
  6
CONTINUOUS
  0
LAYER
  2
139
 70
64
 62
7
  6
CONTINUOUS
  0
LAYER
  2
140
 70
64
 62
7
  6
CONTINUOUS
  0
LAYER
  2
141
 70
64
 62
7
  6
CONTINUOUS
  0
LAYER
  2
142
 70
64
 62
7
  6
CONTINUOUS
  0
LAYER
  2
143
 70
64
 62
7
  6
CONTINUOUS
  0
LAYER
  2
144
 70
64
 62
7
  6
CONTINUOUS
  0
LAYER
  2
145
 70
64
 62
7
  6
CONTINUOUS
  0
LAYER
  2
146
 70
64
 62
7
  6
CONTINUOUS
  0
LAYER
  2
147
 70
64
 62
7
  6
CONTINUOUS
  0
LAYER
  2
148
 70
64
 62
7
  6
CONTINUOUS
  0
LAYER
  2
149
 70
64
 62
7
  6
CONTINUOUS
  0
LAYER
  2
150
 70
64
 62
7
  6
CONTINUOUS
  0
LAYER
  2
151
 70
64
 62
7
  6
CONTINUOUS
  0
LAYER
  2
152
 70
64
 62
7
  6
CONTINUOUS
  0
LAYER
  2
153
 70
64
 62
7
  6
CONTINUOUS
  0
LAYER
  2
154
 70
64
 62
7
  6
CONTINUOUS
  0
LAYER
  2
155
 70
64
 62
7
  6
CONTINUOUS
  0
LAYER
  2
156
 70
64
 62
7
  6
CONTINUOUS
  0
LAYER
  2
157
 70
64
 62
7
  6
CONTINUOUS
  0
LAYER
  2
158
 70
64
 62
7
  6
CONTINUOUS
  0
LAYER
  2
159
 70
64
 62
7
  6
CONTINUOUS
  0
LAYER
  2
160
 70
64
 62
7
  6
CONTINUOUS
  0
LAYER
  2
161
 70
64
 62
7
  6
CONTINUOUS
  0
LAYER
  2
162
 70
64
 62
7
  6
CONTINUOUS
  0
LAYER
  2
163
 70
64
 62
7
  6
CONTINUOUS
  0
LAYER
  2
164
 70
64
 62
7
  6
CONTINUOUS
  0
LAYER
  2
165
 70
64
 62
7
  6
CONTINUOUS
  0
LAYER
  2
166
 70
64
 62
7
  6
CONTINUOUS
  0
LAYER
  2
167
 70
64
 62
7
  6
CONTINUOUS
  0
LAYER
  2
168
 70
64
 62
7
  6
CONTINUOUS
  0
LAYER
  2
169
 70
64
 62
7
  6
CONTINUOUS
  0
LAYER
  2
170
 70
64
 62
7
  6
CONTINUOUS
  0
LAYER
  2
171
 70
64
 62
7
  6
CONTINUOUS
  0
LAYER
  2
172
 70
64
 62
7
  6
CONTINUOUS
  0
LAYER
  2
173
 70
64
 62
7
  6
CONTINUOUS
  0
LAYER
  2
174
 70
64
 62
7
  6
CONTINUOUS
  0
LAYER
  2
175
 70
64
 62
7
  6
CONTINUOUS
  0
LAYER
  2
176
 70
64
 62
7
  6
CONTINUOUS
  0
LAYER
  2
177
 70
64
 62
7
  6
CONTINUOUS
  0
LAYER
  2
178
 70
64
 62
7
  6
CONTINUOUS
  0
LAYER
  2
179
 70
64
 62
7
  6
CONTINUOUS
  0
LAYER
  2
180
 70
64
 62
7
  6
CONTINUOUS
  0
LAYER
  2
181
 70
64
 62
7
  6
CONTINUOUS
  0
LAYER
  2
182
 70
64
 62
7
  6
CONTINUOUS
  0
LAYER
  2
183
 70
64
 62
7
  6
CONTINUOUS
  0
LAYER
  2
184
 70
64
 62
7
  6
CONTINUOUS
  0
LAYER
  2
185
 70
64
 62
7
  6
CONTINUOUS
  0
LAYER
  2
186
 70
64
 62
7
  6
CONTINUOUS
  0
LAYER
  2
187
 70
64
 62
7
  6
CONTINUOUS
  0
LAYER
  2
188
 70
64
 62
7
  6
CONTINUOUS
  0
LAYER
  2
189
 70
64
 62
7
  6
CONTINUOUS
  0
LAYER
  2
190
 70
64
 62
7
  6
CONTINUOUS
  0
LAYER
  2
191
 70
64
 62
7
  6
CONTINUOUS
  0
LAYER
  2
192
 70
64
 62
7
  6
CONTINUOUS
  0
LAYER
  2
193
 70
64
 62
7
  6
CONTINUOUS
  0
LAYER
  2
194
 70
64
 62
7
  6
CONTINUOUS
  0
LAYER
  2
195
 70
64
 62
7
  6
CONTINUOUS
  0
LAYER
  2
196
 70
64
 62
7
  6
CONTINUOUS
  0
LAYER
  2
197
 70
64
 62
7
  6
CONTINUOUS
  0
LAYER
  2
198
 70
64
 62
7
  6
CONTINUOUS
  0
LAYER
  2
199
 70
64
 62
7
  6
CONTINUOUS
  0
ENDTAB
  0
ENDSEC
  0
SECTION
  2
BLOCKS
  0
BLOCK
  8
0
  2
ze573m
 70
 0
 10
0.0
 20
0.0
 30
0.0
  0
POLYLINE
  8
38
 62
7
  6
CONTINUOUS
 70
1
 66
1
  0
VERTEX
 10
0.100000
 20
11.100000
  8
38
 62
7
  6
CONTINUOUS
  0
VERTEX
 10
0.100000
 20
11.600000
  8
38
 62
7
  6
CONTINUOUS
  0
VERTEX
 10
0.600000
 20
11.600000
  8
38
 62
7
  6
CONTINUOUS
  0
VERTEX
 10
0.600000
 20
11.100000
  8
38
 62
7
  6
CONTINUOUS
  0
VERTEX
 10
9.400000
 20
11.100000
  8
38
 62
7
  6
CONTINUOUS
  0
VERTEX
 10
9.400000
 20
11.600000
  8
38
 62
7
  6
CONTINUOUS
  0
VERTEX
 10
9.900000
 20
11.600000
  8
38
 62
7
  6
CONTINUOUS
  0
VERTEX
 10
9.900000
 20
11.100000
  8
38
 62
7
  6
CONTINUOUS
  0
SEQEND
  0
SOLID
  8
38
 62
255
  6
CONTINUOUS
 10
9.900000
 20
-65.700000
 11
9.900000
 21
0.000000
 12
0.100000
 22
-65.700000
 13
0.100000
 23
0.000000
  0
POLYLINE
  8
38
 62
7
  6
CONTINUOUS
 70
1
 66
1
  0
VERTEX
 10
9.900000
 20
-65.700000
 30
0.000000
  8
38
 62
7
  6
CONTINUOUS
  0
VERTEX
 10
9.900000
 20
0.000000
 30
0.000000
  8
38
 62
7
  6
CONTINUOUS
  0
VERTEX
 10
0.100000
 20
0.000000
 30
0.000000
  8
38
 62
7
  6
CONTINUOUS
  0
VERTEX
 10
0.100000
 20
-65.700000
 30
0.000000
  8
38
 62
7
  6
CONTINUOUS
  0
SEQEND
  0
CIRCLE
  8
38
 62
7
  6
CONTINUOUS
 10
5.000000
 20
-59.500000
 30
0.0
 40
0.800000
  0
POLYLINE
  8
38
 62
7
  6
CONTINUOUS
 70
1
 66
1
  0
VERTEX
 10
0.100000
 20
0.000000
  8
38
 62
7
  6
CONTINUOUS
  0
VERTEX
 10
0.100000
 20
0.500000
  8
38
 62
7
  6
CONTINUOUS
  0
VERTEX
 10
0.600000
 20
0.500000
  8
38
 62
7
  6
CONTINUOUS
  0
VERTEX
 10
0.600000
 20
0.000000
  8
38
 62
7
  6
CONTINUOUS
  0
VERTEX
 10
9.400000
 20
0.000000
  8
38
 62
7
  6
CONTINUOUS
  0
VERTEX
 10
9.400000
 20
0.500000
  8
38
 62
7
  6
CONTINUOUS
  0
VERTEX
 10
9.900000
 20
0.500000
  8
38
 62
7
  6
CONTINUOUS
  0
VERTEX
 10
9.900000
 20
0.000000
  8
38
 62
7
  6
CONTINUOUS
  0
SEQEND
  0
POLYLINE
  8
38
 62
7
  6
CONTINUOUS
 70
1
 66
1
  0
VERTEX
 10
0.100000
 20
-65.700000
  8
38
 62
7
  6
CONTINUOUS
  0
VERTEX
 10
0.100000
 20
-65.100000
  8
38
 62
7
  6
CONTINUOUS
  0
VERTEX
 10
9.900000
 20
-65.100000
  8
38
 62
7
  6
CONTINUOUS
  0
VERTEX
 10
9.900000
 20
-65.700000
  8
38
 62
7
  6
CONTINUOUS
  0
VERTEX
 10
9.600000
 20
-65.700000
  8
38
 62
7
  6
CONTINUOUS
  0
VERTEX
 10
9.600000
 20
-65.100000
  8
38
 62
7
  6
CONTINUOUS
  0
VERTEX
 10
0.400000
 20
-65.100000
  8
38
 62
7
  6
CONTINUOUS
  0
VERTEX
 10
0.400000
 20
-65.700000
  8
38
 62
7
  6
CONTINUOUS
  0
SEQEND
  0
CIRCLE
  8
38
 62
7
  6
CONTINUOUS
 10
2.500000
 20
-62.900000
 30
0.0
 40
0.800000
  0
CIRCLE
  8
38
 62
7
  6
CONTINUOUS
 10
7.500000
 20
-62.900000
 30
0.0
 40
0.800000
  0
POLYLINE
  8
38
 62
7
  6
CONTINUOUS
 70
0
 66
1
  0
VERTEX
 10
0.400000
 20
-65.100000
  8
38
 62
7
  6
CONTINUOUS
  0
VERTEX
 10
0.400000
 20
-60.900000
  8
38
 62
7
  6
CONTINUOUS
  0
VERTEX
 10
0.700000
 20
-60.900000
  8
38
 62
7
  6
CONTINUOUS
  0
VERTEX
 10
0.700000
 20
-57.000000
  8
38
 62
7
  6
CONTINUOUS
  0
VERTEX
 10
9.200000
 20
-57.000000
  8
38
 62
7
  6
CONTINUOUS
  0
VERTEX
 10
9.200000
 20
-60.900000
  8
38
 62
7
  6
CONTINUOUS
  0
VERTEX
 10
9.600000
 20
-60.900000
  8
38
 62
7
  6
CONTINUOUS
  0
VERTEX
 10
9.600000
 20
-65.100000
  8
38
 62
7
  6
CONTINUOUS
  0
SEQEND
  0
POLYLINE
  8
38
 62
7
  6
CONTINUOUS
 70
1
 66
1
  0
VERTEX
 10
9.300000
 20
-51.400000
 30
0.000000
  8
38
 62
7
  6
CONTINUOUS
  0
VERTEX
 10
9.300000
 20
-40.400000
 30
0.000000
  8
38
 62
7
  6
CONTINUOUS
  0
VERTEX
 10
0.700000
 20
-40.400000
 30
0.000000
  8
38
 62
7
  6
CONTINUOUS
  0
VERTEX
 10
0.700000
 20
-51.400000
 30
0.000000
  8
38
 62
7
  6
CONTINUOUS
  0
SEQEND
  0
POLYLINE
  8
38
 62
7
  6
CONTINUOUS
 70
1
 66
1
  0
VERTEX
 10
9.300000
 20
-14.400000
 30
0.000000
  8
38
 62
7
  6
CONTINUOUS
  0
VERTEX
 10
9.300000
 20
-3.400000
 30
0.000000
  8
38
 62
7
  6
CONTINUOUS
  0
VERTEX
 10
0.700000
 20
-3.400000
 30
0.000000
  8
38
 62
7
  6
CONTINUOUS
  0
VERTEX
 10
0.700000
 20
-14.400000
 30
0.000000
  8
38
 62
7
  6
CONTINUOUS
  0
SEQEND
  0
POLYLINE
  8
38
 62
7
  6
CONTINUOUS
 70
1
 66
1
  0
VERTEX
 10
9.300000
 20
-32.900000
 30
0.000000
  8
38
 62
7
  6
CONTINUOUS
  0
VERTEX
 10
9.300000
 20
-21.900000
 30
0.000000
  8
38
 62
7
  6
CONTINUOUS
  0
VERTEX
 10
0.700000
 20
-21.900000
 30
0.000000
  8
38
 62
7
  6
CONTINUOUS
  0
VERTEX
 10
0.700000
 20
-32.900000
 30
0.000000
  8
38
 62
7
  6
CONTINUOUS
  0
SEQEND
  0
POLYLINE
  8
38
 62
7
  6
CONTINUOUS
 70
0
 66
1
  0
VERTEX
 10
5.000000
 20
0.000000
  8
38
 62
7
  6
CONTINUOUS
  0
VERTEX
 10
5.000000
 20
-3.400000
  8
38
 62
7
  6
CONTINUOUS
  0
SEQEND
  0
POLYLINE
  8
38
 62
7
  6
CONTINUOUS
 70
0
 66
1
  0
VERTEX
 10
5.000000
 20
-14.400000
  8
38
 62
7
  6
CONTINUOUS
  0
VERTEX
 10
5.000000
 20
-21.900000
  8
38
 62
7
  6
CONTINUOUS
  0
SEQEND
  0
POLYLINE
  8
38
 62
7
  6
CONTINUOUS
 70
0
 66
1
  0
VERTEX
 10
5.000000
 20
-40.400000
  8
38
 62
7
  6
CONTINUOUS
  0
VERTEX
 10
5.000000
 20
-32.900000
  8
38
 62
7
  6
CONTINUOUS
  0
SEQEND
  0
POLYLINE
  8
38
 62
7
  6
CONTINUOUS
 70
0
 66
1
  0
VERTEX
 10
5.000000
 20
-51.400000
  8
38
 62
7
  6
CONTINUOUS
  0
VERTEX
 10
5.000000
 20
-57.000000
  8
38
 62
7
  6
CONTINUOUS
  0
SEQEND
  0
POLYLINE
  8
38
 62
7
  6
CONTINUOUS
 70
1
 66
1
  0
VERTEX
 10
6.500000
 20
-61.000000
 30
0.000000
  8
38
 62
7
  6
CONTINUOUS
  0
VERTEX
 10
6.500000
 20
-58.000000
 30
0.000000
  8
38
 62
7
  6
CONTINUOUS
  0
VERTEX
 10
3.500000
 20
-58.000000
 30
0.000000
  8
38
 62
7
  6
CONTINUOUS
  0
VERTEX
 10
3.500000
 20
-61.000000
 30
0.000000
  8
38
 62
7
  6
CONTINUOUS
  0
SEQEND
  0
POLYLINE
  8
38
 62
7
  6
CONTINUOUS
 70
1
 66
1
  0
VERTEX
 10
4.000000
 20
-64.300000
 30
0.000000
  8
38
 62
7
  6
CONTINUOUS
  0
VERTEX
 10
4.000000
 20
-61.300000
 30
0.000000
  8
38
 62
7
  6
CONTINUOUS
  0
VERTEX
 10
1.000000
 20
-61.300000
 30
0.000000
  8
38
 62
7
  6
CONTINUOUS
  0
VERTEX
 10
1.000000
 20
-64.300000
 30
0.000000
  8
38
 62
7
  6
CONTINUOUS
  0
SEQEND
  0
POLYLINE
  8
38
 62
7
  6
CONTINUOUS
 70
1
 66
1
  0
VERTEX
 10
9.000000
 20
-64.300000
 30
0.000000
  8
38
 62
7
  6
CONTINUOUS
  0
VERTEX
 10
9.000000
 20
-61.300000
 30
0.000000
  8
38
 62
7
  6
CONTINUOUS
  0
VERTEX
 10
6.000000
 20
-61.300000
 30
0.000000
  8
38
 62
7
  6
CONTINUOUS
  0
VERTEX
 10
6.000000
 20
-64.300000
 30
0.000000
  8
38
 62
7
  6
CONTINUOUS
  0
SEQEND
  0
CIRCLE
  8
38
 62
7
  6
CONTINUOUS
 10
5.000000
 20
-59.500000
 30
0.0
 40
1.100000
  0
CIRCLE
  8
38
 62
7
  6
CONTINUOUS
 10
2.500000
 20
-62.900000
 30
0.0
 40
1.100000
  0
CIRCLE
  8
38
 62
7
  6
CONTINUOUS
 10
7.500000
 20
-62.900000
 30
0.0
 40
1.100000
  0
SOLID
  8
38
 62
255
  6
CONTINUOUS
 10
5.200000
 20
-65.700000
 11
5.200000
 21
-61.000000
 12
4.800000
 22
-65.700000
 13
4.800000
 23
-61.000000
  0
POLYLINE
  8
38
 62
7
  6
CONTINUOUS
 70
1
 66
1
  0
VERTEX
 10
5.200000
 20
-65.700000
 30
0.000000
  8
38
 62
7
  6
CONTINUOUS
  0
VERTEX
 10
5.200000
 20
-61.000000
 30
0.000000
  8
38
 62
7
  6
CONTINUOUS
  0
VERTEX
 10
4.800000
 20
-61.000000
 30
0.000000
  8
38
 62
7
  6
CONTINUOUS
  0
VERTEX
 10
4.800000
 20
-65.700000
 30
0.000000
  8
38
 62
7
  6
CONTINUOUS
  0
SEQEND
  0
POLYLINE
  8
38
 62
7
  6
CONTINUOUS
 70
1
 66
1
  0
VERTEX
 10
4.700000
 20
-64.900000
 30
0.000000
  8
38
 62
7
  6
CONTINUOUS
  0
VERTEX
 10
4.700000
 20
-64.300000
 30
0.000000
  8
38
 62
7
  6
CONTINUOUS
  0
VERTEX
 10
0.500000
 20
-64.300000
 30
0.000000
  8
38
 62
7
  6
CONTINUOUS
  0
VERTEX
 10
0.500000
 20
-64.900000
 30
0.000000
  8
38
 62
7
  6
CONTINUOUS
  0
SEQEND
  0
POLYLINE
  8
38
 62
7
  6
CONTINUOUS
 70
1
 66
1
  0
VERTEX
 10
9.500000
 20
-64.900000
 30
0.000000
  8
38
 62
7
  6
CONTINUOUS
  0
VERTEX
 10
9.500000
 20
-64.300000
 30
0.000000
  8
38
 62
7
  6
CONTINUOUS
  0
VERTEX
 10
5.300000
 20
-64.300000
 30
0.000000
  8
38
 62
7
  6
CONTINUOUS
  0
VERTEX
 10
5.300000
 20
-64.900000
 30
0.000000
  8
38
 62
7
  6
CONTINUOUS
  0
SEQEND
  0
POLYLINE
  8
38
 62
7
  6
CONTINUOUS
 70
1
 66
1
  0
VERTEX
 10
9.100000
 20
-57.900000
 30
0.000000
  8
38
 62
7
  6
CONTINUOUS
  0
VERTEX
 10
9.100000
 20
-57.100000
 30
0.000000
  8
38
 62
7
  6
CONTINUOUS
  0
VERTEX
 10
0.800000
 20
-57.100000
 30
0.000000
  8
38
 62
7
  6
CONTINUOUS
  0
VERTEX
 10
0.800000
 20
-57.900000
 30
0.000000
  8
38
 62
7
  6
CONTINUOUS
  0
SEQEND
  0
SOLID
  8
2
 62
255
  6
CONTINUOUS
 10
9.900000
 20
0.000000
 11
9.900000
 21
11.100000
 12
0.100000
 22
0.000000
 13
0.100000
 23
11.100000
  0
POLYLINE
  8
2
 62
7
  6
CONTINUOUS
 70
1
 66
1
  0
VERTEX
 10
9.900000
 20
0.000000
 30
0.000000
  8
2
 62
7
  6
CONTINUOUS
  0
VERTEX
 10
9.900000
 20
11.100000
 30
0.000000
  8
2
 62
7
  6
CONTINUOUS
  0
VERTEX
 10
0.100000
 20
11.100000
 30
0.000000
  8
2
 62
7
  6
CONTINUOUS
  0
VERTEX
 10
0.100000
 20
0.000000
 30
0.000000
  8
2
 62
7
  6
CONTINUOUS
  0
SEQEND
  0
POLYLINE
  8
2
 62
7
  6
CONTINUOUS
 70
1
 66
1
  0
VERTEX
 10
7.200000
 20
0.200000
 30
0.000000
  8
2
 62
7
  6
CONTINUOUS
  0
VERTEX
 10
7.200000
 20
10.700000
 30
0.000000
  8
2
 62
7
  6
CONTINUOUS
  0
VERTEX
 10
3.000000
 20
10.700000
 30
0.000000
  8
2
 62
7
  6
CONTINUOUS
  0
VERTEX
 10
3.000000
 20
0.200000
 30
0.000000
  8
2
 62
7
  6
CONTINUOUS
  0
SEQEND
  0
SOLID
  8
2
 62
255
  6
CONTINUOUS
 10
6.200000
 20
-0.900000
 11
6.200000
 21
0.200000
 12
3.800000
 22
-0.900000
 13
3.800000
 23
0.200000
  0
POLYLINE
  8
2
 62
7
  6
CONTINUOUS
 70
1
 66
1
  0
VERTEX
 10
6.200000
 20
-0.900000
 30
0.000000
  8
2
 62
7
  6
CONTINUOUS
  0
VERTEX
 10
6.200000
 20
0.200000
 30
0.000000
  8
2
 62
7
  6
CONTINUOUS
  0
VERTEX
 10
3.800000
 20
0.200000
 30
0.000000
  8
2
 62
7
  6
CONTINUOUS
  0
VERTEX
 10
3.800000
 20
-0.900000
 30
0.000000
  8
2
 62
7
  6
CONTINUOUS
  0
SEQEND
  0
POLYLINE
  8
2
 62
7
  6
CONTINUOUS
 70
1
 66
1
  0
VERTEX
 10
7.000000
 20
4.500000
 30
0.000000
  8
2
 62
7
  6
CONTINUOUS
  0
VERTEX
 10
7.000000
 20
9.800000
 30
0.000000
  8
2
 62
7
  6
CONTINUOUS
  0
VERTEX
 10
3.200000
 20
9.800000
 30
0.000000
  8
2
 62
7
  6
CONTINUOUS
  0
VERTEX
 10
3.200000
 20
4.500000
 30
0.000000
  8
2
 62
7
  6
CONTINUOUS
  0
SEQEND
  0
SOLID
  8
2
 62
1
  6
CONTINUOUS
 10
7.100000
 20
10.000000
 11
7.100000
 21
10.700000
 12
3.100000
 22
10.000000
 13
3.100000
 23
10.700000
  0
POLYLINE
  8
2
 62
7
  6
CONTINUOUS
 70
1
 66
1
  0
VERTEX
 10
7.100000
 20
10.000000
 30
0.000000
  8
2
 62
7
  6
CONTINUOUS
  0
VERTEX
 10
7.100000
 20
10.700000
 30
0.000000
  8
2
 62
7
  6
CONTINUOUS
  0
VERTEX
 10
3.100000
 20
10.700000
 30
0.000000
  8
2
 62
7
  6
CONTINUOUS
  0
VERTEX
 10
3.100000
 20
10.000000
 30
0.000000
  8
2
 62
7
  6
CONTINUOUS
  0
SEQEND
  0
POLYLINE
  8
2
 62
7
  6
CONTINUOUS
 70
1
 66
1
  0
VERTEX
 10
7.000000
 20
0.900000
 30
0.000000
  8
2
 62
7
  6
CONTINUOUS
  0
VERTEX
 10
7.000000
 20
2.300000
 30
0.000000
  8
2
 62
7
  6
CONTINUOUS
  0
VERTEX
 10
3.200000
 20
2.300000
 30
0.000000
  8
2
 62
7
  6
CONTINUOUS
  0
VERTEX
 10
3.200000
 20
0.900000
 30
0.000000
  8
2
 62
7
  6
CONTINUOUS
  0
SEQEND
  0
POLYLINE
  8
2
 62
7
  6
CONTINUOUS
 70
1
 66
1
  0
VERTEX
 10
7.100000
 20
2.500000
 30
0.000000
  8
2
 62
7
  6
CONTINUOUS
  0
VERTEX
 10
7.100000
 20
4.200000
 30
0.000000
  8
2
 62
7
  6
CONTINUOUS
  0
VERTEX
 10
3.100000
 20
4.200000
 30
0.000000
  8
2
 62
7
  6
CONTINUOUS
  0
VERTEX
 10
3.100000
 20
2.500000
 30
0.000000
  8
2
 62
7
  6
CONTINUOUS
  0
SEQEND
  0
CIRCLE
  8
2
 62
7
  6
CONTINUOUS
 10
5.400000
 20
3.700000
 30
0.0
 40
0.200000
  0
CIRCLE
  8
2
 62
7
  6
CONTINUOUS
 10
6.300000
 20
3.700000
 30
0.0
 40
0.200000
  0
POLYLINE
  8
2
 62
7
  6
L000000000000000000
 70
1
 66
1
  0
VERTEX
 10
5.600000
 20
2.900000
 30
0.000000
  8
2
 62
7
  6
L000000000000000000
  0
VERTEX
 10
5.600000
 20
3.300000
 30
0.000000
  8
2
 62
7
  6
L000000000000000000
  0
VERTEX
 10
4.800000
 20
3.300000
 30
0.000000
  8
2
 62
7
  6
L000000000000000000
  0
VERTEX
 10
4.800000
 20
2.900000
 30
0.000000
  8
2
 62
7
  6
L000000000000000000
  0
SEQEND
  0
POLYLINE
  8
2
 62
7
  6
L000000000000000000
 70
1
 66
1
  0
VERTEX
 10
6.900000
 20
2.900000
 30
0.000000
  8
2
 62
7
  6
L000000000000000000
  0
VERTEX
 10
6.900000
 20
3.300000
 30
0.000000
  8
2
 62
7
  6
L000000000000000000
  0
VERTEX
 10
6.100000
 20
3.300000
 30
0.000000
  8
2
 62
7
  6
L000000000000000000
  0
VERTEX
 10
6.100000
 20
2.900000
 30
0.000000
  8
2
 62
7
  6
L000000000000000000
  0
SEQEND
  0
POLYLINE
  8
2
 62
7
  6
L000000000000000000
 70
0
 66
1
  0
VERTEX
 10
4.600000
 20
3.100000
  8
2
 62
7
  6
L000000000000000000
  0
VERTEX
 10
5.800000
 20
3.100000
  8
2
 62
7
  6
L000000000000000000
  0
SEQEND
  0
POLYLINE
  8
2
 62
7
  6
L000000000000000000
 70
0
 66
1
  0
VERTEX
 10
5.900000
 20
3.100000
  8
2
 62
7
  6
L000000000000000000
  0
VERTEX
 10
7.100000
 20
3.100000
  8
2
 62
7
  6
L000000000000000000
  0
SEQEND
  0
POLYLINE
  8
2
 62
7
  6
L000000000000000000
 70
0
 66
1
  0
VERTEX
 10
6.100000
 20
3.400000
  8
2
 62
7
  6
L000000000000000000
  0
VERTEX
 10
6.900000
 20
2.800000
  8
2
 62
7
  6
L000000000000000000
  0
SEQEND
  0
POLYLINE
  8
2
 62
7
  6
L000000000000000000
 70
0
 66
1
  0
VERTEX
 10
6.900000
 20
3.400000
  8
2
 62
7
  6
L000000000000000000
  0
VERTEX
 10
6.100000
 20
2.800000
  8
2
 62
7
  6
L000000000000000000
  0
SEQEND
  0
CIRCLE
  8
2
 62
7
  6
CONTINUOUS
 10
3.500000
 20
0.600000
 30
0.0
 40
0.200000
  0
SOLID
  8
2
 62
255
  6
CONTINUOUS
 10
9.900000
 20
-65.000000
 11
9.900000
 21
0.000000
 12
0.100000
 22
-65.000000
 13
0.100000
 23
0.000000
  0
POLYLINE
  8
2
 62
7
  6
CONTINUOUS
 70
1
 66
1
  0
VERTEX
 10
9.900000
 20
-65.000000
 30
0.000000
  8
2
 62
7
  6
CONTINUOUS
  0
VERTEX
 10
9.900000
 20
0.000000
 30
0.000000
  8
2
 62
7
  6
CONTINUOUS
  0
VERTEX
 10
0.100000
 20
0.000000
 30
0.000000
  8
2
 62
7
  6
CONTINUOUS
  0
VERTEX
 10
0.100000
 20
-65.000000
 30
0.000000
  8
2
 62
7
  6
CONTINUOUS
  0
SEQEND
  0
POLYLINE
  8
2
 62
7
  6
L000000000000000000
 70
0
 66
1
  0
VERTEX
 10
5.000000
 20
0.000000
  8
2
 62
7
  6
L000000000000000000
  0
VERTEX
 10
5.000000
 20
-4.700000
  8
2
 62
7
  6
L000000000000000000
  0
SEQEND
  0
POLYLINE
  8
2
 62
7
  6
L000000000000000000
 70
0
 66
1
  0
VERTEX
 10
5.000000
 20
-14.100000
  8
2
 62
7
  6
L000000000000000000
  0
VERTEX
 10
5.000000
 20
-21.400000
  8
2
 62
7
  6
L000000000000000000
  0
SEQEND
  0
POLYLINE
  8
2
 62
7
  6
L000000000000000000
 70
0
 66
1
  0
VERTEX
 10
5.000000
 20
-32.600000
  8
2
 62
7
  6
L000000000000000000
  0
VERTEX
 10
5.000000
 20
-41.700000
  8
2
 62
7
  6
L000000000000000000
  0
SEQEND
  0
POLYLINE
  8
2
 62
7
  6
L000000000000000000
 70
0
 66
1
  0
VERTEX
 10
5.000000
 20
-51.100000
  8
2
 62
7
  6
L000000000000000000
  0
VERTEX
 10
5.000000
 20
-56.600000
  8
2
 62
7
  6
L000000000000000000
  0
SEQEND
  0
POLYLINE
  8
2
 62
7
  6
CONTINUOUS
 70
0
 66
1
  0
VERTEX
 10
0.100000
 20
-57.300000
  8
2
 62
7
  6
CONTINUOUS
  0
VERTEX
 10
0.900000
 20
-57.300000
  8
2
 62
7
  6
CONTINUOUS
  0
VERTEX
 10
0.900000
 20
-56.600000
  8
2
 62
7
  6
CONTINUOUS
  0
VERTEX
 10
9.100000
 20
-56.600000
  8
2
 62
7
  6
CONTINUOUS
  0
VERTEX
 10
9.100000
 20
-57.300000
  8
2
 62
7
  6
CONTINUOUS
  0
VERTEX
 10
9.900000
 20
-57.300000
  8
2
 62
7
  6
CONTINUOUS
  0
SEQEND
  0
POLYLINE
  8
2
 62
7
  6
CONTINUOUS
 70
1
 66
1
  0
VERTEX
 10
9.200000
 20
-64.500000
 30
0.000000
  8
2
 62
7
  6
CONTINUOUS
  0
VERTEX
 10
9.200000
 20
-60.200000
 30
0.000000
  8
2
 62
7
  6
CONTINUOUS
  0
VERTEX
 10
0.800000
 20
-60.200000
 30
0.000000
  8
2
 62
7
  6
CONTINUOUS
  0
VERTEX
 10
0.800000
 20
-64.500000
 30
0.000000
  8
2
 62
7
  6
CONTINUOUS
  0
SEQEND
  0
POLYLINE
  8
2
 62
7
  6
CONTINUOUS
 70
1
 66
1
  0
VERTEX
 10
8.800000
 20
-64.100000
 30
0.000000
  8
2
 62
7
  6
CONTINUOUS
  0
VERTEX
 10
8.800000
 20
-60.800000
 30
0.000000
  8
2
 62
7
  6
CONTINUOUS
  0
VERTEX
 10
1.200000
 20
-60.800000
 30
0.000000
  8
2
 62
7
  6
CONTINUOUS
  0
VERTEX
 10
1.200000
 20
-64.100000
 30
0.000000
  8
2
 62
7
  6
CONTINUOUS
  0
SEQEND
  0
POLYLINE
  8
2
 62
7
  6
CONTINUOUS
 70
0
 66
1
  0
VERTEX
 10
0.800000
 20
-60.200000
  8
2
 62
7
  6
CONTINUOUS
  0
VERTEX
 10
1.200000
 20
-60.800000
  8
2
 62
7
  6
CONTINUOUS
  0
SEQEND
  0
POLYLINE
  8
2
 62
7
  6
CONTINUOUS
 70
0
 66
1
  0
VERTEX
 10
9.200000
 20
-60.200000
  8
2
 62
7
  6
CONTINUOUS
  0
VERTEX
 10
8.800000
 20
-60.800000
  8
2
 62
7
  6
CONTINUOUS
  0
SEQEND
  0
POLYLINE
  8
2
 62
7
  6
CONTINUOUS
 70
1
 66
1
  0
VERTEX
 10
8.700000
 20
-62.000000
 30
0.000000
  8
2
 62
7
  6
CONTINUOUS
  0
VERTEX
 10
8.700000
 20
-61.500000
 30
0.000000
  8
2
 62
7
  6
CONTINUOUS
  0
VERTEX
 10
1.300000
 20
-61.500000
 30
0.000000
  8
2
 62
7
  6
CONTINUOUS
  0
VERTEX
 10
1.300000
 20
-62.000000
 30
0.000000
  8
2
 62
7
  6
CONTINUOUS
  0
SEQEND
  0
POLYLINE
  8
2
 62
7
  6
CONTINUOUS
 70
1
 66
1
  0
VERTEX
 10
8.700000
 20
-62.800000
 30
0.000000
  8
2
 62
7
  6
CONTINUOUS
  0
VERTEX
 10
8.700000
 20
-62.300000
 30
0.000000
  8
2
 62
7
  6
CONTINUOUS
  0
VERTEX
 10
1.300000
 20
-62.300000
 30
0.000000
  8
2
 62
7
  6
CONTINUOUS
  0
VERTEX
 10
1.300000
 20
-62.800000
 30
0.000000
  8
2
 62
7
  6
CONTINUOUS
  0
SEQEND
  0
POLYLINE
  8
2
 62
7
  6
CONTINUOUS
 70
1
 66
1
  0
VERTEX
 10
8.700000
 20
-63.600000
 30
0.000000
  8
2
 62
7
  6
CONTINUOUS
  0
VERTEX
 10
8.700000
 20
-63.100000
 30
0.000000
  8
2
 62
7
  6
CONTINUOUS
  0
VERTEX
 10
1.300000
 20
-63.100000
 30
0.000000
  8
2
 62
7
  6
CONTINUOUS
  0
VERTEX
 10
1.300000
 20
-63.600000
 30
0.000000
  8
2
 62
7
  6
CONTINUOUS
  0
SEQEND
  0
SOLID
  8
2
 62
1
  6
CONTINUOUS
 10
9.300000
 20
-58.200000
 11
9.300000
 21
-57.700000
 12
0.700000
 22
-58.200000
 13
0.700000
 23
-57.700000
  0
POLYLINE
  8
2
 62
7
  6
CONTINUOUS
 70
1
 66
1
  0
VERTEX
 10
9.300000
 20
-58.200000
 30
0.000000
  8
2
 62
7
  6
CONTINUOUS
  0
VERTEX
 10
9.300000
 20
-57.700000
 30
0.000000
  8
2
 62
7
  6
CONTINUOUS
  0
VERTEX
 10
0.700000
 20
-57.700000
 30
0.000000
  8
2
 62
7
  6
CONTINUOUS
  0
VERTEX
 10
0.700000
 20
-58.200000
 30
0.000000
  8
2
 62
7
  6
CONTINUOUS
  0
SEQEND
  0
POLYLINE
  8
2
 62
7
  6
CONTINUOUS
 70
1
 66
1
  0
VERTEX
 10
0.600000
 20
-6.700000
  8
2
 62
7
  6
CONTINUOUS
  0
VERTEX
 10
1.300000
 20
-4.700000
  8
2
 62
7
  6
CONTINUOUS
  0
VERTEX
 10
8.700000
 20
-4.700000
  8
2
 62
7
  6
CONTINUOUS
  0
VERTEX
 10
9.400000
 20
-6.700000
  8
2
 62
7
  6
CONTINUOUS
  0
VERTEX
 10
9.400000
 20
-13.300000
  8
2
 62
7
  6
CONTINUOUS
  0
VERTEX
 10
9.200000
 20
-13.800000
  8
2
 62
7
  6
CONTINUOUS
  0
VERTEX
 10
9.000000
 20
-14.100000
  8
2
 62
7
  6
CONTINUOUS
  0
VERTEX
 10
1.000000
 20
-14.100000
  8
2
 62
7
  6
CONTINUOUS
  0
VERTEX
 10
0.800000
 20
-13.800000
  8
2
 62
7
  6
CONTINUOUS
  0
VERTEX
 10
0.600000
 20
-13.300000
  8
2
 62
7
  6
CONTINUOUS
  0
SEQEND
  0
POLYLINE
  8
2
 62
7
  6
CONTINUOUS
 70
0
 66
1
  0
VERTEX
 10
0.600000
 20
-13.300000
  8
2
 62
7
  6
CONTINUOUS
  0
VERTEX
 10
0.200000
 20
-13.300000
  8
2
 62
7
  6
CONTINUOUS
  0
SEQEND
  0
POLYLINE
  8
2
 62
7
  6
CONTINUOUS
 70
0
 66
1
  0
VERTEX
 10
4.400000
 20
-13.300000
  8
2
 62
7
  6
CONTINUOUS
  0
VERTEX
 10
4.800000
 20
-13.300000
  8
2
 62
7
  6
CONTINUOUS
  0
SEQEND
  0
POLYLINE
  8
2
 62
7
  6
CONTINUOUS
 70
1
 66
1
  0
VERTEX
 10
1.300000
 20
-4.700000
  8
2
 62
7
  6
CONTINUOUS
  0
VERTEX
 10
8.700000
 20
-4.700000
  8
2
 62
7
  6
CONTINUOUS
  0
VERTEX
 10
9.300000
 20
-6.600000
  8
2
 62
7
  6
CONTINUOUS
  0
VERTEX
 10
9.300000
 20
-13.300000
  8
2
 62
7
  6
CONTINUOUS
  0
VERTEX
 10
0.700000
 20
-13.300000
  8
2
 62
7
  6
CONTINUOUS
  0
VERTEX
 10
0.700000
 20
-6.600000
  8
2
 62
7
  6
CONTINUOUS
  0
SEQEND
  0
POLYLINE
  8
2
 62
7
  6
CONTINUOUS
 70
1
 66
1
  0
VERTEX
 10
1.500000
 20
-5.700000
  8
2
 62
7
  6
CONTINUOUS
  0
VERTEX
 10
8.500000
 20
-5.700000
  8
2
 62
7
  6
CONTINUOUS
  0
VERTEX
 10
9.100000
 20
-7.500000
  8
2
 62
7
  6
CONTINUOUS
  0
VERTEX
 10
9.100000
 20
-13.700000
  8
2
 62
7
  6
CONTINUOUS
  0
VERTEX
 10
0.900000
 20
-13.700000
  8
2
 62
7
  6
CONTINUOUS
  0
VERTEX
 10
0.900000
 20
-7.500000
  8
2
 62
7
  6
CONTINUOUS
  0
SEQEND
  0
POLYLINE
  8
2
 62
7
  6
CONTINUOUS
 70
1
 66
1
  0
VERTEX
 10
8.700000
 20
-13.400000
 30
0.000000
  8
2
 62
7
  6
CONTINUOUS
  0
VERTEX
 10
8.700000
 20
-6.600000
 30
0.000000
  8
2
 62
7
  6
CONTINUOUS
  0
VERTEX
 10
1.300000
 20
-6.600000
 30
0.000000
  8
2
 62
7
  6
CONTINUOUS
  0
VERTEX
 10
1.300000
 20
-13.400000
 30
0.000000
  8
2
 62
7
  6
CONTINUOUS
  0
SEQEND
  0
SOLID
  8
2
 62
1
  6
CONTINUOUS
 10
9.900000
 20
-2.000000
 11
9.900000
 21
-1.100000
 12
0.100000
 22
-2.000000
 13
0.100000
 23
-1.100000
  0
POLYLINE
  8
2
 62
7
  6
CONTINUOUS
 70
1
 66
1
  0
VERTEX
 10
9.900000
 20
-2.000000
 30
0.000000
  8
2
 62
7
  6
CONTINUOUS
  0
VERTEX
 10
9.900000
 20
-1.100000
 30
0.000000
  8
2
 62
7
  6
CONTINUOUS
  0
VERTEX
 10
0.100000
 20
-1.100000
 30
0.000000
  8
2
 62
7
  6
CONTINUOUS
  0
VERTEX
 10
0.100000
 20
-2.000000
 30
0.000000
  8
2
 62
7
  6
CONTINUOUS
  0
SEQEND
  0
CIRCLE
  8
2
 62
7
  6
CONTINUOUS
 10
8.300000
 20
-9.600000
 30
0.0
 40
0.400000
  0
CIRCLE
  8
2
 62
7
  6
CONTINUOUS
 10
8.300000
 20
-10.500000
 30
0.0
 40
0.400000
  0
CIRCLE
  8
2
 62
7
  6
CONTINUOUS
 10
1.700000
 20
-9.600000
 30
0.0
 40
0.400000
  0
CIRCLE
  8
2
 62
7
  6
CONTINUOUS
 10
1.700000
 20
-10.500000
 30
0.0
 40
0.400000
  0
POLYLINE
  8
2
 62
7
  6
CONTINUOUS
 70
1
 66
1
  0
VERTEX
 10
0.200000
 20
-22.200000
  8
2
 62
7
  6
CONTINUOUS
  0
VERTEX
 10
1.300000
 20
-21.400000
  8
2
 62
7
  6
CONTINUOUS
  0
VERTEX
 10
8.700000
 20
-21.400000
  8
2
 62
7
  6
CONTINUOUS
  0
VERTEX
 10
9.800000
 20
-22.100000
  8
2
 62
7
  6
CONTINUOUS
  0
VERTEX
 10
9.800000
 20
-36.400000
  8
2
 62
7
  6
CONTINUOUS
  0
VERTEX
 10
9.400000
 20
-36.400000
  8
2
 62
7
  6
CONTINUOUS
  0
VERTEX
 10
9.400000
 20
-31.800000
  8
2
 62
7
  6
CONTINUOUS
  0
VERTEX
 10
0.600000
 20
-31.800000
  8
2
 62
7
  6
CONTINUOUS
  0
VERTEX
 10
0.600000
 20
-36.400000
  8
2
 62
7
  6
CONTINUOUS
  0
VERTEX
 10
0.200000
 20
-36.400000
  8
2
 62
7
  6
CONTINUOUS
  0
SEQEND
  0
POLYLINE
  8
2
 62
7
  6
CONTINUOUS
 70
1
 66
1
  0
VERTEX
 10
0.600000
 20
-23.700000
  8
2
 62
7
  6
CONTINUOUS
  0
VERTEX
 10
1.300000
 20
-22.900000
  8
2
 62
7
  6
CONTINUOUS
  0
VERTEX
 10
8.700000
 20
-22.900000
  8
2
 62
7
  6
CONTINUOUS
  0
VERTEX
 10
9.400000
 20
-23.500000
  8
2
 62
7
  6
CONTINUOUS
  0
VERTEX
 10
9.400000
 20
-31.800000
  8
2
 62
7
  6
CONTINUOUS
  0
VERTEX
 10
9.200000
 20
-32.300000
  8
2
 62
7
  6
CONTINUOUS
  0
VERTEX
 10
9.000000
 20
-32.600000
  8
2
 62
7
  6
CONTINUOUS
  0
VERTEX
 10
1.000000
 20
-32.600000
  8
2
 62
7
  6
CONTINUOUS
  0
VERTEX
 10
0.800000
 20
-32.300000
  8
2
 62
7
  6
CONTINUOUS
  0
VERTEX
 10
0.600000
 20
-31.800000
  8
2
 62
7
  6
CONTINUOUS
  0
SEQEND
  0
POLYLINE
  8
2
 62
7
  6
CONTINUOUS
 70
0
 66
1
  0
VERTEX
 10
0.600000
 20
-31.800000
  8
2
 62
7
  6
CONTINUOUS
  0
VERTEX
 10
0.200000
 20
-31.800000
  8
2
 62
7
  6
CONTINUOUS
  0
SEQEND
  0
POLYLINE
  8
2
 62
7
  6
CONTINUOUS
 70
0
 66
1
  0
VERTEX
 10
4.400000
 20
-31.800000
  8
2
 62
7
  6
CONTINUOUS
  0
VERTEX
 10
4.800000
 20
-31.800000
  8
2
 62
7
  6
CONTINUOUS
  0
SEQEND
  0
POLYLINE
  8
2
 62
7
  6
CONTINUOUS
 70
1
 66
1
  0
VERTEX
 10
1.300000
 20
-23.200000
  8
2
 62
7
  6
CONTINUOUS
  0
VERTEX
 10
8.700000
 20
-23.200000
  8
2
 62
7
  6
CONTINUOUS
  0
VERTEX
 10
9.300000
 20
-25.100000
  8
2
 62
7
  6
CONTINUOUS
  0
VERTEX
 10
9.300000
 20
-31.800000
  8
2
 62
7
  6
CONTINUOUS
  0
VERTEX
 10
0.700000
 20
-31.800000
  8
2
 62
7
  6
CONTINUOUS
  0
VERTEX
 10
0.700000
 20
-25.100000
  8
2
 62
7
  6
CONTINUOUS
  0
SEQEND
  0
POLYLINE
  8
2
 62
7
  6
CONTINUOUS
 70
1
 66
1
  0
VERTEX
 10
1.500000
 20
-24.200000
  8
2
 62
7
  6
CONTINUOUS
  0
VERTEX
 10
8.500000
 20
-24.200000
  8
2
 62
7
  6
CONTINUOUS
  0
VERTEX
 10
9.100000
 20
-26.000000
  8
2
 62
7
  6
CONTINUOUS
  0
VERTEX
 10
9.100000
 20
-32.200000
  8
2
 62
7
  6
CONTINUOUS
  0
VERTEX
 10
0.900000
 20
-32.200000
  8
2
 62
7
  6
CONTINUOUS
  0
VERTEX
 10
0.900000
 20
-26.000000
  8
2
 62
7
  6
CONTINUOUS
  0
SEQEND
  0
POLYLINE
  8
2
 62
7
  6
CONTINUOUS
 70
1
 66
1
  0
VERTEX
 10
8.700000
 20
-31.900000
 30
0.000000
  8
2
 62
7
  6
CONTINUOUS
  0
VERTEX
 10
8.700000
 20
-25.100000
 30
0.000000
  8
2
 62
7
  6
CONTINUOUS
  0
VERTEX
 10
1.300000
 20
-25.100000
 30
0.000000
  8
2
 62
7
  6
CONTINUOUS
  0
VERTEX
 10
1.300000
 20
-31.900000
 30
0.000000
  8
2
 62
7
  6
CONTINUOUS
  0
SEQEND
  0
CIRCLE
  8
2
 62
7
  6
CONTINUOUS
 10
8.300000
 20
-28.100000
 30
0.0
 40
0.400000
  0
CIRCLE
  8
2
 62
7
  6
CONTINUOUS
 10
8.300000
 20
-29.000000
 30
0.0
 40
0.400000
  0
CIRCLE
  8
2
 62
7
  6
CONTINUOUS
 10
1.700000
 20
-28.100000
 30
0.0
 40
0.400000
  0
CIRCLE
  8
2
 62
7
  6
CONTINUOUS
 10
1.700000
 20
-29.000000
 30
0.0
 40
0.400000
  0
POLYLINE
  8
2
 62
7
  6
CONTINUOUS
 70
1
 66
1
  0
VERTEX
 10
0.600000
 20
-43.600000
  8
2
 62
7
  6
CONTINUOUS
  0
VERTEX
 10
1.300000
 20
-41.700000
  8
2
 62
7
  6
CONTINUOUS
  0
VERTEX
 10
8.700000
 20
-41.700000
  8
2
 62
7
  6
CONTINUOUS
  0
VERTEX
 10
9.400000
 20
-43.500000
  8
2
 62
7
  6
CONTINUOUS
  0
VERTEX
 10
9.400000
 20
-50.300000
  8
2
 62
7
  6
CONTINUOUS
  0
VERTEX
 10
9.200000
 20
-50.800000
  8
2
 62
7
  6
CONTINUOUS
  0
VERTEX
 10
9.000000
 20
-51.100000
  8
2
 62
7
  6
CONTINUOUS
  0
VERTEX
 10
1.000000
 20
-51.100000
  8
2
 62
7
  6
CONTINUOUS
  0
VERTEX
 10
0.800000
 20
-50.800000
  8
2
 62
7
  6
CONTINUOUS
  0
VERTEX
 10
0.600000
 20
-50.300000
  8
2
 62
7
  6
CONTINUOUS
  0
SEQEND
  0
POLYLINE
  8
2
 62
7
  6
CONTINUOUS
 70
0
 66
1
  0
VERTEX
 10
4.400000
 20
-50.300000
  8
2
 62
7
  6
CONTINUOUS
  0
VERTEX
 10
4.800000
 20
-50.300000
  8
2
 62
7
  6
CONTINUOUS
  0
SEQEND
  0
POLYLINE
  8
2
 62
7
  6
CONTINUOUS
 70
1
 66
1
  0
VERTEX
 10
1.300000
 20
-41.700000
  8
2
 62
7
  6
CONTINUOUS
  0
VERTEX
 10
8.700000
 20
-41.700000
  8
2
 62
7
  6
CONTINUOUS
  0
VERTEX
 10
9.300000
 20
-43.600000
  8
2
 62
7
  6
CONTINUOUS
  0
VERTEX
 10
9.300000
 20
-50.300000
  8
2
 62
7
  6
CONTINUOUS
  0
VERTEX
 10
0.700000
 20
-50.300000
  8
2
 62
7
  6
CONTINUOUS
  0
VERTEX
 10
0.700000
 20
-43.600000
  8
2
 62
7
  6
CONTINUOUS
  0
SEQEND
  0
POLYLINE
  8
2
 62
7
  6
CONTINUOUS
 70
1
 66
1
  0
VERTEX
 10
1.500000
 20
-42.700000
  8
2
 62
7
  6
CONTINUOUS
  0
VERTEX
 10
8.500000
 20
-42.700000
  8
2
 62
7
  6
CONTINUOUS
  0
VERTEX
 10
9.100000
 20
-44.500000
  8
2
 62
7
  6
CONTINUOUS
  0
VERTEX
 10
9.100000
 20
-50.700000
  8
2
 62
7
  6
CONTINUOUS
  0
VERTEX
 10
0.900000
 20
-50.700000
  8
2
 62
7
  6
CONTINUOUS
  0
VERTEX
 10
0.900000
 20
-44.500000
  8
2
 62
7
  6
CONTINUOUS
  0
SEQEND
  0
POLYLINE
  8
2
 62
7
  6
CONTINUOUS
 70
1
 66
1
  0
VERTEX
 10
8.700000
 20
-50.400000
 30
0.000000
  8
2
 62
7
  6
CONTINUOUS
  0
VERTEX
 10
8.700000
 20
-43.600000
 30
0.000000
  8
2
 62
7
  6
CONTINUOUS
  0
VERTEX
 10
1.300000
 20
-43.600000
 30
0.000000
  8
2
 62
7
  6
CONTINUOUS
  0
VERTEX
 10
1.300000
 20
-50.400000
 30
0.000000
  8
2
 62
7
  6
CONTINUOUS
  0
SEQEND
  0
CIRCLE
  8
2
 62
7
  6
CONTINUOUS
 10
8.300000
 20
-46.600000
 30
0.0
 40
0.400000
  0
CIRCLE
  8
2
 62
7
  6
CONTINUOUS
 10
8.300000
 20
-47.500000
 30
0.0
 40
0.400000
  0
CIRCLE
  8
2
 62
7
  6
CONTINUOUS
 10
1.700000
 20
-46.600000
 30
0.0
 40
0.400000
  0
CIRCLE
  8
2
 62
7
  6
CONTINUOUS
 10
1.700000
 20
-47.500000
 30
0.0
 40
0.400000
  0
SOLID
  8
2
 62
255
  6
CONTINUOUS
 10
9.000000
 20
-16.300000
 11
9.000000
 21
-14.700000
 12
1.000000
 22
-16.300000
 13
1.000000
 23
-14.700000
  0
POLYLINE
  8
2
 62
7
  6
CONTINUOUS
 70
1
 66
1
  0
VERTEX
 10
9.000000
 20
-16.300000
 30
0.000000
  8
2
 62
7
  6
CONTINUOUS
  0
VERTEX
 10
9.000000
 20
-14.700000
 30
0.000000
  8
2
 62
7
  6
CONTINUOUS
  0
VERTEX
 10
1.000000
 20
-14.700000
 30
0.000000
  8
2
 62
7
  6
CONTINUOUS
  0
VERTEX
 10
1.000000
 20
-16.300000
 30
0.000000
  8
2
 62
7
  6
CONTINUOUS
  0
SEQEND
  0
SOLID
  8
2
 62
255
  6
CONTINUOUS
 10
9.000000
 20
-34.800000
 11
9.000000
 21
-33.200000
 12
1.000000
 22
-34.800000
 13
1.000000
 23
-33.200000
  0
POLYLINE
  8
2
 62
7
  6
CONTINUOUS
 70
1
 66
1
  0
VERTEX
 10
9.000000
 20
-34.800000
 30
0.000000
  8
2
 62
7
  6
CONTINUOUS
  0
VERTEX
 10
9.000000
 20
-33.200000
 30
0.000000
  8
2
 62
7
  6
CONTINUOUS
  0
VERTEX
 10
1.000000
 20
-33.200000
 30
0.000000
  8
2
 62
7
  6
CONTINUOUS
  0
VERTEX
 10
1.000000
 20
-34.800000
 30
0.000000
  8
2
 62
7
  6
CONTINUOUS
  0
SEQEND
  0
SOLID
  8
2
 62
255
  6
CONTINUOUS
 10
9.000000
 20
-53.300000
 11
9.000000
 21
-51.700000
 12
1.000000
 22
-53.300000
 13
1.000000
 23
-51.700000
  0
POLYLINE
  8
2
 62
7
  6
CONTINUOUS
 70
1
 66
1
  0
VERTEX
 10
9.000000
 20
-53.300000
 30
0.000000
  8
2
 62
7
  6
CONTINUOUS
  0
VERTEX
 10
9.000000
 20
-51.700000
 30
0.000000
  8
2
 62
7
  6
CONTINUOUS
  0
VERTEX
 10
1.000000
 20
-51.700000
 30
0.000000
  8
2
 62
7
  6
CONTINUOUS
  0
VERTEX
 10
1.000000
 20
-53.300000
 30
0.000000
  8
2
 62
7
  6
CONTINUOUS
  0
SEQEND
  0
SOLID
  8
2
 62
254
  6
CONTINUOUS
 10
0.600000
 20
-45.400000
 11
0.600000
 21
-6.700000
 12
0.200000
 22
-45.400000
 13
0.200000
 23
-6.700000
  0
POLYLINE
  8
2
 62
7
  6
CONTINUOUS
 70
1
 66
1
  0
VERTEX
 10
0.600000
 20
-45.400000
 30
0.000000
  8
2
 62
7
  6
CONTINUOUS
  0
VERTEX
 10
0.600000
 20
-6.700000
 30
0.000000
  8
2
 62
7
  6
CONTINUOUS
  0
VERTEX
 10
0.200000
 20
-6.700000
 30
0.000000
  8
2
 62
7
  6
CONTINUOUS
  0
VERTEX
 10
0.200000
 20
-45.400000
 30
0.000000
  8
2
 62
7
  6
CONTINUOUS
  0
SEQEND
  0
SOLID
  8
2
 62
254
  6
CONTINUOUS
 10
9.800000
 20
-45.400000
 11
9.800000
 21
-6.700000
 12
9.400000
 22
-45.400000
 13
9.400000
 23
-6.700000
  0
POLYLINE
  8
2
 62
7
  6
CONTINUOUS
 70
1
 66
1
  0
VERTEX
 10
9.800000
 20
-45.400000
 30
0.000000
  8
2
 62
7
  6
CONTINUOUS
  0
VERTEX
 10
9.800000
 20
-6.700000
 30
0.000000
  8
2
 62
7
  6
CONTINUOUS
  0
VERTEX
 10
9.400000
 20
-6.700000
 30
0.000000
  8
2
 62
7
  6
CONTINUOUS
  0
VERTEX
 10
9.400000
 20
-45.400000
 30
0.000000
  8
2
 62
7
  6
CONTINUOUS
  0
SEQEND
  0
POLYLINE
  8
2
 62
7
  6
CONTINUOUS
 70
1
 66
1
  0
VERTEX
 10
9.800000
 20
-54.900000
 30
0.000000
  8
2
 62
7
  6
CONTINUOUS
  0
VERTEX
 10
9.800000
 20
-45.400000
 30
0.000000
  8
2
 62
7
  6
CONTINUOUS
  0
VERTEX
 10
9.400000
 20
-45.400000
 30
0.000000
  8
2
 62
7
  6
CONTINUOUS
  0
VERTEX
 10
9.400000
 20
-54.900000
 30
0.000000
  8
2
 62
7
  6
CONTINUOUS
  0
SEQEND
  0
POLYLINE
  8
2
 62
7
  6
CONTINUOUS
 70
1
 66
1
  0
VERTEX
 10
0.600000
 20
-54.900000
 30
0.000000
  8
2
 62
7
  6
CONTINUOUS
  0
VERTEX
 10
0.600000
 20
-45.400000
 30
0.000000
  8
2
 62
7
  6
CONTINUOUS
  0
VERTEX
 10
0.200000
 20
-45.400000
 30
0.000000
  8
2
 62
7
  6
CONTINUOUS
  0
VERTEX
 10
0.200000
 20
-54.900000
 30
0.000000
  8
2
 62
7
  6
CONTINUOUS
  0
SEQEND
  0
POLYLINE
  8
2
 62
7
  6
CONTINUOUS
 70
1
 66
1
  0
VERTEX
 10
1.300000
 20
-20.600000
  8
2
 62
7
  6
CONTINUOUS
  0
VERTEX
 10
8.700000
 20
-20.600000
  8
2
 62
7
  6
CONTINUOUS
  0
VERTEX
 10
9.800000
 20
-22.100000
  8
2
 62
7
  6
CONTINUOUS
  0
VERTEX
 10
9.800000
 20
-31.800000
  8
2
 62
7
  6
CONTINUOUS
  0
VERTEX
 10
9.400000
 20
-31.800000
  8
2
 62
7
  6
CONTINUOUS
  0
VERTEX
 10
9.400000
 20
-23.500000
  8
2
 62
7
  6
CONTINUOUS
  0
VERTEX
 10
8.700000
 20
-22.900000
  8
2
 62
7
  6
CONTINUOUS
  0
VERTEX
 10
1.300000
 20
-22.900000
  8
2
 62
7
  6
CONTINUOUS
  0
VERTEX
 10
0.600000
 20
-23.700000
  8
2
 62
7
  6
CONTINUOUS
  0
VERTEX
 10
0.600000
 20
-31.800000
  8
2
 62
7
  6
CONTINUOUS
  0
VERTEX
 10
0.200000
 20
-31.800000
  8
2
 62
7
  6
CONTINUOUS
  0
VERTEX
 10
0.200000
 20
-22.200000
  8
2
 62
7
  6
CONTINUOUS
  0
SEQEND
  0
ENDBLK
  0
ENDSEC
  0
SECTION
  2
ENTITIES
  0
INSERT
  8
0
 2
ze573m
 10
0.000000
 20
0.000000
 30
0.0
 50
0.0
  0
ENDSEC
  0
EOF
