  0
SECTION
  2
HEADER
  9
$ACADVER
  1
AC1009
  9
$INSBASE
 10
0.0
 20
0.0
 30
0.0
  9
$EXTMIN
 10
0.0
 20
0.0
 30
0.0
  9
$EXTMAX
 10
0.000000
 20
0.000000
 30
0.0
  9
$LIMMIN
 10
0.0
 20
0.0
  9
$LIMMAX
 10
0.000000
 20
0.000000
  0
ENDSEC
  0
SECTION
  2
TABLES
  0
TABLE
  2
LTYPE
 70
6
  0
LTYPE
  2
CONTINUOUS
 70
64
  3
Solid line
 72
65
 73
0
 40
0.000000
  0
LTYPE
  2
L000000000000000000
 70
64
  3
Solid line
 72
65
 73
0
 40
0.000000
  0
LTYPE
  2
L000000020000FFFFFF
 70
64
  3
Solid line
 72
65
 73
0
 40
0.000000
  0
LTYPE
  2
L014100020032000000
 70
64
  3
- - - - - - - -
 72
65
 73
2
 40
0.500000
 49
0.300000
 49
-0.200000
  0
LTYPE
  2
L000000020000008000
 70
64
  3
Solid line
 72
65
 73
0
 40
0.000000
  0
LTYPE
  2
L014100000032000000
 70
64
  3
- - - - - - - -
 72
65
 73
2
 40
0.500000
 49
0.300000
 49
-0.200000
  0
ENDTAB
  0
TABLE
  2
LAYER
 70
8
  0
LAYER
  2
0
 70
64
 62
7
  6
CONTINUOUS
  0
LAYER
  2
1
 70
64
 62
7
  6
CONTINUOUS
  0
LAYER
  2
2
 70
64
 62
7
  6
CONTINUOUS
  0
LAYER
  2
3
 70
64
 62
-7
  6
CONTINUOUS
  0
LAYER
  2
4
 70
64
 62
7
  6
CONTINUOUS
  0
LAYER
  2
5
 70
64
 62
7
  6
CONTINUOUS
  0
LAYER
  2
6
 70
64
 62
7
  6
CONTINUOUS
  0
LAYER
  2
7
 70
64
 62
7
  6
CONTINUOUS
  0
LAYER
  2
8
 70
64
 62
7
  6
CONTINUOUS
  0
LAYER
  2
9
 70
64
 62
7
  6
CONTINUOUS
  0
LAYER
  2
10
 70
64
 62
7
  6
CONTINUOUS
  0
LAYER
  2
11
 70
64
 62
7
  6
CONTINUOUS
  0
LAYER
  2
12
 70
64
 62
7
  6
CONTINUOUS
  0
LAYER
  2
13
 70
64
 62
7
  6
CONTINUOUS
  0
LAYER
  2
14
 70
64
 62
7
  6
CONTINUOUS
  0
LAYER
  2
15
 70
64
 62
7
  6
CONTINUOUS
  0
LAYER
  2
16
 70
64
 62
7
  6
CONTINUOUS
  0
LAYER
  2
17
 70
64
 62
7
  6
CONTINUOUS
  0
LAYER
  2
18
 70
64
 62
7
  6
CONTINUOUS
  0
LAYER
  2
19
 70
64
 62
7
  6
CONTINUOUS
  0
LAYER
  2
20
 70
64
 62
7
  6
CONTINUOUS
  0
LAYER
  2
21
 70
64
 62
7
  6
CONTINUOUS
  0
LAYER
  2
22
 70
64
 62
7
  6
CONTINUOUS
  0
LAYER
  2
23
 70
64
 62
7
  6
CONTINUOUS
  0
LAYER
  2
24
 70
64
 62
7
  6
CONTINUOUS
  0
LAYER
  2
25
 70
64
 62
7
  6
CONTINUOUS
  0
LAYER
  2
26
 70
64
 62
7
  6
CONTINUOUS
  0
LAYER
  2
27
 70
64
 62
7
  6
CONTINUOUS
  0
LAYER
  2
28
 70
64
 62
7
  6
CONTINUOUS
  0
LAYER
  2
29
 70
64
 62
-7
  6
CONTINUOUS
  0
LAYER
  2
30
 70
64
 62
-7
  6
CONTINUOUS
  0
LAYER
  2
31
 70
64
 62
7
  6
CONTINUOUS
  0
LAYER
  2
32
 70
64
 62
7
  6
CONTINUOUS
  0
LAYER
  2
33
 70
64
 62
7
  6
CONTINUOUS
  0
LAYER
  2
34
 70
64
 62
7
  6
CONTINUOUS
  0
LAYER
  2
35
 70
64
 62
7
  6
CONTINUOUS
  0
LAYER
  2
36
 70
64
 62
7
  6
CONTINUOUS
  0
LAYER
  2
37
 70
64
 62
7
  6
CONTINUOUS
  0
LAYER
  2
38
 70
64
 62
-7
  6
CONTINUOUS
  0
LAYER
  2
39
 70
64
 62
7
  6
CONTINUOUS
  0
LAYER
  2
40
 70
64
 62
7
  6
CONTINUOUS
  0
LAYER
  2
41
 70
64
 62
7
  6
CONTINUOUS
  0
LAYER
  2
42
 70
64
 62
7
  6
CONTINUOUS
  0
LAYER
  2
43
 70
64
 62
7
  6
CONTINUOUS
  0
LAYER
  2
44
 70
64
 62
7
  6
CONTINUOUS
  0
LAYER
  2
45
 70
64
 62
7
  6
CONTINUOUS
  0
LAYER
  2
46
 70
64
 62
7
  6
CONTINUOUS
  0
LAYER
  2
47
 70
64
 62
-7
  6
CONTINUOUS
  0
LAYER
  2
48
 70
64
 62
-7
  6
CONTINUOUS
  0
LAYER
  2
49
 70
64
 62
-7
  6
CONTINUOUS
  0
LAYER
  2
50
 70
64
 62
-7
  6
CONTINUOUS
  0
LAYER
  2
51
 70
64
 62
-7
  6
CONTINUOUS
  0
LAYER
  2
52
 70
64
 62
-7
  6
CONTINUOUS
  0
LAYER
  2
53
 70
64
 62
-7
  6
CONTINUOUS
  0
LAYER
  2
54
 70
64
 62
-7
  6
CONTINUOUS
  0
LAYER
  2
55
 70
64
 62
-7
  6
CONTINUOUS
  0
LAYER
  2
56
 70
64
 62
-7
  6
CONTINUOUS
  0
LAYER
  2
57
 70
64
 62
-7
  6
CONTINUOUS
  0
LAYER
  2
58
 70
64
 62
7
  6
CONTINUOUS
  0
LAYER
  2
59
 70
64
 62
-7
  6
CONTINUOUS
  0
LAYER
  2
60
 70
64
 62
-7
  6
CONTINUOUS
  0
LAYER
  2
61
 70
64
 62
7
  6
CONTINUOUS
  0
LAYER
  2
62
 70
64
 62
7
  6
CONTINUOUS
  0
LAYER
  2
63
 70
64
 62
7
  6
CONTINUOUS
  0
LAYER
  2
64
 70
64
 62
7
  6
CONTINUOUS
  0
LAYER
  2
65
 70
64
 62
7
  6
CONTINUOUS
  0
LAYER
  2
66
 70
64
 62
7
  6
CONTINUOUS
  0
LAYER
  2
67
 70
64
 62
7
  6
CONTINUOUS
  0
LAYER
  2
68
 70
64
 62
7
  6
CONTINUOUS
  0
LAYER
  2
69
 70
64
 62
7
  6
CONTINUOUS
  0
LAYER
  2
70
 70
64
 62
7
  6
CONTINUOUS
  0
LAYER
  2
71
 70
64
 62
7
  6
CONTINUOUS
  0
LAYER
  2
72
 70
64
 62
7
  6
CONTINUOUS
  0
LAYER
  2
73
 70
64
 62
7
  6
CONTINUOUS
  0
LAYER
  2
74
 70
64
 62
7
  6
CONTINUOUS
  0
LAYER
  2
75
 70
64
 62
7
  6
CONTINUOUS
  0
LAYER
  2
76
 70
64
 62
7
  6
CONTINUOUS
  0
LAYER
  2
77
 70
64
 62
7
  6
CONTINUOUS
  0
LAYER
  2
78
 70
64
 62
7
  6
CONTINUOUS
  0
LAYER
  2
79
 70
64
 62
7
  6
CONTINUOUS
  0
LAYER
  2
80
 70
64
 62
7
  6
CONTINUOUS
  0
LAYER
  2
81
 70
64
 62
7
  6
CONTINUOUS
  0
LAYER
  2
82
 70
64
 62
7
  6
CONTINUOUS
  0
LAYER
  2
83
 70
64
 62
7
  6
CONTINUOUS
  0
LAYER
  2
84
 70
64
 62
7
  6
CONTINUOUS
  0
LAYER
  2
85
 70
64
 62
7
  6
CONTINUOUS
  0
LAYER
  2
86
 70
64
 62
7
  6
CONTINUOUS
  0
LAYER
  2
87
 70
64
 62
7
  6
CONTINUOUS
  0
LAYER
  2
88
 70
64
 62
7
  6
CONTINUOUS
  0
LAYER
  2
89
 70
64
 62
7
  6
CONTINUOUS
  0
LAYER
  2
90
 70
64
 62
7
  6
CONTINUOUS
  0
LAYER
  2
91
 70
64
 62
7
  6
CONTINUOUS
  0
LAYER
  2
92
 70
64
 62
7
  6
CONTINUOUS
  0
LAYER
  2
93
 70
64
 62
7
  6
CONTINUOUS
  0
LAYER
  2
94
 70
64
 62
7
  6
CONTINUOUS
  0
LAYER
  2
95
 70
64
 62
7
  6
CONTINUOUS
  0
LAYER
  2
96
 70
64
 62
7
  6
CONTINUOUS
  0
LAYER
  2
97
 70
64
 62
7
  6
CONTINUOUS
  0
LAYER
  2
98
 70
64
 62
7
  6
CONTINUOUS
  0
LAYER
  2
99
 70
64
 62
7
  6
CONTINUOUS
  0
LAYER
  2
100
 70
64
 62
7
  6
CONTINUOUS
  0
LAYER
  2
101
 70
64
 62
7
  6
CONTINUOUS
  0
LAYER
  2
102
 70
64
 62
7
  6
CONTINUOUS
  0
LAYER
  2
103
 70
64
 62
7
  6
CONTINUOUS
  0
LAYER
  2
104
 70
64
 62
7
  6
CONTINUOUS
  0
LAYER
  2
105
 70
64
 62
7
  6
CONTINUOUS
  0
LAYER
  2
106
 70
64
 62
7
  6
CONTINUOUS
  0
LAYER
  2
107
 70
64
 62
7
  6
CONTINUOUS
  0
LAYER
  2
108
 70
64
 62
7
  6
CONTINUOUS
  0
LAYER
  2
109
 70
64
 62
7
  6
CONTINUOUS
  0
LAYER
  2
110
 70
64
 62
7
  6
CONTINUOUS
  0
LAYER
  2
111
 70
64
 62
7
  6
CONTINUOUS
  0
LAYER
  2
112
 70
64
 62
7
  6
CONTINUOUS
  0
LAYER
  2
113
 70
64
 62
7
  6
CONTINUOUS
  0
LAYER
  2
114
 70
64
 62
7
  6
CONTINUOUS
  0
LAYER
  2
115
 70
64
 62
7
  6
CONTINUOUS
  0
LAYER
  2
116
 70
64
 62
7
  6
CONTINUOUS
  0
LAYER
  2
117
 70
64
 62
7
  6
CONTINUOUS
  0
LAYER
  2
118
 70
64
 62
7
  6
CONTINUOUS
  0
LAYER
  2
119
 70
64
 62
7
  6
CONTINUOUS
  0
LAYER
  2
120
 70
64
 62
7
  6
CONTINUOUS
  0
LAYER
  2
121
 70
64
 62
7
  6
CONTINUOUS
  0
LAYER
  2
122
 70
64
 62
7
  6
CONTINUOUS
  0
LAYER
  2
123
 70
64
 62
7
  6
CONTINUOUS
  0
LAYER
  2
124
 70
64
 62
7
  6
CONTINUOUS
  0
LAYER
  2
125
 70
64
 62
7
  6
CONTINUOUS
  0
LAYER
  2
126
 70
64
 62
7
  6
CONTINUOUS
  0
LAYER
  2
127
 70
64
 62
7
  6
CONTINUOUS
  0
LAYER
  2
128
 70
64
 62
7
  6
CONTINUOUS
  0
LAYER
  2
129
 70
64
 62
7
  6
CONTINUOUS
  0
LAYER
  2
130
 70
64
 62
7
  6
CONTINUOUS
  0
LAYER
  2
131
 70
64
 62
7
  6
CONTINUOUS
  0
LAYER
  2
132
 70
64
 62
7
  6
CONTINUOUS
  0
LAYER
  2
133
 70
64
 62
7
  6
CONTINUOUS
  0
LAYER
  2
134
 70
64
 62
7
  6
CONTINUOUS
  0
LAYER
  2
135
 70
64
 62
7
  6
CONTINUOUS
  0
LAYER
  2
136
 70
64
 62
7
  6
CONTINUOUS
  0
LAYER
  2
137
 70
64
 62
7
  6
CONTINUOUS
  0
LAYER
  2
138
 70
64
 62
7
  6
CONTINUOUS
  0
LAYER
  2
139
 70
64
 62
7
  6
CONTINUOUS
  0
LAYER
  2
140
 70
64
 62
7
  6
CONTINUOUS
  0
LAYER
  2
141
 70
64
 62
7
  6
CONTINUOUS
  0
LAYER
  2
142
 70
64
 62
7
  6
CONTINUOUS
  0
LAYER
  2
143
 70
64
 62
7
  6
CONTINUOUS
  0
LAYER
  2
144
 70
64
 62
7
  6
CONTINUOUS
  0
LAYER
  2
145
 70
64
 62
7
  6
CONTINUOUS
  0
LAYER
  2
146
 70
64
 62
7
  6
CONTINUOUS
  0
LAYER
  2
147
 70
64
 62
7
  6
CONTINUOUS
  0
LAYER
  2
148
 70
64
 62
7
  6
CONTINUOUS
  0
LAYER
  2
149
 70
64
 62
7
  6
CONTINUOUS
  0
LAYER
  2
150
 70
64
 62
7
  6
CONTINUOUS
  0
LAYER
  2
151
 70
64
 62
7
  6
CONTINUOUS
  0
LAYER
  2
152
 70
64
 62
7
  6
CONTINUOUS
  0
LAYER
  2
153
 70
64
 62
7
  6
CONTINUOUS
  0
LAYER
  2
154
 70
64
 62
7
  6
CONTINUOUS
  0
LAYER
  2
155
 70
64
 62
7
  6
CONTINUOUS
  0
LAYER
  2
156
 70
64
 62
7
  6
CONTINUOUS
  0
LAYER
  2
157
 70
64
 62
7
  6
CONTINUOUS
  0
LAYER
  2
158
 70
64
 62
7
  6
CONTINUOUS
  0
LAYER
  2
159
 70
64
 62
7
  6
CONTINUOUS
  0
LAYER
  2
160
 70
64
 62
7
  6
CONTINUOUS
  0
LAYER
  2
161
 70
64
 62
7
  6
CONTINUOUS
  0
LAYER
  2
162
 70
64
 62
7
  6
CONTINUOUS
  0
LAYER
  2
163
 70
64
 62
7
  6
CONTINUOUS
  0
LAYER
  2
164
 70
64
 62
7
  6
CONTINUOUS
  0
LAYER
  2
165
 70
64
 62
7
  6
CONTINUOUS
  0
LAYER
  2
166
 70
64
 62
7
  6
CONTINUOUS
  0
LAYER
  2
167
 70
64
 62
7
  6
CONTINUOUS
  0
LAYER
  2
168
 70
64
 62
7
  6
CONTINUOUS
  0
LAYER
  2
169
 70
64
 62
7
  6
CONTINUOUS
  0
LAYER
  2
170
 70
64
 62
7
  6
CONTINUOUS
  0
LAYER
  2
171
 70
64
 62
7
  6
CONTINUOUS
  0
LAYER
  2
172
 70
64
 62
7
  6
CONTINUOUS
  0
LAYER
  2
173
 70
64
 62
7
  6
CONTINUOUS
  0
LAYER
  2
174
 70
64
 62
7
  6
CONTINUOUS
  0
LAYER
  2
175
 70
64
 62
7
  6
CONTINUOUS
  0
LAYER
  2
176
 70
64
 62
7
  6
CONTINUOUS
  0
LAYER
  2
177
 70
64
 62
7
  6
CONTINUOUS
  0
LAYER
  2
178
 70
64
 62
7
  6
CONTINUOUS
  0
LAYER
  2
179
 70
64
 62
7
  6
CONTINUOUS
  0
LAYER
  2
180
 70
64
 62
7
  6
CONTINUOUS
  0
LAYER
  2
181
 70
64
 62
7
  6
CONTINUOUS
  0
LAYER
  2
182
 70
64
 62
7
  6
CONTINUOUS
  0
LAYER
  2
183
 70
64
 62
7
  6
CONTINUOUS
  0
LAYER
  2
184
 70
64
 62
7
  6
CONTINUOUS
  0
LAYER
  2
185
 70
64
 62
7
  6
CONTINUOUS
  0
LAYER
  2
186
 70
64
 62
7
  6
CONTINUOUS
  0
LAYER
  2
187
 70
64
 62
7
  6
CONTINUOUS
  0
LAYER
  2
188
 70
64
 62
7
  6
CONTINUOUS
  0
LAYER
  2
189
 70
64
 62
7
  6
CONTINUOUS
  0
LAYER
  2
190
 70
64
 62
7
  6
CONTINUOUS
  0
LAYER
  2
191
 70
64
 62
7
  6
CONTINUOUS
  0
LAYER
  2
192
 70
64
 62
7
  6
CONTINUOUS
  0
LAYER
  2
193
 70
64
 62
7
  6
CONTINUOUS
  0
LAYER
  2
194
 70
64
 62
7
  6
CONTINUOUS
  0
LAYER
  2
195
 70
64
 62
7
  6
CONTINUOUS
  0
LAYER
  2
196
 70
64
 62
7
  6
CONTINUOUS
  0
LAYER
  2
197
 70
64
 62
7
  6
CONTINUOUS
  0
LAYER
  2
198
 70
64
 62
7
  6
CONTINUOUS
  0
LAYER
  2
199
 70
64
 62
7
  6
CONTINUOUS
  0
ENDTAB
  0
ENDSEC
  0
SECTION
  2
BLOCKS
  0
BLOCK
  8
0
  2
md300b
 70
 0
 10
0.0
 20
0.0
 30
0.0
  0
SOLID
  8
1
 62
255
  6
CONTINUOUS
 10
74.800000
 20
74.800000
 11
74.800000
 21
0.200000
 12
0.200000
 22
74.800000
 13
0.200000
 23
0.200000
  0
POLYLINE
  8
1
 62
7
  6
CONTINUOUS
 70
1
 66
1
  0
VERTEX
 10
74.800000
 20
74.800000
 30
0.000000
  8
1
 62
7
  6
CONTINUOUS
  0
VERTEX
 10
74.800000
 20
0.200000
 30
0.000000
  8
1
 62
7
  6
CONTINUOUS
  0
VERTEX
 10
0.200000
 20
0.200000
 30
0.000000
  8
1
 62
7
  6
CONTINUOUS
  0
VERTEX
 10
0.200000
 20
74.800000
 30
0.000000
  8
1
 62
7
  6
CONTINUOUS
  0
SEQEND
  0
LINE
  8
1
 62
7
  6
CONTINUOUS
 10
1.000000
 20
72.900000
 11
1.000000
 21
72.400000
  0
LINE
  8
1
 62
7
  6
CONTINUOUS
 10
1.000000
 20
69.500000
 11
1.000000
 21
70.000000
  0
LINE
  8
1
 62
7
  6
CONTINUOUS
 10
1.400000
 20
71.200000
 11
0.500000
 21
71.200000
  0
CIRCLE
  8
1
 62
7
  6
CONTINUOUS
 10
1.000000
 20
71.200000
 30
0.0
 40
0.700000
  0
LINE
  8
1
 62
7
  6
CONTINUOUS
 10
74.000000
 20
72.900000
 11
74.000000
 21
72.400000
  0
LINE
  8
1
 62
7
  6
CONTINUOUS
 10
74.000000
 20
69.500000
 11
74.000000
 21
70.000000
  0
LINE
  8
1
 62
7
  6
CONTINUOUS
 10
73.600000
 20
71.200000
 11
74.500000
 21
71.200000
  0
CIRCLE
  8
1
 62
7
  6
CONTINUOUS
 10
74.000000
 20
71.200000
 30
0.0
 40
0.700000
  0
LINE
  8
1
 62
7
  6
CONTINUOUS
 10
74.000000
 20
2.100000
 11
74.000000
 21
2.600000
  0
LINE
  8
1
 62
7
  6
CONTINUOUS
 10
74.000000
 20
5.500000
 11
74.000000
 21
5.000000
  0
LINE
  8
1
 62
7
  6
CONTINUOUS
 10
73.600000
 20
3.800000
 11
74.500000
 21
3.800000
  0
CIRCLE
  8
1
 62
7
  6
CONTINUOUS
 10
74.000000
 20
3.800000
 30
0.0
 40
0.700000
  0
LINE
  8
1
 62
7
  6
CONTINUOUS
 10
1.000000
 20
2.100000
 11
1.000000
 21
2.600000
  0
LINE
  8
1
 62
7
  6
CONTINUOUS
 10
1.000000
 20
5.500000
 11
1.000000
 21
5.000000
  0
LINE
  8
1
 62
7
  6
CONTINUOUS
 10
1.400000
 20
3.800000
 11
0.500000
 21
3.800000
  0
CIRCLE
  8
1
 62
7
  6
CONTINUOUS
 10
1.000000
 20
3.800000
 30
0.0
 40
0.700000
  0
POLYLINE
  8
1
 62
7
  6
CONTINUOUS
 70
1
 66
1
  0
VERTEX
 10
35.000000
 20
6.600000
 30
0.000000
  8
1
 62
7
  6
CONTINUOUS
  0
VERTEX
 10
35.000000
 20
71.600000
 30
0.000000
  8
1
 62
7
  6
CONTINUOUS
  0
VERTEX
 10
5.000000
 20
71.600000
 30
0.000000
  8
1
 62
7
  6
CONTINUOUS
  0
VERTEX
 10
5.000000
 20
6.600000
 30
0.000000
  8
1
 62
7
  6
CONTINUOUS
  0
SEQEND
  0
POLYLINE
  8
1
 62
7
  6
CONTINUOUS
 70
1
 66
1
  0
VERTEX
 10
70.000000
 20
6.600000
 30
0.000000
  8
1
 62
7
  6
CONTINUOUS
  0
VERTEX
 10
70.000000
 20
71.600000
 30
0.000000
  8
1
 62
7
  6
CONTINUOUS
  0
VERTEX
 10
40.000000
 20
71.600000
 30
0.000000
  8
1
 62
7
  6
CONTINUOUS
  0
VERTEX
 10
40.000000
 20
6.600000
 30
0.000000
  8
1
 62
7
  6
CONTINUOUS
  0
SEQEND
  0
SOLID
  8
29
 62
255
  6
CONTINUOUS
 10
74.800000
 20
74.800000
 11
74.800000
 21
0.200000
 12
0.200000
 22
74.800000
 13
0.200000
 23
0.200000
  0
POLYLINE
  8
29
 62
7
  6
CONTINUOUS
 70
1
 66
1
  0
VERTEX
 10
74.800000
 20
74.800000
 30
0.000000
  8
29
 62
7
  6
CONTINUOUS
  0
VERTEX
 10
74.800000
 20
0.200000
 30
0.000000
  8
29
 62
7
  6
CONTINUOUS
  0
VERTEX
 10
0.200000
 20
0.200000
 30
0.000000
  8
29
 62
7
  6
CONTINUOUS
  0
VERTEX
 10
0.200000
 20
74.800000
 30
0.000000
  8
29
 62
7
  6
CONTINUOUS
  0
SEQEND
  0
POLYLINE
  8
29
 62
7
  6
L014100000032000000
 70
1
 66
1
  0
VERTEX
 10
35.000000
 20
6.600000
 30
0.000000
  8
29
 62
7
  6
L014100000032000000
  0
VERTEX
 10
35.000000
 20
71.600000
 30
0.000000
  8
29
 62
7
  6
L014100000032000000
  0
VERTEX
 10
5.000000
 20
71.600000
 30
0.000000
  8
29
 62
7
  6
L014100000032000000
  0
VERTEX
 10
5.000000
 20
6.600000
 30
0.000000
  8
29
 62
7
  6
L014100000032000000
  0
SEQEND
  0
POLYLINE
  8
29
 62
7
  6
L014100000032000000
 70
1
 66
1
  0
VERTEX
 10
70.000000
 20
6.600000
 30
0.000000
  8
29
 62
7
  6
L014100000032000000
  0
VERTEX
 10
70.000000
 20
71.600000
 30
0.000000
  8
29
 62
7
  6
L014100000032000000
  0
VERTEX
 10
40.000000
 20
71.600000
 30
0.000000
  8
29
 62
7
  6
L014100000032000000
  0
VERTEX
 10
40.000000
 20
6.600000
 30
0.000000
  8
29
 62
7
  6
L014100000032000000
  0
SEQEND
  0
SOLID
  8
30
 62
255
  6
CONTINUOUS
 10
73.000000
 20
21.600000
 11
73.000000
 21
64.600000
 12
71.000000
 22
21.600000
 13
71.000000
 23
64.600000
  0
POLYLINE
  8
30
 62
7
  6
CONTINUOUS
 70
1
 66
1
  0
VERTEX
 10
73.000000
 20
21.600000
 30
0.000000
  8
30
 62
7
  6
CONTINUOUS
  0
VERTEX
 10
73.000000
 20
64.600000
 30
0.000000
  8
30
 62
7
  6
CONTINUOUS
  0
VERTEX
 10
71.000000
 20
64.600000
 30
0.000000
  8
30
 62
7
  6
CONTINUOUS
  0
VERTEX
 10
71.000000
 20
21.600000
 30
0.000000
  8
30
 62
7
  6
CONTINUOUS
  0
SEQEND
  0
SOLID
  8
30
 62
255
  6
CONTINUOUS
 10
4.000000
 20
21.600000
 11
4.000000
 21
64.600000
 12
2.000000
 22
21.600000
 13
2.000000
 23
64.600000
  0
POLYLINE
  8
30
 62
7
  6
CONTINUOUS
 70
1
 66
1
  0
VERTEX
 10
4.000000
 20
21.600000
 30
0.000000
  8
30
 62
7
  6
CONTINUOUS
  0
VERTEX
 10
4.000000
 20
64.600000
 30
0.000000
  8
30
 62
7
  6
CONTINUOUS
  0
VERTEX
 10
2.000000
 20
64.600000
 30
0.000000
  8
30
 62
7
  6
CONTINUOUS
  0
VERTEX
 10
2.000000
 20
21.600000
 30
0.000000
  8
30
 62
7
  6
CONTINUOUS
  0
SEQEND
  0
SOLID
  8
31
 62
255
  6
L000000020000FFFFFF
 10
4.000000
 20
21.600000
 11
4.000000
 21
64.600000
 12
2.000000
 22
21.600000
 13
2.000000
 23
64.600000
  0
POLYLINE
  8
31
 62
255
  6
L000000020000FFFFFF
 70
1
 66
1
  0
VERTEX
 10
4.000000
 20
21.600000
 30
0.000000
  8
31
 62
255
  6
L000000020000FFFFFF
  0
VERTEX
 10
4.000000
 20
64.600000
 30
0.000000
  8
31
 62
255
  6
L000000020000FFFFFF
  0
VERTEX
 10
2.000000
 20
64.600000
 30
0.000000
  8
31
 62
255
  6
L000000020000FFFFFF
  0
VERTEX
 10
2.000000
 20
21.600000
 30
0.000000
  8
31
 62
255
  6
L000000020000FFFFFF
  0
SEQEND
  0
SOLID
  8
31
 62
255
  6
L000000020000FFFFFF
 10
73.000000
 20
21.600000
 11
73.000000
 21
64.600000
 12
71.000000
 22
21.600000
 13
71.000000
 23
64.600000
  0
POLYLINE
  8
31
 62
255
  6
L000000020000FFFFFF
 70
1
 66
1
  0
VERTEX
 10
73.000000
 20
21.600000
 30
0.000000
  8
31
 62
255
  6
L000000020000FFFFFF
  0
VERTEX
 10
73.000000
 20
64.600000
 30
0.000000
  8
31
 62
255
  6
L000000020000FFFFFF
  0
VERTEX
 10
71.000000
 20
64.600000
 30
0.000000
  8
31
 62
255
  6
L000000020000FFFFFF
  0
VERTEX
 10
71.000000
 20
21.600000
 30
0.000000
  8
31
 62
255
  6
L000000020000FFFFFF
  0
SEQEND
  0
LINE
  8
31
 62
7
  6
CONTINUOUS
 10
4.000000
 20
64.600000
 11
2.000000
 21
64.600000
  0
LINE
  8
31
 62
7
  6
CONTINUOUS
 10
2.000000
 20
21.600000
 11
4.000000
 21
21.600000
  0
LINE
  8
31
 62
7
  6
L014100020032000000
 10
2.000000
 20
64.600000
 11
2.000000
 21
21.600000
  0
LINE
  8
31
 62
7
  6
CONTINUOUS
 10
73.000000
 20
21.600000
 11
71.000000
 21
21.600000
  0
LINE
  8
31
 62
7
  6
L014100020032000000
 10
4.000000
 20
21.600000
 11
4.000000
 21
64.600000
  0
LINE
  8
31
 62
7
  6
L014100020032000000
 10
73.000000
 20
64.600000
 11
73.000000
 21
21.600000
  0
LINE
  8
31
 62
7
  6
L014100020032000000
 10
71.000000
 20
64.600000
 11
71.000000
 21
21.600000
  0
LINE
  8
31
 62
7
  6
CONTINUOUS
 10
73.000000
 20
64.600000
 11
71.000000
 21
64.600000
  0
SOLID
  8
2
 62
255
  6
CONTINUOUS
 10
9.900000
 20
6.600000
 11
9.900000
 21
71.600000
 12
5.100000
 22
6.600000
 13
5.100000
 23
71.600000
  0
POLYLINE
  8
2
 62
7
  6
CONTINUOUS
 70
1
 66
1
  0
VERTEX
 10
9.900000
 20
6.600000
 30
0.000000
  8
2
 62
7
  6
CONTINUOUS
  0
VERTEX
 10
9.900000
 20
71.600000
 30
0.000000
  8
2
 62
7
  6
CONTINUOUS
  0
VERTEX
 10
5.100000
 20
71.600000
 30
0.000000
  8
2
 62
7
  6
CONTINUOUS
  0
VERTEX
 10
5.100000
 20
6.600000
 30
0.000000
  8
2
 62
7
  6
CONTINUOUS
  0
SEQEND
  0
POLYLINE
  8
2
 62
7
  6
L000000000000000000
 70
0
 66
1
  0
VERTEX
 10
7.500000
 20
71.600000
  8
2
 62
7
  6
L000000000000000000
  0
VERTEX
 10
7.500000
 20
67.200000
  8
2
 62
7
  6
L000000000000000000
  0
SEQEND
  0
POLYLINE
  8
2
 62
7
  6
L000000000000000000
 70
0
 66
1
  0
VERTEX
 10
7.500000
 20
57.500000
  8
2
 62
7
  6
L000000000000000000
  0
VERTEX
 10
7.500000
 20
50.200000
  8
2
 62
7
  6
L000000000000000000
  0
SEQEND
  0
POLYLINE
  8
2
 62
7
  6
L000000000000000000
 70
0
 66
1
  0
VERTEX
 10
7.500000
 20
39.000000
  8
2
 62
7
  6
L000000000000000000
  0
VERTEX
 10
7.500000
 20
30.200000
  8
2
 62
7
  6
L000000000000000000
  0
SEQEND
  0
POLYLINE
  8
2
 62
7
  6
L000000000000000000
 70
0
 66
1
  0
VERTEX
 10
7.500000
 20
20.500000
  8
2
 62
7
  6
L000000000000000000
  0
VERTEX
 10
7.500000
 20
15.000000
  8
2
 62
7
  6
L000000000000000000
  0
SEQEND
  0
POLYLINE
  8
2
 62
7
  6
CONTINUOUS
 70
0
 66
1
  0
VERTEX
 10
5.100000
 20
14.300000
  8
2
 62
7
  6
CONTINUOUS
  0
VERTEX
 10
5.900000
 20
14.300000
  8
2
 62
7
  6
CONTINUOUS
  0
VERTEX
 10
5.900000
 20
15.000000
  8
2
 62
7
  6
CONTINUOUS
  0
VERTEX
 10
9.100000
 20
15.000000
  8
2
 62
7
  6
CONTINUOUS
  0
VERTEX
 10
9.100000
 20
14.300000
  8
2
 62
7
  6
CONTINUOUS
  0
VERTEX
 10
9.900000
 20
14.300000
  8
2
 62
7
  6
CONTINUOUS
  0
SEQEND
  0
POLYLINE
  8
2
 62
7
  6
CONTINUOUS
 70
1
 66
1
  0
VERTEX
 10
9.300000
 20
7.100000
 30
0.000000
  8
2
 62
7
  6
CONTINUOUS
  0
VERTEX
 10
9.300000
 20
11.400000
 30
0.000000
  8
2
 62
7
  6
CONTINUOUS
  0
VERTEX
 10
5.800000
 20
11.400000
 30
0.000000
  8
2
 62
7
  6
CONTINUOUS
  0
VERTEX
 10
5.800000
 20
7.100000
 30
0.000000
  8
2
 62
7
  6
CONTINUOUS
  0
SEQEND
  0
POLYLINE
  8
2
 62
7
  6
CONTINUOUS
 70
1
 66
1
  0
VERTEX
 10
8.900000
 20
7.500000
 30
0.000000
  8
2
 62
7
  6
CONTINUOUS
  0
VERTEX
 10
8.900000
 20
10.800000
 30
0.000000
  8
2
 62
7
  6
CONTINUOUS
  0
VERTEX
 10
6.200000
 20
10.800000
 30
0.000000
  8
2
 62
7
  6
CONTINUOUS
  0
VERTEX
 10
6.200000
 20
7.500000
 30
0.000000
  8
2
 62
7
  6
CONTINUOUS
  0
SEQEND
  0
POLYLINE
  8
2
 62
7
  6
CONTINUOUS
 70
0
 66
1
  0
VERTEX
 10
5.800000
 20
11.400000
  8
2
 62
7
  6
CONTINUOUS
  0
VERTEX
 10
6.200000
 20
10.800000
  8
2
 62
7
  6
CONTINUOUS
  0
SEQEND
  0
POLYLINE
  8
2
 62
7
  6
CONTINUOUS
 70
0
 66
1
  0
VERTEX
 10
9.300000
 20
11.400000
  8
2
 62
7
  6
CONTINUOUS
  0
VERTEX
 10
8.900000
 20
10.800000
  8
2
 62
7
  6
CONTINUOUS
  0
SEQEND
  0
POLYLINE
  8
2
 62
7
  6
CONTINUOUS
 70
1
 66
1
  0
VERTEX
 10
8.800000
 20
9.600000
 30
0.000000
  8
2
 62
7
  6
CONTINUOUS
  0
VERTEX
 10
8.800000
 20
10.100000
 30
0.000000
  8
2
 62
7
  6
CONTINUOUS
  0
VERTEX
 10
6.300000
 20
10.100000
 30
0.000000
  8
2
 62
7
  6
CONTINUOUS
  0
VERTEX
 10
6.300000
 20
9.600000
 30
0.000000
  8
2
 62
7
  6
CONTINUOUS
  0
SEQEND
  0
POLYLINE
  8
2
 62
7
  6
CONTINUOUS
 70
1
 66
1
  0
VERTEX
 10
8.800000
 20
8.800000
 30
0.000000
  8
2
 62
7
  6
CONTINUOUS
  0
VERTEX
 10
8.800000
 20
9.300000
 30
0.000000
  8
2
 62
7
  6
CONTINUOUS
  0
VERTEX
 10
6.300000
 20
9.300000
 30
0.000000
  8
2
 62
7
  6
CONTINUOUS
  0
VERTEX
 10
6.300000
 20
8.800000
 30
0.000000
  8
2
 62
7
  6
CONTINUOUS
  0
SEQEND
  0
POLYLINE
  8
2
 62
7
  6
CONTINUOUS
 70
1
 66
1
  0
VERTEX
 10
8.800000
 20
8.000000
 30
0.000000
  8
2
 62
7
  6
CONTINUOUS
  0
VERTEX
 10
8.800000
 20
8.500000
 30
0.000000
  8
2
 62
7
  6
CONTINUOUS
  0
VERTEX
 10
6.300000
 20
8.500000
 30
0.000000
  8
2
 62
7
  6
CONTINUOUS
  0
VERTEX
 10
6.300000
 20
8.000000
 30
0.000000
  8
2
 62
7
  6
CONTINUOUS
  0
SEQEND
  0
SOLID
  8
2
 62
1
  6
CONTINUOUS
 10
9.300000
 20
13.400000
 11
9.300000
 21
13.900000
 12
5.700000
 22
13.400000
 13
5.700000
 23
13.900000
  0
POLYLINE
  8
2
 62
7
  6
CONTINUOUS
 70
1
 66
1
  0
VERTEX
 10
9.300000
 20
13.400000
 30
0.000000
  8
2
 62
7
  6
CONTINUOUS
  0
VERTEX
 10
9.300000
 20
13.900000
 30
0.000000
  8
2
 62
7
  6
CONTINUOUS
  0
VERTEX
 10
5.700000
 20
13.900000
 30
0.000000
  8
2
 62
7
  6
CONTINUOUS
  0
VERTEX
 10
5.700000
 20
13.400000
 30
0.000000
  8
2
 62
7
  6
CONTINUOUS
  0
SEQEND
  0
POLYLINE
  8
2
 62
7
  6
CONTINUOUS
 70
1
 66
1
  0
VERTEX
 10
5.600000
 20
66.400000
  8
2
 62
7
  6
CONTINUOUS
  0
VERTEX
 10
6.300000
 20
67.200000
  8
2
 62
7
  6
CONTINUOUS
  0
VERTEX
 10
8.700000
 20
67.200000
  8
2
 62
7
  6
CONTINUOUS
  0
VERTEX
 10
9.400000
 20
66.400000
  8
2
 62
7
  6
CONTINUOUS
  0
VERTEX
 10
9.400000
 20
58.300000
  8
2
 62
7
  6
CONTINUOUS
  0
VERTEX
 10
9.200000
 20
57.800000
  8
2
 62
7
  6
CONTINUOUS
  0
VERTEX
 10
9.000000
 20
57.500000
  8
2
 62
7
  6
CONTINUOUS
  0
VERTEX
 10
6.000000
 20
57.500000
  8
2
 62
7
  6
CONTINUOUS
  0
VERTEX
 10
5.800000
 20
57.800000
  8
2
 62
7
  6
CONTINUOUS
  0
VERTEX
 10
5.600000
 20
58.300000
  8
2
 62
7
  6
CONTINUOUS
  0
SEQEND
  0
POLYLINE
  8
2
 62
7
  6
CONTINUOUS
 70
0
 66
1
  0
VERTEX
 10
5.600000
 20
58.300000
  8
2
 62
7
  6
CONTINUOUS
  0
VERTEX
 10
5.200000
 20
58.300000
  8
2
 62
7
  6
CONTINUOUS
  0
SEQEND
  0
POLYLINE
  8
2
 62
7
  6
CONTINUOUS
 70
0
 66
1
  0
VERTEX
 10
9.400000
 20
58.300000
  8
2
 62
7
  6
CONTINUOUS
  0
VERTEX
 10
9.800000
 20
58.300000
  8
2
 62
7
  6
CONTINUOUS
  0
SEQEND
  0
POLYLINE
  8
2
 62
7
  6
CONTINUOUS
 70
1
 66
1
  0
VERTEX
 10
6.300000
 20
66.900000
  8
2
 62
7
  6
CONTINUOUS
  0
VERTEX
 10
8.600000
 20
66.900000
  8
2
 62
7
  6
CONTINUOUS
  0
VERTEX
 10
9.300000
 20
65.000000
  8
2
 62
7
  6
CONTINUOUS
  0
VERTEX
 10
9.300000
 20
58.300000
  8
2
 62
7
  6
CONTINUOUS
  0
VERTEX
 10
5.700000
 20
58.300000
  8
2
 62
7
  6
CONTINUOUS
  0
VERTEX
 10
5.700000
 20
65.000000
  8
2
 62
7
  6
CONTINUOUS
  0
SEQEND
  0
POLYLINE
  8
2
 62
7
  6
CONTINUOUS
 70
1
 66
1
  0
VERTEX
 10
6.500000
 20
65.900000
  8
2
 62
7
  6
CONTINUOUS
  0
VERTEX
 10
8.400000
 20
65.900000
  8
2
 62
7
  6
CONTINUOUS
  0
VERTEX
 10
9.100000
 20
64.100000
  8
2
 62
7
  6
CONTINUOUS
  0
VERTEX
 10
9.100000
 20
57.900000
  8
2
 62
7
  6
CONTINUOUS
  0
VERTEX
 10
5.900000
 20
57.900000
  8
2
 62
7
  6
CONTINUOUS
  0
VERTEX
 10
5.900000
 20
64.100000
  8
2
 62
7
  6
CONTINUOUS
  0
SEQEND
  0
CIRCLE
  8
2
 62
7
  6
CONTINUOUS
 10
7.500000
 20
64.900000
 30
0.0
 40
0.400000
  0
POLYLINE
  8
2
 62
7
  6
CONTINUOUS
 70
1
 66
1
  0
VERTEX
 10
8.700000
 20
59.200000
 30
0.000000
  8
2
 62
7
  6
CONTINUOUS
  0
VERTEX
 10
8.700000
 20
63.800000
 30
0.000000
  8
2
 62
7
  6
CONTINUOUS
  0
VERTEX
 10
6.300000
 20
63.800000
 30
0.000000
  8
2
 62
7
  6
CONTINUOUS
  0
VERTEX
 10
6.300000
 20
59.200000
 30
0.000000
  8
2
 62
7
  6
CONTINUOUS
  0
SEQEND
  0
CIRCLE
  8
2
 62
7
  6
CONTINUOUS
 10
7.500000
 20
58.300000
 30
0.0
 40
0.400000
  0
POLYLINE
  8
2
 62
7
  6
CONTINUOUS
 70
1
 66
1
  0
VERTEX
 10
5.200000
 20
49.400000
  8
2
 62
7
  6
CONTINUOUS
  0
VERTEX
 10
6.300000
 20
50.200000
  8
2
 62
7
  6
CONTINUOUS
  0
VERTEX
 10
8.700000
 20
50.200000
  8
2
 62
7
  6
CONTINUOUS
  0
VERTEX
 10
9.800000
 20
49.500000
  8
2
 62
7
  6
CONTINUOUS
  0
VERTEX
 10
9.800000
 20
36.700000
  8
2
 62
7
  6
CONTINUOUS
  0
VERTEX
 10
9.400000
 20
36.700000
  8
2
 62
7
  6
CONTINUOUS
  0
VERTEX
 10
9.400000
 20
39.800000
  8
2
 62
7
  6
CONTINUOUS
  0
VERTEX
 10
5.600000
 20
39.800000
  8
2
 62
7
  6
CONTINUOUS
  0
VERTEX
 10
5.600000
 20
36.700000
  8
2
 62
7
  6
CONTINUOUS
  0
VERTEX
 10
5.200000
 20
36.700000
  8
2
 62
7
  6
CONTINUOUS
  0
SEQEND
  0
POLYLINE
  8
2
 62
7
  6
CONTINUOUS
 70
1
 66
1
  0
VERTEX
 10
5.600000
 20
47.900000
  8
2
 62
7
  6
CONTINUOUS
  0
VERTEX
 10
6.300000
 20
48.700000
  8
2
 62
7
  6
CONTINUOUS
  0
VERTEX
 10
8.700000
 20
48.700000
  8
2
 62
7
  6
CONTINUOUS
  0
VERTEX
 10
9.400000
 20
47.900000
  8
2
 62
7
  6
CONTINUOUS
  0
VERTEX
 10
9.400000
 20
39.800000
  8
2
 62
7
  6
CONTINUOUS
  0
VERTEX
 10
9.200000
 20
39.300000
  8
2
 62
7
  6
CONTINUOUS
  0
VERTEX
 10
9.000000
 20
39.000000
  8
2
 62
7
  6
CONTINUOUS
  0
VERTEX
 10
6.000000
 20
39.000000
  8
2
 62
7
  6
CONTINUOUS
  0
VERTEX
 10
5.800000
 20
39.300000
  8
2
 62
7
  6
CONTINUOUS
  0
VERTEX
 10
5.600000
 20
39.800000
  8
2
 62
7
  6
CONTINUOUS
  0
SEQEND
  0
POLYLINE
  8
2
 62
7
  6
CONTINUOUS
 70
0
 66
1
  0
VERTEX
 10
5.600000
 20
39.800000
  8
2
 62
7
  6
CONTINUOUS
  0
VERTEX
 10
5.200000
 20
39.800000
  8
2
 62
7
  6
CONTINUOUS
  0
SEQEND
  0
POLYLINE
  8
2
 62
7
  6
CONTINUOUS
 70
0
 66
1
  0
VERTEX
 10
9.400000
 20
39.800000
  8
2
 62
7
  6
CONTINUOUS
  0
VERTEX
 10
9.800000
 20
39.800000
  8
2
 62
7
  6
CONTINUOUS
  0
SEQEND
  0
POLYLINE
  8
2
 62
7
  6
CONTINUOUS
 70
1
 66
1
  0
VERTEX
 10
6.300000
 20
48.400000
  8
2
 62
7
  6
CONTINUOUS
  0
VERTEX
 10
8.600000
 20
48.400000
  8
2
 62
7
  6
CONTINUOUS
  0
VERTEX
 10
9.300000
 20
46.500000
  8
2
 62
7
  6
CONTINUOUS
  0
VERTEX
 10
9.300000
 20
39.800000
  8
2
 62
7
  6
CONTINUOUS
  0
VERTEX
 10
5.700000
 20
39.800000
  8
2
 62
7
  6
CONTINUOUS
  0
VERTEX
 10
5.700000
 20
46.500000
  8
2
 62
7
  6
CONTINUOUS
  0
SEQEND
  0
POLYLINE
  8
2
 62
7
  6
CONTINUOUS
 70
1
 66
1
  0
VERTEX
 10
6.500000
 20
47.400000
  8
2
 62
7
  6
CONTINUOUS
  0
VERTEX
 10
8.400000
 20
47.400000
  8
2
 62
7
  6
CONTINUOUS
  0
VERTEX
 10
9.100000
 20
45.600000
  8
2
 62
7
  6
CONTINUOUS
  0
VERTEX
 10
9.100000
 20
39.400000
  8
2
 62
7
  6
CONTINUOUS
  0
VERTEX
 10
5.900000
 20
39.400000
  8
2
 62
7
  6
CONTINUOUS
  0
VERTEX
 10
5.900000
 20
45.600000
  8
2
 62
7
  6
CONTINUOUS
  0
SEQEND
  0
CIRCLE
  8
2
 62
7
  6
CONTINUOUS
 10
7.500000
 20
46.400000
 30
0.0
 40
0.400000
  0
POLYLINE
  8
2
 62
7
  6
CONTINUOUS
 70
1
 66
1
  0
VERTEX
 10
8.700000
 20
40.700000
 30
0.000000
  8
2
 62
7
  6
CONTINUOUS
  0
VERTEX
 10
8.700000
 20
45.300000
 30
0.000000
  8
2
 62
7
  6
CONTINUOUS
  0
VERTEX
 10
6.300000
 20
45.300000
 30
0.000000
  8
2
 62
7
  6
CONTINUOUS
  0
VERTEX
 10
6.300000
 20
40.700000
 30
0.000000
  8
2
 62
7
  6
CONTINUOUS
  0
SEQEND
  0
CIRCLE
  8
2
 62
7
  6
CONTINUOUS
 10
7.500000
 20
39.800000
 30
0.0
 40
0.400000
  0
POLYLINE
  8
2
 62
7
  6
CONTINUOUS
 70
1
 66
1
  0
VERTEX
 10
5.600000
 20
29.400000
  8
2
 62
7
  6
CONTINUOUS
  0
VERTEX
 10
6.300000
 20
30.200000
  8
2
 62
7
  6
CONTINUOUS
  0
VERTEX
 10
8.700000
 20
30.200000
  8
2
 62
7
  6
CONTINUOUS
  0
VERTEX
 10
9.400000
 20
29.400000
  8
2
 62
7
  6
CONTINUOUS
  0
VERTEX
 10
9.400000
 20
21.300000
  8
2
 62
7
  6
CONTINUOUS
  0
VERTEX
 10
9.200000
 20
20.800000
  8
2
 62
7
  6
CONTINUOUS
  0
VERTEX
 10
9.000000
 20
20.500000
  8
2
 62
7
  6
CONTINUOUS
  0
VERTEX
 10
6.000000
 20
20.500000
  8
2
 62
7
  6
CONTINUOUS
  0
VERTEX
 10
5.800000
 20
20.800000
  8
2
 62
7
  6
CONTINUOUS
  0
VERTEX
 10
5.600000
 20
21.300000
  8
2
 62
7
  6
CONTINUOUS
  0
SEQEND
  0
POLYLINE
  8
2
 62
7
  6
CONTINUOUS
 70
0
 66
1
  0
VERTEX
 10
5.600000
 20
21.300000
  8
2
 62
7
  6
CONTINUOUS
  0
VERTEX
 10
5.200000
 20
21.300000
  8
2
 62
7
  6
CONTINUOUS
  0
SEQEND
  0
POLYLINE
  8
2
 62
7
  6
CONTINUOUS
 70
0
 66
1
  0
VERTEX
 10
9.400000
 20
21.300000
  8
2
 62
7
  6
CONTINUOUS
  0
VERTEX
 10
9.800000
 20
21.300000
  8
2
 62
7
  6
CONTINUOUS
  0
SEQEND
  0
POLYLINE
  8
2
 62
7
  6
CONTINUOUS
 70
1
 66
1
  0
VERTEX
 10
6.300000
 20
29.900000
  8
2
 62
7
  6
CONTINUOUS
  0
VERTEX
 10
8.600000
 20
29.900000
  8
2
 62
7
  6
CONTINUOUS
  0
VERTEX
 10
9.300000
 20
28.000000
  8
2
 62
7
  6
CONTINUOUS
  0
VERTEX
 10
9.300000
 20
21.300000
  8
2
 62
7
  6
CONTINUOUS
  0
VERTEX
 10
5.700000
 20
21.300000
  8
2
 62
7
  6
CONTINUOUS
  0
VERTEX
 10
5.700000
 20
28.000000
  8
2
 62
7
  6
CONTINUOUS
  0
SEQEND
  0
POLYLINE
  8
2
 62
7
  6
CONTINUOUS
 70
1
 66
1
  0
VERTEX
 10
6.500000
 20
28.900000
  8
2
 62
7
  6
CONTINUOUS
  0
VERTEX
 10
8.400000
 20
28.900000
  8
2
 62
7
  6
CONTINUOUS
  0
VERTEX
 10
9.100000
 20
27.100000
  8
2
 62
7
  6
CONTINUOUS
  0
VERTEX
 10
9.100000
 20
20.900000
  8
2
 62
7
  6
CONTINUOUS
  0
VERTEX
 10
5.900000
 20
20.900000
  8
2
 62
7
  6
CONTINUOUS
  0
VERTEX
 10
5.900000
 20
27.100000
  8
2
 62
7
  6
CONTINUOUS
  0
SEQEND
  0
CIRCLE
  8
2
 62
7
  6
CONTINUOUS
 10
7.500000
 20
27.900000
 30
0.0
 40
0.400000
  0
POLYLINE
  8
2
 62
7
  6
CONTINUOUS
 70
1
 66
1
  0
VERTEX
 10
8.700000
 20
22.200000
 30
0.000000
  8
2
 62
7
  6
CONTINUOUS
  0
VERTEX
 10
8.700000
 20
26.800000
 30
0.000000
  8
2
 62
7
  6
CONTINUOUS
  0
VERTEX
 10
6.300000
 20
26.800000
 30
0.000000
  8
2
 62
7
  6
CONTINUOUS
  0
VERTEX
 10
6.300000
 20
22.200000
 30
0.000000
  8
2
 62
7
  6
CONTINUOUS
  0
SEQEND
  0
CIRCLE
  8
2
 62
7
  6
CONTINUOUS
 10
7.500000
 20
21.300000
 30
0.0
 40
0.400000
  0
SOLID
  8
2
 62
1
  6
CONTINUOUS
 10
9.900000
 20
69.600000
 11
9.900000
 21
70.500000
 12
5.100000
 22
69.600000
 13
5.100000
 23
70.500000
  0
POLYLINE
  8
2
 62
7
  6
CONTINUOUS
 70
1
 66
1
  0
VERTEX
 10
9.900000
 20
69.600000
 30
0.000000
  8
2
 62
7
  6
CONTINUOUS
  0
VERTEX
 10
9.900000
 20
70.500000
 30
0.000000
  8
2
 62
7
  6
CONTINUOUS
  0
VERTEX
 10
5.100000
 20
70.500000
 30
0.000000
  8
2
 62
7
  6
CONTINUOUS
  0
VERTEX
 10
5.100000
 20
69.600000
 30
0.000000
  8
2
 62
7
  6
CONTINUOUS
  0
SEQEND
  0
SOLID
  8
2
 62
254
  6
CONTINUOUS
 10
5.600000
 20
26.200000
 11
5.600000
 21
64.900000
 12
5.200000
 22
26.200000
 13
5.200000
 23
64.900000
  0
POLYLINE
  8
2
 62
7
  6
CONTINUOUS
 70
1
 66
1
  0
VERTEX
 10
5.600000
 20
26.200000
 30
0.000000
  8
2
 62
7
  6
CONTINUOUS
  0
VERTEX
 10
5.600000
 20
64.900000
 30
0.000000
  8
2
 62
7
  6
CONTINUOUS
  0
VERTEX
 10
5.200000
 20
64.900000
 30
0.000000
  8
2
 62
7
  6
CONTINUOUS
  0
VERTEX
 10
5.200000
 20
26.200000
 30
0.000000
  8
2
 62
7
  6
CONTINUOUS
  0
SEQEND
  0
POLYLINE
  8
2
 62
7
  6
CONTINUOUS
 70
1
 66
1
  0
VERTEX
 10
5.600000
 20
18.200000
 30
0.000000
  8
2
 62
7
  6
CONTINUOUS
  0
VERTEX
 10
5.600000
 20
21.300000
 30
0.000000
  8
2
 62
7
  6
CONTINUOUS
  0
VERTEX
 10
5.200000
 20
21.300000
 30
0.000000
  8
2
 62
7
  6
CONTINUOUS
  0
VERTEX
 10
5.200000
 20
18.200000
 30
0.000000
  8
2
 62
7
  6
CONTINUOUS
  0
SEQEND
  0
POLYLINE
  8
2
 62
7
  6
CONTINUOUS
 70
1
 66
1
  0
VERTEX
 10
5.600000
 20
55.200000
 30
0.000000
  8
2
 62
7
  6
CONTINUOUS
  0
VERTEX
 10
5.600000
 20
58.300000
 30
0.000000
  8
2
 62
7
  6
CONTINUOUS
  0
VERTEX
 10
5.200000
 20
58.300000
 30
0.000000
  8
2
 62
7
  6
CONTINUOUS
  0
VERTEX
 10
5.200000
 20
55.200000
 30
0.000000
  8
2
 62
7
  6
CONTINUOUS
  0
SEQEND
  0
POLYLINE
  8
2
 62
7
  6
CONTINUOUS
 70
1
 66
1
  0
VERTEX
 10
9.800000
 20
55.200000
 30
0.000000
  8
2
 62
7
  6
CONTINUOUS
  0
VERTEX
 10
9.800000
 20
58.300000
 30
0.000000
  8
2
 62
7
  6
CONTINUOUS
  0
VERTEX
 10
9.400000
 20
58.300000
 30
0.000000
  8
2
 62
7
  6
CONTINUOUS
  0
VERTEX
 10
9.400000
 20
55.200000
 30
0.000000
  8
2
 62
7
  6
CONTINUOUS
  0
SEQEND
  0
POLYLINE
  8
2
 62
7
  6
CONTINUOUS
 70
1
 66
1
  0
VERTEX
 10
9.800000
 20
18.200000
 30
0.000000
  8
2
 62
7
  6
CONTINUOUS
  0
VERTEX
 10
9.800000
 20
21.300000
 30
0.000000
  8
2
 62
7
  6
CONTINUOUS
  0
VERTEX
 10
9.400000
 20
21.300000
 30
0.000000
  8
2
 62
7
  6
CONTINUOUS
  0
VERTEX
 10
9.400000
 20
18.200000
 30
0.000000
  8
2
 62
7
  6
CONTINUOUS
  0
SEQEND
  0
SOLID
  8
2
 62
254
  6
CONTINUOUS
 10
9.800000
 20
26.200000
 11
9.800000
 21
64.900000
 12
9.400000
 22
26.200000
 13
9.400000
 23
64.900000
  0
POLYLINE
  8
2
 62
7
  6
CONTINUOUS
 70
1
 66
1
  0
VERTEX
 10
9.800000
 20
26.200000
 30
0.000000
  8
2
 62
7
  6
CONTINUOUS
  0
VERTEX
 10
9.800000
 20
64.900000
 30
0.000000
  8
2
 62
7
  6
CONTINUOUS
  0
VERTEX
 10
9.400000
 20
64.900000
 30
0.000000
  8
2
 62
7
  6
CONTINUOUS
  0
VERTEX
 10
9.400000
 20
26.200000
 30
0.000000
  8
2
 62
7
  6
CONTINUOUS
  0
SEQEND
  0
POLYLINE
  8
2
 62
7
  6
CONTINUOUS
 70
1
 66
1
  0
VERTEX
 10
6.300000
 20
50.200000
  8
2
 62
7
  6
CONTINUOUS
  0
VERTEX
 10
8.700000
 20
50.200000
  8
2
 62
7
  6
CONTINUOUS
  0
VERTEX
 10
9.800000
 20
49.500000
  8
2
 62
7
  6
CONTINUOUS
  0
VERTEX
 10
9.800000
 20
39.800000
  8
2
 62
7
  6
CONTINUOUS
  0
VERTEX
 10
9.400000
 20
39.800000
  8
2
 62
7
  6
CONTINUOUS
  0
VERTEX
 10
9.400000
 20
47.900000
  8
2
 62
7
  6
CONTINUOUS
  0
VERTEX
 10
8.700000
 20
48.700000
  8
2
 62
7
  6
CONTINUOUS
  0
VERTEX
 10
6.300000
 20
48.700000
  8
2
 62
7
  6
CONTINUOUS
  0
VERTEX
 10
5.600000
 20
47.900000
  8
2
 62
7
  6
CONTINUOUS
  0
VERTEX
 10
5.600000
 20
39.800000
  8
2
 62
7
  6
CONTINUOUS
  0
VERTEX
 10
5.200000
 20
39.800000
  8
2
 62
7
  6
CONTINUOUS
  0
VERTEX
 10
5.200000
 20
49.400000
  8
2
 62
7
  6
CONTINUOUS
  0
SEQEND
  0
SOLID
  8
2
 62
255
  6
CONTINUOUS
 10
14.900000
 20
6.600000
 11
14.900000
 21
71.600000
 12
10.100000
 22
6.600000
 13
10.100000
 23
71.600000
  0
POLYLINE
  8
2
 62
7
  6
CONTINUOUS
 70
1
 66
1
  0
VERTEX
 10
14.900000
 20
6.600000
 30
0.000000
  8
2
 62
7
  6
CONTINUOUS
  0
VERTEX
 10
14.900000
 20
71.600000
 30
0.000000
  8
2
 62
7
  6
CONTINUOUS
  0
VERTEX
 10
10.100000
 20
71.600000
 30
0.000000
  8
2
 62
7
  6
CONTINUOUS
  0
VERTEX
 10
10.100000
 20
6.600000
 30
0.000000
  8
2
 62
7
  6
CONTINUOUS
  0
SEQEND
  0
POLYLINE
  8
2
 62
7
  6
L000000000000000000
 70
0
 66
1
  0
VERTEX
 10
12.500000
 20
71.600000
  8
2
 62
7
  6
L000000000000000000
  0
VERTEX
 10
12.500000
 20
67.200000
  8
2
 62
7
  6
L000000000000000000
  0
SEQEND
  0
POLYLINE
  8
2
 62
7
  6
L000000000000000000
 70
0
 66
1
  0
VERTEX
 10
12.500000
 20
57.500000
  8
2
 62
7
  6
L000000000000000000
  0
VERTEX
 10
12.500000
 20
50.200000
  8
2
 62
7
  6
L000000000000000000
  0
SEQEND
  0
POLYLINE
  8
2
 62
7
  6
L000000000000000000
 70
0
 66
1
  0
VERTEX
 10
12.500000
 20
39.000000
  8
2
 62
7
  6
L000000000000000000
  0
VERTEX
 10
12.500000
 20
30.200000
  8
2
 62
7
  6
L000000000000000000
  0
SEQEND
  0
POLYLINE
  8
2
 62
7
  6
L000000000000000000
 70
0
 66
1
  0
VERTEX
 10
12.500000
 20
20.500000
  8
2
 62
7
  6
L000000000000000000
  0
VERTEX
 10
12.500000
 20
15.000000
  8
2
 62
7
  6
L000000000000000000
  0
SEQEND
  0
POLYLINE
  8
2
 62
7
  6
CONTINUOUS
 70
0
 66
1
  0
VERTEX
 10
10.100000
 20
14.300000
  8
2
 62
7
  6
CONTINUOUS
  0
VERTEX
 10
10.900000
 20
14.300000
  8
2
 62
7
  6
CONTINUOUS
  0
VERTEX
 10
10.900000
 20
15.000000
  8
2
 62
7
  6
CONTINUOUS
  0
VERTEX
 10
14.100000
 20
15.000000
  8
2
 62
7
  6
CONTINUOUS
  0
VERTEX
 10
14.100000
 20
14.300000
  8
2
 62
7
  6
CONTINUOUS
  0
VERTEX
 10
14.900000
 20
14.300000
  8
2
 62
7
  6
CONTINUOUS
  0
SEQEND
  0
POLYLINE
  8
2
 62
7
  6
CONTINUOUS
 70
1
 66
1
  0
VERTEX
 10
14.300000
 20
7.100000
 30
0.000000
  8
2
 62
7
  6
CONTINUOUS
  0
VERTEX
 10
14.300000
 20
11.400000
 30
0.000000
  8
2
 62
7
  6
CONTINUOUS
  0
VERTEX
 10
10.800000
 20
11.400000
 30
0.000000
  8
2
 62
7
  6
CONTINUOUS
  0
VERTEX
 10
10.800000
 20
7.100000
 30
0.000000
  8
2
 62
7
  6
CONTINUOUS
  0
SEQEND
  0
POLYLINE
  8
2
 62
7
  6
CONTINUOUS
 70
1
 66
1
  0
VERTEX
 10
13.900000
 20
7.500000
 30
0.000000
  8
2
 62
7
  6
CONTINUOUS
  0
VERTEX
 10
13.900000
 20
10.800000
 30
0.000000
  8
2
 62
7
  6
CONTINUOUS
  0
VERTEX
 10
11.200000
 20
10.800000
 30
0.000000
  8
2
 62
7
  6
CONTINUOUS
  0
VERTEX
 10
11.200000
 20
7.500000
 30
0.000000
  8
2
 62
7
  6
CONTINUOUS
  0
SEQEND
  0
POLYLINE
  8
2
 62
7
  6
CONTINUOUS
 70
0
 66
1
  0
VERTEX
 10
10.800000
 20
11.400000
  8
2
 62
7
  6
CONTINUOUS
  0
VERTEX
 10
11.200000
 20
10.800000
  8
2
 62
7
  6
CONTINUOUS
  0
SEQEND
  0
POLYLINE
  8
2
 62
7
  6
CONTINUOUS
 70
0
 66
1
  0
VERTEX
 10
14.300000
 20
11.400000
  8
2
 62
7
  6
CONTINUOUS
  0
VERTEX
 10
13.900000
 20
10.800000
  8
2
 62
7
  6
CONTINUOUS
  0
SEQEND
  0
POLYLINE
  8
2
 62
7
  6
CONTINUOUS
 70
1
 66
1
  0
VERTEX
 10
13.800000
 20
9.600000
 30
0.000000
  8
2
 62
7
  6
CONTINUOUS
  0
VERTEX
 10
13.800000
 20
10.100000
 30
0.000000
  8
2
 62
7
  6
CONTINUOUS
  0
VERTEX
 10
11.300000
 20
10.100000
 30
0.000000
  8
2
 62
7
  6
CONTINUOUS
  0
VERTEX
 10
11.300000
 20
9.600000
 30
0.000000
  8
2
 62
7
  6
CONTINUOUS
  0
SEQEND
  0
POLYLINE
  8
2
 62
7
  6
CONTINUOUS
 70
1
 66
1
  0
VERTEX
 10
13.800000
 20
8.800000
 30
0.000000
  8
2
 62
7
  6
CONTINUOUS
  0
VERTEX
 10
13.800000
 20
9.300000
 30
0.000000
  8
2
 62
7
  6
CONTINUOUS
  0
VERTEX
 10
11.300000
 20
9.300000
 30
0.000000
  8
2
 62
7
  6
CONTINUOUS
  0
VERTEX
 10
11.300000
 20
8.800000
 30
0.000000
  8
2
 62
7
  6
CONTINUOUS
  0
SEQEND
  0
POLYLINE
  8
2
 62
7
  6
CONTINUOUS
 70
1
 66
1
  0
VERTEX
 10
13.800000
 20
8.000000
 30
0.000000
  8
2
 62
7
  6
CONTINUOUS
  0
VERTEX
 10
13.800000
 20
8.500000
 30
0.000000
  8
2
 62
7
  6
CONTINUOUS
  0
VERTEX
 10
11.300000
 20
8.500000
 30
0.000000
  8
2
 62
7
  6
CONTINUOUS
  0
VERTEX
 10
11.300000
 20
8.000000
 30
0.000000
  8
2
 62
7
  6
CONTINUOUS
  0
SEQEND
  0
SOLID
  8
2
 62
1
  6
CONTINUOUS
 10
14.300000
 20
13.400000
 11
14.300000
 21
13.900000
 12
10.700000
 22
13.400000
 13
10.700000
 23
13.900000
  0
POLYLINE
  8
2
 62
7
  6
CONTINUOUS
 70
1
 66
1
  0
VERTEX
 10
14.300000
 20
13.400000
 30
0.000000
  8
2
 62
7
  6
CONTINUOUS
  0
VERTEX
 10
14.300000
 20
13.900000
 30
0.000000
  8
2
 62
7
  6
CONTINUOUS
  0
VERTEX
 10
10.700000
 20
13.900000
 30
0.000000
  8
2
 62
7
  6
CONTINUOUS
  0
VERTEX
 10
10.700000
 20
13.400000
 30
0.000000
  8
2
 62
7
  6
CONTINUOUS
  0
SEQEND
  0
POLYLINE
  8
2
 62
7
  6
CONTINUOUS
 70
1
 66
1
  0
VERTEX
 10
10.600000
 20
66.400000
  8
2
 62
7
  6
CONTINUOUS
  0
VERTEX
 10
11.300000
 20
67.200000
  8
2
 62
7
  6
CONTINUOUS
  0
VERTEX
 10
13.700000
 20
67.200000
  8
2
 62
7
  6
CONTINUOUS
  0
VERTEX
 10
14.400000
 20
66.400000
  8
2
 62
7
  6
CONTINUOUS
  0
VERTEX
 10
14.400000
 20
58.300000
  8
2
 62
7
  6
CONTINUOUS
  0
VERTEX
 10
14.200000
 20
57.800000
  8
2
 62
7
  6
CONTINUOUS
  0
VERTEX
 10
14.000000
 20
57.500000
  8
2
 62
7
  6
CONTINUOUS
  0
VERTEX
 10
11.000000
 20
57.500000
  8
2
 62
7
  6
CONTINUOUS
  0
VERTEX
 10
10.800000
 20
57.800000
  8
2
 62
7
  6
CONTINUOUS
  0
VERTEX
 10
10.600000
 20
58.300000
  8
2
 62
7
  6
CONTINUOUS
  0
SEQEND
  0
POLYLINE
  8
2
 62
7
  6
CONTINUOUS
 70
0
 66
1
  0
VERTEX
 10
10.600000
 20
58.300000
  8
2
 62
7
  6
CONTINUOUS
  0
VERTEX
 10
10.200000
 20
58.300000
  8
2
 62
7
  6
CONTINUOUS
  0
SEQEND
  0
POLYLINE
  8
2
 62
7
  6
CONTINUOUS
 70
0
 66
1
  0
VERTEX
 10
14.400000
 20
58.300000
  8
2
 62
7
  6
CONTINUOUS
  0
VERTEX
 10
14.800000
 20
58.300000
  8
2
 62
7
  6
CONTINUOUS
  0
SEQEND
  0
POLYLINE
  8
2
 62
7
  6
CONTINUOUS
 70
1
 66
1
  0
VERTEX
 10
11.300000
 20
66.900000
  8
2
 62
7
  6
CONTINUOUS
  0
VERTEX
 10
13.600000
 20
66.900000
  8
2
 62
7
  6
CONTINUOUS
  0
VERTEX
 10
14.300000
 20
65.000000
  8
2
 62
7
  6
CONTINUOUS
  0
VERTEX
 10
14.300000
 20
58.300000
  8
2
 62
7
  6
CONTINUOUS
  0
VERTEX
 10
10.700000
 20
58.300000
  8
2
 62
7
  6
CONTINUOUS
  0
VERTEX
 10
10.700000
 20
65.000000
  8
2
 62
7
  6
CONTINUOUS
  0
SEQEND
  0
POLYLINE
  8
2
 62
7
  6
CONTINUOUS
 70
1
 66
1
  0
VERTEX
 10
11.500000
 20
65.900000
  8
2
 62
7
  6
CONTINUOUS
  0
VERTEX
 10
13.400000
 20
65.900000
  8
2
 62
7
  6
CONTINUOUS
  0
VERTEX
 10
14.100000
 20
64.100000
  8
2
 62
7
  6
CONTINUOUS
  0
VERTEX
 10
14.100000
 20
57.900000
  8
2
 62
7
  6
CONTINUOUS
  0
VERTEX
 10
10.900000
 20
57.900000
  8
2
 62
7
  6
CONTINUOUS
  0
VERTEX
 10
10.900000
 20
64.100000
  8
2
 62
7
  6
CONTINUOUS
  0
SEQEND
  0
CIRCLE
  8
2
 62
7
  6
CONTINUOUS
 10
12.500000
 20
64.900000
 30
0.0
 40
0.400000
  0
POLYLINE
  8
2
 62
7
  6
CONTINUOUS
 70
1
 66
1
  0
VERTEX
 10
13.700000
 20
59.200000
 30
0.000000
  8
2
 62
7
  6
CONTINUOUS
  0
VERTEX
 10
13.700000
 20
63.800000
 30
0.000000
  8
2
 62
7
  6
CONTINUOUS
  0
VERTEX
 10
11.300000
 20
63.800000
 30
0.000000
  8
2
 62
7
  6
CONTINUOUS
  0
VERTEX
 10
11.300000
 20
59.200000
 30
0.000000
  8
2
 62
7
  6
CONTINUOUS
  0
SEQEND
  0
CIRCLE
  8
2
 62
7
  6
CONTINUOUS
 10
12.500000
 20
58.300000
 30
0.0
 40
0.400000
  0
POLYLINE
  8
2
 62
7
  6
CONTINUOUS
 70
1
 66
1
  0
VERTEX
 10
10.200000
 20
49.400000
  8
2
 62
7
  6
CONTINUOUS
  0
VERTEX
 10
11.300000
 20
50.200000
  8
2
 62
7
  6
CONTINUOUS
  0
VERTEX
 10
13.700000
 20
50.200000
  8
2
 62
7
  6
CONTINUOUS
  0
VERTEX
 10
14.800000
 20
49.500000
  8
2
 62
7
  6
CONTINUOUS
  0
VERTEX
 10
14.800000
 20
36.700000
  8
2
 62
7
  6
CONTINUOUS
  0
VERTEX
 10
14.400000
 20
36.700000
  8
2
 62
7
  6
CONTINUOUS
  0
VERTEX
 10
14.400000
 20
39.800000
  8
2
 62
7
  6
CONTINUOUS
  0
VERTEX
 10
10.600000
 20
39.800000
  8
2
 62
7
  6
CONTINUOUS
  0
VERTEX
 10
10.600000
 20
36.700000
  8
2
 62
7
  6
CONTINUOUS
  0
VERTEX
 10
10.200000
 20
36.700000
  8
2
 62
7
  6
CONTINUOUS
  0
SEQEND
  0
POLYLINE
  8
2
 62
7
  6
CONTINUOUS
 70
1
 66
1
  0
VERTEX
 10
10.600000
 20
47.900000
  8
2
 62
7
  6
CONTINUOUS
  0
VERTEX
 10
11.300000
 20
48.700000
  8
2
 62
7
  6
CONTINUOUS
  0
VERTEX
 10
13.700000
 20
48.700000
  8
2
 62
7
  6
CONTINUOUS
  0
VERTEX
 10
14.400000
 20
47.900000
  8
2
 62
7
  6
CONTINUOUS
  0
VERTEX
 10
14.400000
 20
39.800000
  8
2
 62
7
  6
CONTINUOUS
  0
VERTEX
 10
14.200000
 20
39.300000
  8
2
 62
7
  6
CONTINUOUS
  0
VERTEX
 10
14.000000
 20
39.000000
  8
2
 62
7
  6
CONTINUOUS
  0
VERTEX
 10
11.000000
 20
39.000000
  8
2
 62
7
  6
CONTINUOUS
  0
VERTEX
 10
10.800000
 20
39.300000
  8
2
 62
7
  6
CONTINUOUS
  0
VERTEX
 10
10.600000
 20
39.800000
  8
2
 62
7
  6
CONTINUOUS
  0
SEQEND
  0
POLYLINE
  8
2
 62
7
  6
CONTINUOUS
 70
0
 66
1
  0
VERTEX
 10
10.600000
 20
39.800000
  8
2
 62
7
  6
CONTINUOUS
  0
VERTEX
 10
10.200000
 20
39.800000
  8
2
 62
7
  6
CONTINUOUS
  0
SEQEND
  0
POLYLINE
  8
2
 62
7
  6
CONTINUOUS
 70
0
 66
1
  0
VERTEX
 10
14.400000
 20
39.800000
  8
2
 62
7
  6
CONTINUOUS
  0
VERTEX
 10
14.800000
 20
39.800000
  8
2
 62
7
  6
CONTINUOUS
  0
SEQEND
  0
POLYLINE
  8
2
 62
7
  6
CONTINUOUS
 70
1
 66
1
  0
VERTEX
 10
11.300000
 20
48.400000
  8
2
 62
7
  6
CONTINUOUS
  0
VERTEX
 10
13.600000
 20
48.400000
  8
2
 62
7
  6
CONTINUOUS
  0
VERTEX
 10
14.300000
 20
46.500000
  8
2
 62
7
  6
CONTINUOUS
  0
VERTEX
 10
14.300000
 20
39.800000
  8
2
 62
7
  6
CONTINUOUS
  0
VERTEX
 10
10.700000
 20
39.800000
  8
2
 62
7
  6
CONTINUOUS
  0
VERTEX
 10
10.700000
 20
46.500000
  8
2
 62
7
  6
CONTINUOUS
  0
SEQEND
  0
POLYLINE
  8
2
 62
7
  6
CONTINUOUS
 70
1
 66
1
  0
VERTEX
 10
11.500000
 20
47.400000
  8
2
 62
7
  6
CONTINUOUS
  0
VERTEX
 10
13.400000
 20
47.400000
  8
2
 62
7
  6
CONTINUOUS
  0
VERTEX
 10
14.100000
 20
45.600000
  8
2
 62
7
  6
CONTINUOUS
  0
VERTEX
 10
14.100000
 20
39.400000
  8
2
 62
7
  6
CONTINUOUS
  0
VERTEX
 10
10.900000
 20
39.400000
  8
2
 62
7
  6
CONTINUOUS
  0
VERTEX
 10
10.900000
 20
45.600000
  8
2
 62
7
  6
CONTINUOUS
  0
SEQEND
  0
CIRCLE
  8
2
 62
7
  6
CONTINUOUS
 10
12.500000
 20
46.400000
 30
0.0
 40
0.400000
  0
POLYLINE
  8
2
 62
7
  6
CONTINUOUS
 70
1
 66
1
  0
VERTEX
 10
13.700000
 20
40.700000
 30
0.000000
  8
2
 62
7
  6
CONTINUOUS
  0
VERTEX
 10
13.700000
 20
45.300000
 30
0.000000
  8
2
 62
7
  6
CONTINUOUS
  0
VERTEX
 10
11.300000
 20
45.300000
 30
0.000000
  8
2
 62
7
  6
CONTINUOUS
  0
VERTEX
 10
11.300000
 20
40.700000
 30
0.000000
  8
2
 62
7
  6
CONTINUOUS
  0
SEQEND
  0
CIRCLE
  8
2
 62
7
  6
CONTINUOUS
 10
12.500000
 20
39.800000
 30
0.0
 40
0.400000
  0
POLYLINE
  8
2
 62
7
  6
CONTINUOUS
 70
1
 66
1
  0
VERTEX
 10
10.600000
 20
29.400000
  8
2
 62
7
  6
CONTINUOUS
  0
VERTEX
 10
11.300000
 20
30.200000
  8
2
 62
7
  6
CONTINUOUS
  0
VERTEX
 10
13.700000
 20
30.200000
  8
2
 62
7
  6
CONTINUOUS
  0
VERTEX
 10
14.400000
 20
29.400000
  8
2
 62
7
  6
CONTINUOUS
  0
VERTEX
 10
14.400000
 20
21.300000
  8
2
 62
7
  6
CONTINUOUS
  0
VERTEX
 10
14.200000
 20
20.800000
  8
2
 62
7
  6
CONTINUOUS
  0
VERTEX
 10
14.000000
 20
20.500000
  8
2
 62
7
  6
CONTINUOUS
  0
VERTEX
 10
11.000000
 20
20.500000
  8
2
 62
7
  6
CONTINUOUS
  0
VERTEX
 10
10.800000
 20
20.800000
  8
2
 62
7
  6
CONTINUOUS
  0
VERTEX
 10
10.600000
 20
21.300000
  8
2
 62
7
  6
CONTINUOUS
  0
SEQEND
  0
POLYLINE
  8
2
 62
7
  6
CONTINUOUS
 70
0
 66
1
  0
VERTEX
 10
10.600000
 20
21.300000
  8
2
 62
7
  6
CONTINUOUS
  0
VERTEX
 10
10.200000
 20
21.300000
  8
2
 62
7
  6
CONTINUOUS
  0
SEQEND
  0
POLYLINE
  8
2
 62
7
  6
CONTINUOUS
 70
0
 66
1
  0
VERTEX
 10
14.400000
 20
21.300000
  8
2
 62
7
  6
CONTINUOUS
  0
VERTEX
 10
14.800000
 20
21.300000
  8
2
 62
7
  6
CONTINUOUS
  0
SEQEND
  0
POLYLINE
  8
2
 62
7
  6
CONTINUOUS
 70
1
 66
1
  0
VERTEX
 10
11.300000
 20
29.900000
  8
2
 62
7
  6
CONTINUOUS
  0
VERTEX
 10
13.600000
 20
29.900000
  8
2
 62
7
  6
CONTINUOUS
  0
VERTEX
 10
14.300000
 20
28.000000
  8
2
 62
7
  6
CONTINUOUS
  0
VERTEX
 10
14.300000
 20
21.300000
  8
2
 62
7
  6
CONTINUOUS
  0
VERTEX
 10
10.700000
 20
21.300000
  8
2
 62
7
  6
CONTINUOUS
  0
VERTEX
 10
10.700000
 20
28.000000
  8
2
 62
7
  6
CONTINUOUS
  0
SEQEND
  0
POLYLINE
  8
2
 62
7
  6
CONTINUOUS
 70
1
 66
1
  0
VERTEX
 10
11.500000
 20
28.900000
  8
2
 62
7
  6
CONTINUOUS
  0
VERTEX
 10
13.400000
 20
28.900000
  8
2
 62
7
  6
CONTINUOUS
  0
VERTEX
 10
14.100000
 20
27.100000
  8
2
 62
7
  6
CONTINUOUS
  0
VERTEX
 10
14.100000
 20
20.900000
  8
2
 62
7
  6
CONTINUOUS
  0
VERTEX
 10
10.900000
 20
20.900000
  8
2
 62
7
  6
CONTINUOUS
  0
VERTEX
 10
10.900000
 20
27.100000
  8
2
 62
7
  6
CONTINUOUS
  0
SEQEND
  0
CIRCLE
  8
2
 62
7
  6
CONTINUOUS
 10
12.500000
 20
27.900000
 30
0.0
 40
0.400000
  0
POLYLINE
  8
2
 62
7
  6
CONTINUOUS
 70
1
 66
1
  0
VERTEX
 10
13.700000
 20
22.200000
 30
0.000000
  8
2
 62
7
  6
CONTINUOUS
  0
VERTEX
 10
13.700000
 20
26.800000
 30
0.000000
  8
2
 62
7
  6
CONTINUOUS
  0
VERTEX
 10
11.300000
 20
26.800000
 30
0.000000
  8
2
 62
7
  6
CONTINUOUS
  0
VERTEX
 10
11.300000
 20
22.200000
 30
0.000000
  8
2
 62
7
  6
CONTINUOUS
  0
SEQEND
  0
CIRCLE
  8
2
 62
7
  6
CONTINUOUS
 10
12.500000
 20
21.300000
 30
0.0
 40
0.400000
  0
SOLID
  8
2
 62
1
  6
CONTINUOUS
 10
14.900000
 20
69.600000
 11
14.900000
 21
70.500000
 12
10.100000
 22
69.600000
 13
10.100000
 23
70.500000
  0
POLYLINE
  8
2
 62
7
  6
CONTINUOUS
 70
1
 66
1
  0
VERTEX
 10
14.900000
 20
69.600000
 30
0.000000
  8
2
 62
7
  6
CONTINUOUS
  0
VERTEX
 10
14.900000
 20
70.500000
 30
0.000000
  8
2
 62
7
  6
CONTINUOUS
  0
VERTEX
 10
10.100000
 20
70.500000
 30
0.000000
  8
2
 62
7
  6
CONTINUOUS
  0
VERTEX
 10
10.100000
 20
69.600000
 30
0.000000
  8
2
 62
7
  6
CONTINUOUS
  0
SEQEND
  0
SOLID
  8
2
 62
254
  6
CONTINUOUS
 10
10.600000
 20
26.200000
 11
10.600000
 21
64.900000
 12
10.200000
 22
26.200000
 13
10.200000
 23
64.900000
  0
POLYLINE
  8
2
 62
7
  6
CONTINUOUS
 70
1
 66
1
  0
VERTEX
 10
10.600000
 20
26.200000
 30
0.000000
  8
2
 62
7
  6
CONTINUOUS
  0
VERTEX
 10
10.600000
 20
64.900000
 30
0.000000
  8
2
 62
7
  6
CONTINUOUS
  0
VERTEX
 10
10.200000
 20
64.900000
 30
0.000000
  8
2
 62
7
  6
CONTINUOUS
  0
VERTEX
 10
10.200000
 20
26.200000
 30
0.000000
  8
2
 62
7
  6
CONTINUOUS
  0
SEQEND
  0
POLYLINE
  8
2
 62
7
  6
CONTINUOUS
 70
1
 66
1
  0
VERTEX
 10
10.600000
 20
18.200000
 30
0.000000
  8
2
 62
7
  6
CONTINUOUS
  0
VERTEX
 10
10.600000
 20
21.300000
 30
0.000000
  8
2
 62
7
  6
CONTINUOUS
  0
VERTEX
 10
10.200000
 20
21.300000
 30
0.000000
  8
2
 62
7
  6
CONTINUOUS
  0
VERTEX
 10
10.200000
 20
18.200000
 30
0.000000
  8
2
 62
7
  6
CONTINUOUS
  0
SEQEND
  0
POLYLINE
  8
2
 62
7
  6
CONTINUOUS
 70
1
 66
1
  0
VERTEX
 10
10.600000
 20
55.200000
 30
0.000000
  8
2
 62
7
  6
CONTINUOUS
  0
VERTEX
 10
10.600000
 20
58.300000
 30
0.000000
  8
2
 62
7
  6
CONTINUOUS
  0
VERTEX
 10
10.200000
 20
58.300000
 30
0.000000
  8
2
 62
7
  6
CONTINUOUS
  0
VERTEX
 10
10.200000
 20
55.200000
 30
0.000000
  8
2
 62
7
  6
CONTINUOUS
  0
SEQEND
  0
POLYLINE
  8
2
 62
7
  6
CONTINUOUS
 70
1
 66
1
  0
VERTEX
 10
14.800000
 20
55.200000
 30
0.000000
  8
2
 62
7
  6
CONTINUOUS
  0
VERTEX
 10
14.800000
 20
58.300000
 30
0.000000
  8
2
 62
7
  6
CONTINUOUS
  0
VERTEX
 10
14.400000
 20
58.300000
 30
0.000000
  8
2
 62
7
  6
CONTINUOUS
  0
VERTEX
 10
14.400000
 20
55.200000
 30
0.000000
  8
2
 62
7
  6
CONTINUOUS
  0
SEQEND
  0
POLYLINE
  8
2
 62
7
  6
CONTINUOUS
 70
1
 66
1
  0
VERTEX
 10
14.800000
 20
18.200000
 30
0.000000
  8
2
 62
7
  6
CONTINUOUS
  0
VERTEX
 10
14.800000
 20
21.300000
 30
0.000000
  8
2
 62
7
  6
CONTINUOUS
  0
VERTEX
 10
14.400000
 20
21.300000
 30
0.000000
  8
2
 62
7
  6
CONTINUOUS
  0
VERTEX
 10
14.400000
 20
18.200000
 30
0.000000
  8
2
 62
7
  6
CONTINUOUS
  0
SEQEND
  0
SOLID
  8
2
 62
254
  6
CONTINUOUS
 10
14.800000
 20
26.200000
 11
14.800000
 21
64.900000
 12
14.400000
 22
26.200000
 13
14.400000
 23
64.900000
  0
POLYLINE
  8
2
 62
7
  6
CONTINUOUS
 70
1
 66
1
  0
VERTEX
 10
14.800000
 20
26.200000
 30
0.000000
  8
2
 62
7
  6
CONTINUOUS
  0
VERTEX
 10
14.800000
 20
64.900000
 30
0.000000
  8
2
 62
7
  6
CONTINUOUS
  0
VERTEX
 10
14.400000
 20
64.900000
 30
0.000000
  8
2
 62
7
  6
CONTINUOUS
  0
VERTEX
 10
14.400000
 20
26.200000
 30
0.000000
  8
2
 62
7
  6
CONTINUOUS
  0
SEQEND
  0
POLYLINE
  8
2
 62
7
  6
CONTINUOUS
 70
1
 66
1
  0
VERTEX
 10
11.300000
 20
50.200000
  8
2
 62
7
  6
CONTINUOUS
  0
VERTEX
 10
13.700000
 20
50.200000
  8
2
 62
7
  6
CONTINUOUS
  0
VERTEX
 10
14.800000
 20
49.500000
  8
2
 62
7
  6
CONTINUOUS
  0
VERTEX
 10
14.800000
 20
39.800000
  8
2
 62
7
  6
CONTINUOUS
  0
VERTEX
 10
14.400000
 20
39.800000
  8
2
 62
7
  6
CONTINUOUS
  0
VERTEX
 10
14.400000
 20
47.900000
  8
2
 62
7
  6
CONTINUOUS
  0
VERTEX
 10
13.700000
 20
48.700000
  8
2
 62
7
  6
CONTINUOUS
  0
VERTEX
 10
11.300000
 20
48.700000
  8
2
 62
7
  6
CONTINUOUS
  0
VERTEX
 10
10.600000
 20
47.900000
  8
2
 62
7
  6
CONTINUOUS
  0
VERTEX
 10
10.600000
 20
39.800000
  8
2
 62
7
  6
CONTINUOUS
  0
VERTEX
 10
10.200000
 20
39.800000
  8
2
 62
7
  6
CONTINUOUS
  0
VERTEX
 10
10.200000
 20
49.400000
  8
2
 62
7
  6
CONTINUOUS
  0
SEQEND
  0
SOLID
  8
2
 62
255
  6
CONTINUOUS
 10
19.900000
 20
6.600000
 11
19.900000
 21
71.600000
 12
15.100000
 22
6.600000
 13
15.100000
 23
71.600000
  0
POLYLINE
  8
2
 62
7
  6
CONTINUOUS
 70
1
 66
1
  0
VERTEX
 10
19.900000
 20
6.600000
 30
0.000000
  8
2
 62
7
  6
CONTINUOUS
  0
VERTEX
 10
19.900000
 20
71.600000
 30
0.000000
  8
2
 62
7
  6
CONTINUOUS
  0
VERTEX
 10
15.100000
 20
71.600000
 30
0.000000
  8
2
 62
7
  6
CONTINUOUS
  0
VERTEX
 10
15.100000
 20
6.600000
 30
0.000000
  8
2
 62
7
  6
CONTINUOUS
  0
SEQEND
  0
POLYLINE
  8
2
 62
7
  6
L000000000000000000
 70
0
 66
1
  0
VERTEX
 10
17.500000
 20
71.600000
  8
2
 62
7
  6
L000000000000000000
  0
VERTEX
 10
17.500000
 20
67.200000
  8
2
 62
7
  6
L000000000000000000
  0
SEQEND
  0
POLYLINE
  8
2
 62
7
  6
L000000000000000000
 70
0
 66
1
  0
VERTEX
 10
17.500000
 20
57.500000
  8
2
 62
7
  6
L000000000000000000
  0
VERTEX
 10
17.500000
 20
50.200000
  8
2
 62
7
  6
L000000000000000000
  0
SEQEND
  0
POLYLINE
  8
2
 62
7
  6
L000000000000000000
 70
0
 66
1
  0
VERTEX
 10
17.500000
 20
39.000000
  8
2
 62
7
  6
L000000000000000000
  0
VERTEX
 10
17.500000
 20
30.200000
  8
2
 62
7
  6
L000000000000000000
  0
SEQEND
  0
POLYLINE
  8
2
 62
7
  6
L000000000000000000
 70
0
 66
1
  0
VERTEX
 10
17.500000
 20
20.500000
  8
2
 62
7
  6
L000000000000000000
  0
VERTEX
 10
17.500000
 20
15.000000
  8
2
 62
7
  6
L000000000000000000
  0
SEQEND
  0
POLYLINE
  8
2
 62
7
  6
CONTINUOUS
 70
0
 66
1
  0
VERTEX
 10
15.100000
 20
14.300000
  8
2
 62
7
  6
CONTINUOUS
  0
VERTEX
 10
15.900000
 20
14.300000
  8
2
 62
7
  6
CONTINUOUS
  0
VERTEX
 10
15.900000
 20
15.000000
  8
2
 62
7
  6
CONTINUOUS
  0
VERTEX
 10
19.100000
 20
15.000000
  8
2
 62
7
  6
CONTINUOUS
  0
VERTEX
 10
19.100000
 20
14.300000
  8
2
 62
7
  6
CONTINUOUS
  0
VERTEX
 10
19.900000
 20
14.300000
  8
2
 62
7
  6
CONTINUOUS
  0
SEQEND
  0
POLYLINE
  8
2
 62
7
  6
CONTINUOUS
 70
1
 66
1
  0
VERTEX
 10
19.300000
 20
7.100000
 30
0.000000
  8
2
 62
7
  6
CONTINUOUS
  0
VERTEX
 10
19.300000
 20
11.400000
 30
0.000000
  8
2
 62
7
  6
CONTINUOUS
  0
VERTEX
 10
15.800000
 20
11.400000
 30
0.000000
  8
2
 62
7
  6
CONTINUOUS
  0
VERTEX
 10
15.800000
 20
7.100000
 30
0.000000
  8
2
 62
7
  6
CONTINUOUS
  0
SEQEND
  0
POLYLINE
  8
2
 62
7
  6
CONTINUOUS
 70
1
 66
1
  0
VERTEX
 10
18.900000
 20
7.500000
 30
0.000000
  8
2
 62
7
  6
CONTINUOUS
  0
VERTEX
 10
18.900000
 20
10.800000
 30
0.000000
  8
2
 62
7
  6
CONTINUOUS
  0
VERTEX
 10
16.200000
 20
10.800000
 30
0.000000
  8
2
 62
7
  6
CONTINUOUS
  0
VERTEX
 10
16.200000
 20
7.500000
 30
0.000000
  8
2
 62
7
  6
CONTINUOUS
  0
SEQEND
  0
POLYLINE
  8
2
 62
7
  6
CONTINUOUS
 70
0
 66
1
  0
VERTEX
 10
15.800000
 20
11.400000
  8
2
 62
7
  6
CONTINUOUS
  0
VERTEX
 10
16.200000
 20
10.800000
  8
2
 62
7
  6
CONTINUOUS
  0
SEQEND
  0
POLYLINE
  8
2
 62
7
  6
CONTINUOUS
 70
0
 66
1
  0
VERTEX
 10
19.300000
 20
11.400000
  8
2
 62
7
  6
CONTINUOUS
  0
VERTEX
 10
18.900000
 20
10.800000
  8
2
 62
7
  6
CONTINUOUS
  0
SEQEND
  0
POLYLINE
  8
2
 62
7
  6
CONTINUOUS
 70
1
 66
1
  0
VERTEX
 10
18.800000
 20
9.600000
 30
0.000000
  8
2
 62
7
  6
CONTINUOUS
  0
VERTEX
 10
18.800000
 20
10.100000
 30
0.000000
  8
2
 62
7
  6
CONTINUOUS
  0
VERTEX
 10
16.300000
 20
10.100000
 30
0.000000
  8
2
 62
7
  6
CONTINUOUS
  0
VERTEX
 10
16.300000
 20
9.600000
 30
0.000000
  8
2
 62
7
  6
CONTINUOUS
  0
SEQEND
  0
POLYLINE
  8
2
 62
7
  6
CONTINUOUS
 70
1
 66
1
  0
VERTEX
 10
18.800000
 20
8.800000
 30
0.000000
  8
2
 62
7
  6
CONTINUOUS
  0
VERTEX
 10
18.800000
 20
9.300000
 30
0.000000
  8
2
 62
7
  6
CONTINUOUS
  0
VERTEX
 10
16.300000
 20
9.300000
 30
0.000000
  8
2
 62
7
  6
CONTINUOUS
  0
VERTEX
 10
16.300000
 20
8.800000
 30
0.000000
  8
2
 62
7
  6
CONTINUOUS
  0
SEQEND
  0
POLYLINE
  8
2
 62
7
  6
CONTINUOUS
 70
1
 66
1
  0
VERTEX
 10
18.800000
 20
8.000000
 30
0.000000
  8
2
 62
7
  6
CONTINUOUS
  0
VERTEX
 10
18.800000
 20
8.500000
 30
0.000000
  8
2
 62
7
  6
CONTINUOUS
  0
VERTEX
 10
16.300000
 20
8.500000
 30
0.000000
  8
2
 62
7
  6
CONTINUOUS
  0
VERTEX
 10
16.300000
 20
8.000000
 30
0.000000
  8
2
 62
7
  6
CONTINUOUS
  0
SEQEND
  0
SOLID
  8
2
 62
1
  6
CONTINUOUS
 10
19.300000
 20
13.400000
 11
19.300000
 21
13.900000
 12
15.700000
 22
13.400000
 13
15.700000
 23
13.900000
  0
POLYLINE
  8
2
 62
7
  6
CONTINUOUS
 70
1
 66
1
  0
VERTEX
 10
19.300000
 20
13.400000
 30
0.000000
  8
2
 62
7
  6
CONTINUOUS
  0
VERTEX
 10
19.300000
 20
13.900000
 30
0.000000
  8
2
 62
7
  6
CONTINUOUS
  0
VERTEX
 10
15.700000
 20
13.900000
 30
0.000000
  8
2
 62
7
  6
CONTINUOUS
  0
VERTEX
 10
15.700000
 20
13.400000
 30
0.000000
  8
2
 62
7
  6
CONTINUOUS
  0
SEQEND
  0
POLYLINE
  8
2
 62
7
  6
CONTINUOUS
 70
1
 66
1
  0
VERTEX
 10
15.600000
 20
66.400000
  8
2
 62
7
  6
CONTINUOUS
  0
VERTEX
 10
16.300000
 20
67.200000
  8
2
 62
7
  6
CONTINUOUS
  0
VERTEX
 10
18.700000
 20
67.200000
  8
2
 62
7
  6
CONTINUOUS
  0
VERTEX
 10
19.400000
 20
66.400000
  8
2
 62
7
  6
CONTINUOUS
  0
VERTEX
 10
19.400000
 20
58.300000
  8
2
 62
7
  6
CONTINUOUS
  0
VERTEX
 10
19.200000
 20
57.800000
  8
2
 62
7
  6
CONTINUOUS
  0
VERTEX
 10
19.000000
 20
57.500000
  8
2
 62
7
  6
CONTINUOUS
  0
VERTEX
 10
16.000000
 20
57.500000
  8
2
 62
7
  6
CONTINUOUS
  0
VERTEX
 10
15.800000
 20
57.800000
  8
2
 62
7
  6
CONTINUOUS
  0
VERTEX
 10
15.600000
 20
58.300000
  8
2
 62
7
  6
CONTINUOUS
  0
SEQEND
  0
POLYLINE
  8
2
 62
7
  6
CONTINUOUS
 70
0
 66
1
  0
VERTEX
 10
15.600000
 20
58.300000
  8
2
 62
7
  6
CONTINUOUS
  0
VERTEX
 10
15.200000
 20
58.300000
  8
2
 62
7
  6
CONTINUOUS
  0
SEQEND
  0
POLYLINE
  8
2
 62
7
  6
CONTINUOUS
 70
0
 66
1
  0
VERTEX
 10
19.400000
 20
58.300000
  8
2
 62
7
  6
CONTINUOUS
  0
VERTEX
 10
19.800000
 20
58.300000
  8
2
 62
7
  6
CONTINUOUS
  0
SEQEND
  0
POLYLINE
  8
2
 62
7
  6
CONTINUOUS
 70
1
 66
1
  0
VERTEX
 10
16.300000
 20
66.900000
  8
2
 62
7
  6
CONTINUOUS
  0
VERTEX
 10
18.600000
 20
66.900000
  8
2
 62
7
  6
CONTINUOUS
  0
VERTEX
 10
19.300000
 20
65.000000
  8
2
 62
7
  6
CONTINUOUS
  0
VERTEX
 10
19.300000
 20
58.300000
  8
2
 62
7
  6
CONTINUOUS
  0
VERTEX
 10
15.700000
 20
58.300000
  8
2
 62
7
  6
CONTINUOUS
  0
VERTEX
 10
15.700000
 20
65.000000
  8
2
 62
7
  6
CONTINUOUS
  0
SEQEND
  0
POLYLINE
  8
2
 62
7
  6
CONTINUOUS
 70
1
 66
1
  0
VERTEX
 10
16.500000
 20
65.900000
  8
2
 62
7
  6
CONTINUOUS
  0
VERTEX
 10
18.400000
 20
65.900000
  8
2
 62
7
  6
CONTINUOUS
  0
VERTEX
 10
19.100000
 20
64.100000
  8
2
 62
7
  6
CONTINUOUS
  0
VERTEX
 10
19.100000
 20
57.900000
  8
2
 62
7
  6
CONTINUOUS
  0
VERTEX
 10
15.900000
 20
57.900000
  8
2
 62
7
  6
CONTINUOUS
  0
VERTEX
 10
15.900000
 20
64.100000
  8
2
 62
7
  6
CONTINUOUS
  0
SEQEND
  0
CIRCLE
  8
2
 62
7
  6
CONTINUOUS
 10
17.500000
 20
64.900000
 30
0.0
 40
0.400000
  0
POLYLINE
  8
2
 62
7
  6
CONTINUOUS
 70
1
 66
1
  0
VERTEX
 10
18.700000
 20
59.200000
 30
0.000000
  8
2
 62
7
  6
CONTINUOUS
  0
VERTEX
 10
18.700000
 20
63.800000
 30
0.000000
  8
2
 62
7
  6
CONTINUOUS
  0
VERTEX
 10
16.300000
 20
63.800000
 30
0.000000
  8
2
 62
7
  6
CONTINUOUS
  0
VERTEX
 10
16.300000
 20
59.200000
 30
0.000000
  8
2
 62
7
  6
CONTINUOUS
  0
SEQEND
  0
CIRCLE
  8
2
 62
7
  6
CONTINUOUS
 10
17.500000
 20
58.300000
 30
0.0
 40
0.400000
  0
POLYLINE
  8
2
 62
7
  6
CONTINUOUS
 70
1
 66
1
  0
VERTEX
 10
15.200000
 20
49.400000
  8
2
 62
7
  6
CONTINUOUS
  0
VERTEX
 10
16.300000
 20
50.200000
  8
2
 62
7
  6
CONTINUOUS
  0
VERTEX
 10
18.700000
 20
50.200000
  8
2
 62
7
  6
CONTINUOUS
  0
VERTEX
 10
19.800000
 20
49.500000
  8
2
 62
7
  6
CONTINUOUS
  0
VERTEX
 10
19.800000
 20
36.700000
  8
2
 62
7
  6
CONTINUOUS
  0
VERTEX
 10
19.400000
 20
36.700000
  8
2
 62
7
  6
CONTINUOUS
  0
VERTEX
 10
19.400000
 20
39.800000
  8
2
 62
7
  6
CONTINUOUS
  0
VERTEX
 10
15.600000
 20
39.800000
  8
2
 62
7
  6
CONTINUOUS
  0
VERTEX
 10
15.600000
 20
36.700000
  8
2
 62
7
  6
CONTINUOUS
  0
VERTEX
 10
15.200000
 20
36.700000
  8
2
 62
7
  6
CONTINUOUS
  0
SEQEND
  0
POLYLINE
  8
2
 62
7
  6
CONTINUOUS
 70
1
 66
1
  0
VERTEX
 10
15.600000
 20
47.900000
  8
2
 62
7
  6
CONTINUOUS
  0
VERTEX
 10
16.300000
 20
48.700000
  8
2
 62
7
  6
CONTINUOUS
  0
VERTEX
 10
18.700000
 20
48.700000
  8
2
 62
7
  6
CONTINUOUS
  0
VERTEX
 10
19.400000
 20
47.900000
  8
2
 62
7
  6
CONTINUOUS
  0
VERTEX
 10
19.400000
 20
39.800000
  8
2
 62
7
  6
CONTINUOUS
  0
VERTEX
 10
19.200000
 20
39.300000
  8
2
 62
7
  6
CONTINUOUS
  0
VERTEX
 10
19.000000
 20
39.000000
  8
2
 62
7
  6
CONTINUOUS
  0
VERTEX
 10
16.000000
 20
39.000000
  8
2
 62
7
  6
CONTINUOUS
  0
VERTEX
 10
15.800000
 20
39.300000
  8
2
 62
7
  6
CONTINUOUS
  0
VERTEX
 10
15.600000
 20
39.800000
  8
2
 62
7
  6
CONTINUOUS
  0
SEQEND
  0
POLYLINE
  8
2
 62
7
  6
CONTINUOUS
 70
0
 66
1
  0
VERTEX
 10
15.600000
 20
39.800000
  8
2
 62
7
  6
CONTINUOUS
  0
VERTEX
 10
15.200000
 20
39.800000
  8
2
 62
7
  6
CONTINUOUS
  0
SEQEND
  0
POLYLINE
  8
2
 62
7
  6
CONTINUOUS
 70
0
 66
1
  0
VERTEX
 10
19.400000
 20
39.800000
  8
2
 62
7
  6
CONTINUOUS
  0
VERTEX
 10
19.800000
 20
39.800000
  8
2
 62
7
  6
CONTINUOUS
  0
SEQEND
  0
POLYLINE
  8
2
 62
7
  6
CONTINUOUS
 70
1
 66
1
  0
VERTEX
 10
16.300000
 20
48.400000
  8
2
 62
7
  6
CONTINUOUS
  0
VERTEX
 10
18.600000
 20
48.400000
  8
2
 62
7
  6
CONTINUOUS
  0
VERTEX
 10
19.300000
 20
46.500000
  8
2
 62
7
  6
CONTINUOUS
  0
VERTEX
 10
19.300000
 20
39.800000
  8
2
 62
7
  6
CONTINUOUS
  0
VERTEX
 10
15.700000
 20
39.800000
  8
2
 62
7
  6
CONTINUOUS
  0
VERTEX
 10
15.700000
 20
46.500000
  8
2
 62
7
  6
CONTINUOUS
  0
SEQEND
  0
POLYLINE
  8
2
 62
7
  6
CONTINUOUS
 70
1
 66
1
  0
VERTEX
 10
16.500000
 20
47.400000
  8
2
 62
7
  6
CONTINUOUS
  0
VERTEX
 10
18.400000
 20
47.400000
  8
2
 62
7
  6
CONTINUOUS
  0
VERTEX
 10
19.100000
 20
45.600000
  8
2
 62
7
  6
CONTINUOUS
  0
VERTEX
 10
19.100000
 20
39.400000
  8
2
 62
7
  6
CONTINUOUS
  0
VERTEX
 10
15.900000
 20
39.400000
  8
2
 62
7
  6
CONTINUOUS
  0
VERTEX
 10
15.900000
 20
45.600000
  8
2
 62
7
  6
CONTINUOUS
  0
SEQEND
  0
CIRCLE
  8
2
 62
7
  6
CONTINUOUS
 10
17.500000
 20
46.400000
 30
0.0
 40
0.400000
  0
POLYLINE
  8
2
 62
7
  6
CONTINUOUS
 70
1
 66
1
  0
VERTEX
 10
18.700000
 20
40.700000
 30
0.000000
  8
2
 62
7
  6
CONTINUOUS
  0
VERTEX
 10
18.700000
 20
45.300000
 30
0.000000
  8
2
 62
7
  6
CONTINUOUS
  0
VERTEX
 10
16.300000
 20
45.300000
 30
0.000000
  8
2
 62
7
  6
CONTINUOUS
  0
VERTEX
 10
16.300000
 20
40.700000
 30
0.000000
  8
2
 62
7
  6
CONTINUOUS
  0
SEQEND
  0
CIRCLE
  8
2
 62
7
  6
CONTINUOUS
 10
17.500000
 20
39.800000
 30
0.0
 40
0.400000
  0
POLYLINE
  8
2
 62
7
  6
CONTINUOUS
 70
1
 66
1
  0
VERTEX
 10
15.600000
 20
29.400000
  8
2
 62
7
  6
CONTINUOUS
  0
VERTEX
 10
16.300000
 20
30.200000
  8
2
 62
7
  6
CONTINUOUS
  0
VERTEX
 10
18.700000
 20
30.200000
  8
2
 62
7
  6
CONTINUOUS
  0
VERTEX
 10
19.400000
 20
29.400000
  8
2
 62
7
  6
CONTINUOUS
  0
VERTEX
 10
19.400000
 20
21.300000
  8
2
 62
7
  6
CONTINUOUS
  0
VERTEX
 10
19.200000
 20
20.800000
  8
2
 62
7
  6
CONTINUOUS
  0
VERTEX
 10
19.000000
 20
20.500000
  8
2
 62
7
  6
CONTINUOUS
  0
VERTEX
 10
16.000000
 20
20.500000
  8
2
 62
7
  6
CONTINUOUS
  0
VERTEX
 10
15.800000
 20
20.800000
  8
2
 62
7
  6
CONTINUOUS
  0
VERTEX
 10
15.600000
 20
21.300000
  8
2
 62
7
  6
CONTINUOUS
  0
SEQEND
  0
POLYLINE
  8
2
 62
7
  6
CONTINUOUS
 70
0
 66
1
  0
VERTEX
 10
15.600000
 20
21.300000
  8
2
 62
7
  6
CONTINUOUS
  0
VERTEX
 10
15.200000
 20
21.300000
  8
2
 62
7
  6
CONTINUOUS
  0
SEQEND
  0
POLYLINE
  8
2
 62
7
  6
CONTINUOUS
 70
0
 66
1
  0
VERTEX
 10
19.400000
 20
21.300000
  8
2
 62
7
  6
CONTINUOUS
  0
VERTEX
 10
19.800000
 20
21.300000
  8
2
 62
7
  6
CONTINUOUS
  0
SEQEND
  0
POLYLINE
  8
2
 62
7
  6
CONTINUOUS
 70
1
 66
1
  0
VERTEX
 10
16.300000
 20
29.900000
  8
2
 62
7
  6
CONTINUOUS
  0
VERTEX
 10
18.600000
 20
29.900000
  8
2
 62
7
  6
CONTINUOUS
  0
VERTEX
 10
19.300000
 20
28.000000
  8
2
 62
7
  6
CONTINUOUS
  0
VERTEX
 10
19.300000
 20
21.300000
  8
2
 62
7
  6
CONTINUOUS
  0
VERTEX
 10
15.700000
 20
21.300000
  8
2
 62
7
  6
CONTINUOUS
  0
VERTEX
 10
15.700000
 20
28.000000
  8
2
 62
7
  6
CONTINUOUS
  0
SEQEND
  0
POLYLINE
  8
2
 62
7
  6
CONTINUOUS
 70
1
 66
1
  0
VERTEX
 10
16.500000
 20
28.900000
  8
2
 62
7
  6
CONTINUOUS
  0
VERTEX
 10
18.400000
 20
28.900000
  8
2
 62
7
  6
CONTINUOUS
  0
VERTEX
 10
19.100000
 20
27.100000
  8
2
 62
7
  6
CONTINUOUS
  0
VERTEX
 10
19.100000
 20
20.900000
  8
2
 62
7
  6
CONTINUOUS
  0
VERTEX
 10
15.900000
 20
20.900000
  8
2
 62
7
  6
CONTINUOUS
  0
VERTEX
 10
15.900000
 20
27.100000
  8
2
 62
7
  6
CONTINUOUS
  0
SEQEND
  0
CIRCLE
  8
2
 62
7
  6
CONTINUOUS
 10
17.500000
 20
27.900000
 30
0.0
 40
0.400000
  0
POLYLINE
  8
2
 62
7
  6
CONTINUOUS
 70
1
 66
1
  0
VERTEX
 10
18.700000
 20
22.200000
 30
0.000000
  8
2
 62
7
  6
CONTINUOUS
  0
VERTEX
 10
18.700000
 20
26.800000
 30
0.000000
  8
2
 62
7
  6
CONTINUOUS
  0
VERTEX
 10
16.300000
 20
26.800000
 30
0.000000
  8
2
 62
7
  6
CONTINUOUS
  0
VERTEX
 10
16.300000
 20
22.200000
 30
0.000000
  8
2
 62
7
  6
CONTINUOUS
  0
SEQEND
  0
CIRCLE
  8
2
 62
7
  6
CONTINUOUS
 10
17.500000
 20
21.300000
 30
0.0
 40
0.400000
  0
SOLID
  8
2
 62
1
  6
CONTINUOUS
 10
19.900000
 20
69.600000
 11
19.900000
 21
70.500000
 12
15.100000
 22
69.600000
 13
15.100000
 23
70.500000
  0
POLYLINE
  8
2
 62
7
  6
CONTINUOUS
 70
1
 66
1
  0
VERTEX
 10
19.900000
 20
69.600000
 30
0.000000
  8
2
 62
7
  6
CONTINUOUS
  0
VERTEX
 10
19.900000
 20
70.500000
 30
0.000000
  8
2
 62
7
  6
CONTINUOUS
  0
VERTEX
 10
15.100000
 20
70.500000
 30
0.000000
  8
2
 62
7
  6
CONTINUOUS
  0
VERTEX
 10
15.100000
 20
69.600000
 30
0.000000
  8
2
 62
7
  6
CONTINUOUS
  0
SEQEND
  0
SOLID
  8
2
 62
254
  6
CONTINUOUS
 10
15.600000
 20
26.200000
 11
15.600000
 21
64.900000
 12
15.200000
 22
26.200000
 13
15.200000
 23
64.900000
  0
POLYLINE
  8
2
 62
7
  6
CONTINUOUS
 70
1
 66
1
  0
VERTEX
 10
15.600000
 20
26.200000
 30
0.000000
  8
2
 62
7
  6
CONTINUOUS
  0
VERTEX
 10
15.600000
 20
64.900000
 30
0.000000
  8
2
 62
7
  6
CONTINUOUS
  0
VERTEX
 10
15.200000
 20
64.900000
 30
0.000000
  8
2
 62
7
  6
CONTINUOUS
  0
VERTEX
 10
15.200000
 20
26.200000
 30
0.000000
  8
2
 62
7
  6
CONTINUOUS
  0
SEQEND
  0
POLYLINE
  8
2
 62
7
  6
CONTINUOUS
 70
1
 66
1
  0
VERTEX
 10
15.600000
 20
18.200000
 30
0.000000
  8
2
 62
7
  6
CONTINUOUS
  0
VERTEX
 10
15.600000
 20
21.300000
 30
0.000000
  8
2
 62
7
  6
CONTINUOUS
  0
VERTEX
 10
15.200000
 20
21.300000
 30
0.000000
  8
2
 62
7
  6
CONTINUOUS
  0
VERTEX
 10
15.200000
 20
18.200000
 30
0.000000
  8
2
 62
7
  6
CONTINUOUS
  0
SEQEND
  0
POLYLINE
  8
2
 62
7
  6
CONTINUOUS
 70
1
 66
1
  0
VERTEX
 10
15.600000
 20
55.200000
 30
0.000000
  8
2
 62
7
  6
CONTINUOUS
  0
VERTEX
 10
15.600000
 20
58.300000
 30
0.000000
  8
2
 62
7
  6
CONTINUOUS
  0
VERTEX
 10
15.200000
 20
58.300000
 30
0.000000
  8
2
 62
7
  6
CONTINUOUS
  0
VERTEX
 10
15.200000
 20
55.200000
 30
0.000000
  8
2
 62
7
  6
CONTINUOUS
  0
SEQEND
  0
POLYLINE
  8
2
 62
7
  6
CONTINUOUS
 70
1
 66
1
  0
VERTEX
 10
19.800000
 20
55.200000
 30
0.000000
  8
2
 62
7
  6
CONTINUOUS
  0
VERTEX
 10
19.800000
 20
58.300000
 30
0.000000
  8
2
 62
7
  6
CONTINUOUS
  0
VERTEX
 10
19.400000
 20
58.300000
 30
0.000000
  8
2
 62
7
  6
CONTINUOUS
  0
VERTEX
 10
19.400000
 20
55.200000
 30
0.000000
  8
2
 62
7
  6
CONTINUOUS
  0
SEQEND
  0
POLYLINE
  8
2
 62
7
  6
CONTINUOUS
 70
1
 66
1
  0
VERTEX
 10
19.800000
 20
18.200000
 30
0.000000
  8
2
 62
7
  6
CONTINUOUS
  0
VERTEX
 10
19.800000
 20
21.300000
 30
0.000000
  8
2
 62
7
  6
CONTINUOUS
  0
VERTEX
 10
19.400000
 20
21.300000
 30
0.000000
  8
2
 62
7
  6
CONTINUOUS
  0
VERTEX
 10
19.400000
 20
18.200000
 30
0.000000
  8
2
 62
7
  6
CONTINUOUS
  0
SEQEND
  0
SOLID
  8
2
 62
254
  6
CONTINUOUS
 10
19.800000
 20
26.200000
 11
19.800000
 21
64.900000
 12
19.400000
 22
26.200000
 13
19.400000
 23
64.900000
  0
POLYLINE
  8
2
 62
7
  6
CONTINUOUS
 70
1
 66
1
  0
VERTEX
 10
19.800000
 20
26.200000
 30
0.000000
  8
2
 62
7
  6
CONTINUOUS
  0
VERTEX
 10
19.800000
 20
64.900000
 30
0.000000
  8
2
 62
7
  6
CONTINUOUS
  0
VERTEX
 10
19.400000
 20
64.900000
 30
0.000000
  8
2
 62
7
  6
CONTINUOUS
  0
VERTEX
 10
19.400000
 20
26.200000
 30
0.000000
  8
2
 62
7
  6
CONTINUOUS
  0
SEQEND
  0
POLYLINE
  8
2
 62
7
  6
CONTINUOUS
 70
1
 66
1
  0
VERTEX
 10
16.300000
 20
50.200000
  8
2
 62
7
  6
CONTINUOUS
  0
VERTEX
 10
18.700000
 20
50.200000
  8
2
 62
7
  6
CONTINUOUS
  0
VERTEX
 10
19.800000
 20
49.500000
  8
2
 62
7
  6
CONTINUOUS
  0
VERTEX
 10
19.800000
 20
39.800000
  8
2
 62
7
  6
CONTINUOUS
  0
VERTEX
 10
19.400000
 20
39.800000
  8
2
 62
7
  6
CONTINUOUS
  0
VERTEX
 10
19.400000
 20
47.900000
  8
2
 62
7
  6
CONTINUOUS
  0
VERTEX
 10
18.700000
 20
48.700000
  8
2
 62
7
  6
CONTINUOUS
  0
VERTEX
 10
16.300000
 20
48.700000
  8
2
 62
7
  6
CONTINUOUS
  0
VERTEX
 10
15.600000
 20
47.900000
  8
2
 62
7
  6
CONTINUOUS
  0
VERTEX
 10
15.600000
 20
39.800000
  8
2
 62
7
  6
CONTINUOUS
  0
VERTEX
 10
15.200000
 20
39.800000
  8
2
 62
7
  6
CONTINUOUS
  0
VERTEX
 10
15.200000
 20
49.400000
  8
2
 62
7
  6
CONTINUOUS
  0
SEQEND
  0
SOLID
  8
2
 62
255
  6
CONTINUOUS
 10
24.900000
 20
6.600000
 11
24.900000
 21
71.600000
 12
20.100000
 22
6.600000
 13
20.100000
 23
71.600000
  0
POLYLINE
  8
2
 62
7
  6
CONTINUOUS
 70
1
 66
1
  0
VERTEX
 10
24.900000
 20
6.600000
 30
0.000000
  8
2
 62
7
  6
CONTINUOUS
  0
VERTEX
 10
24.900000
 20
71.600000
 30
0.000000
  8
2
 62
7
  6
CONTINUOUS
  0
VERTEX
 10
20.100000
 20
71.600000
 30
0.000000
  8
2
 62
7
  6
CONTINUOUS
  0
VERTEX
 10
20.100000
 20
6.600000
 30
0.000000
  8
2
 62
7
  6
CONTINUOUS
  0
SEQEND
  0
POLYLINE
  8
2
 62
7
  6
L000000000000000000
 70
0
 66
1
  0
VERTEX
 10
22.500000
 20
71.600000
  8
2
 62
7
  6
L000000000000000000
  0
VERTEX
 10
22.500000
 20
67.200000
  8
2
 62
7
  6
L000000000000000000
  0
SEQEND
  0
POLYLINE
  8
2
 62
7
  6
L000000000000000000
 70
0
 66
1
  0
VERTEX
 10
22.500000
 20
57.500000
  8
2
 62
7
  6
L000000000000000000
  0
VERTEX
 10
22.500000
 20
50.200000
  8
2
 62
7
  6
L000000000000000000
  0
SEQEND
  0
POLYLINE
  8
2
 62
7
  6
L000000000000000000
 70
0
 66
1
  0
VERTEX
 10
22.500000
 20
39.000000
  8
2
 62
7
  6
L000000000000000000
  0
VERTEX
 10
22.500000
 20
30.200000
  8
2
 62
7
  6
L000000000000000000
  0
SEQEND
  0
POLYLINE
  8
2
 62
7
  6
L000000000000000000
 70
0
 66
1
  0
VERTEX
 10
22.500000
 20
20.500000
  8
2
 62
7
  6
L000000000000000000
  0
VERTEX
 10
22.500000
 20
15.000000
  8
2
 62
7
  6
L000000000000000000
  0
SEQEND
  0
POLYLINE
  8
2
 62
7
  6
CONTINUOUS
 70
0
 66
1
  0
VERTEX
 10
20.100000
 20
14.300000
  8
2
 62
7
  6
CONTINUOUS
  0
VERTEX
 10
20.900000
 20
14.300000
  8
2
 62
7
  6
CONTINUOUS
  0
VERTEX
 10
20.900000
 20
15.000000
  8
2
 62
7
  6
CONTINUOUS
  0
VERTEX
 10
24.100000
 20
15.000000
  8
2
 62
7
  6
CONTINUOUS
  0
VERTEX
 10
24.100000
 20
14.300000
  8
2
 62
7
  6
CONTINUOUS
  0
VERTEX
 10
24.900000
 20
14.300000
  8
2
 62
7
  6
CONTINUOUS
  0
SEQEND
  0
POLYLINE
  8
2
 62
7
  6
CONTINUOUS
 70
1
 66
1
  0
VERTEX
 10
24.300000
 20
7.100000
 30
0.000000
  8
2
 62
7
  6
CONTINUOUS
  0
VERTEX
 10
24.300000
 20
11.400000
 30
0.000000
  8
2
 62
7
  6
CONTINUOUS
  0
VERTEX
 10
20.800000
 20
11.400000
 30
0.000000
  8
2
 62
7
  6
CONTINUOUS
  0
VERTEX
 10
20.800000
 20
7.100000
 30
0.000000
  8
2
 62
7
  6
CONTINUOUS
  0
SEQEND
  0
POLYLINE
  8
2
 62
7
  6
CONTINUOUS
 70
1
 66
1
  0
VERTEX
 10
23.900000
 20
7.500000
 30
0.000000
  8
2
 62
7
  6
CONTINUOUS
  0
VERTEX
 10
23.900000
 20
10.800000
 30
0.000000
  8
2
 62
7
  6
CONTINUOUS
  0
VERTEX
 10
21.200000
 20
10.800000
 30
0.000000
  8
2
 62
7
  6
CONTINUOUS
  0
VERTEX
 10
21.200000
 20
7.500000
 30
0.000000
  8
2
 62
7
  6
CONTINUOUS
  0
SEQEND
  0
POLYLINE
  8
2
 62
7
  6
CONTINUOUS
 70
0
 66
1
  0
VERTEX
 10
20.800000
 20
11.400000
  8
2
 62
7
  6
CONTINUOUS
  0
VERTEX
 10
21.200000
 20
10.800000
  8
2
 62
7
  6
CONTINUOUS
  0
SEQEND
  0
POLYLINE
  8
2
 62
7
  6
CONTINUOUS
 70
0
 66
1
  0
VERTEX
 10
24.300000
 20
11.400000
  8
2
 62
7
  6
CONTINUOUS
  0
VERTEX
 10
23.900000
 20
10.800000
  8
2
 62
7
  6
CONTINUOUS
  0
SEQEND
  0
POLYLINE
  8
2
 62
7
  6
CONTINUOUS
 70
1
 66
1
  0
VERTEX
 10
23.800000
 20
9.600000
 30
0.000000
  8
2
 62
7
  6
CONTINUOUS
  0
VERTEX
 10
23.800000
 20
10.100000
 30
0.000000
  8
2
 62
7
  6
CONTINUOUS
  0
VERTEX
 10
21.300000
 20
10.100000
 30
0.000000
  8
2
 62
7
  6
CONTINUOUS
  0
VERTEX
 10
21.300000
 20
9.600000
 30
0.000000
  8
2
 62
7
  6
CONTINUOUS
  0
SEQEND
  0
POLYLINE
  8
2
 62
7
  6
CONTINUOUS
 70
1
 66
1
  0
VERTEX
 10
23.800000
 20
8.800000
 30
0.000000
  8
2
 62
7
  6
CONTINUOUS
  0
VERTEX
 10
23.800000
 20
9.300000
 30
0.000000
  8
2
 62
7
  6
CONTINUOUS
  0
VERTEX
 10
21.300000
 20
9.300000
 30
0.000000
  8
2
 62
7
  6
CONTINUOUS
  0
VERTEX
 10
21.300000
 20
8.800000
 30
0.000000
  8
2
 62
7
  6
CONTINUOUS
  0
SEQEND
  0
POLYLINE
  8
2
 62
7
  6
CONTINUOUS
 70
1
 66
1
  0
VERTEX
 10
23.800000
 20
8.000000
 30
0.000000
  8
2
 62
7
  6
CONTINUOUS
  0
VERTEX
 10
23.800000
 20
8.500000
 30
0.000000
  8
2
 62
7
  6
CONTINUOUS
  0
VERTEX
 10
21.300000
 20
8.500000
 30
0.000000
  8
2
 62
7
  6
CONTINUOUS
  0
VERTEX
 10
21.300000
 20
8.000000
 30
0.000000
  8
2
 62
7
  6
CONTINUOUS
  0
SEQEND
  0
SOLID
  8
2
 62
1
  6
CONTINUOUS
 10
24.300000
 20
13.400000
 11
24.300000
 21
13.900000
 12
20.700000
 22
13.400000
 13
20.700000
 23
13.900000
  0
POLYLINE
  8
2
 62
7
  6
CONTINUOUS
 70
1
 66
1
  0
VERTEX
 10
24.300000
 20
13.400000
 30
0.000000
  8
2
 62
7
  6
CONTINUOUS
  0
VERTEX
 10
24.300000
 20
13.900000
 30
0.000000
  8
2
 62
7
  6
CONTINUOUS
  0
VERTEX
 10
20.700000
 20
13.900000
 30
0.000000
  8
2
 62
7
  6
CONTINUOUS
  0
VERTEX
 10
20.700000
 20
13.400000
 30
0.000000
  8
2
 62
7
  6
CONTINUOUS
  0
SEQEND
  0
POLYLINE
  8
2
 62
7
  6
CONTINUOUS
 70
1
 66
1
  0
VERTEX
 10
20.600000
 20
66.400000
  8
2
 62
7
  6
CONTINUOUS
  0
VERTEX
 10
21.300000
 20
67.200000
  8
2
 62
7
  6
CONTINUOUS
  0
VERTEX
 10
23.700000
 20
67.200000
  8
2
 62
7
  6
CONTINUOUS
  0
VERTEX
 10
24.400000
 20
66.400000
  8
2
 62
7
  6
CONTINUOUS
  0
VERTEX
 10
24.400000
 20
58.300000
  8
2
 62
7
  6
CONTINUOUS
  0
VERTEX
 10
24.200000
 20
57.800000
  8
2
 62
7
  6
CONTINUOUS
  0
VERTEX
 10
24.000000
 20
57.500000
  8
2
 62
7
  6
CONTINUOUS
  0
VERTEX
 10
21.000000
 20
57.500000
  8
2
 62
7
  6
CONTINUOUS
  0
VERTEX
 10
20.800000
 20
57.800000
  8
2
 62
7
  6
CONTINUOUS
  0
VERTEX
 10
20.600000
 20
58.300000
  8
2
 62
7
  6
CONTINUOUS
  0
SEQEND
  0
POLYLINE
  8
2
 62
7
  6
CONTINUOUS
 70
0
 66
1
  0
VERTEX
 10
20.600000
 20
58.300000
  8
2
 62
7
  6
CONTINUOUS
  0
VERTEX
 10
20.200000
 20
58.300000
  8
2
 62
7
  6
CONTINUOUS
  0
SEQEND
  0
POLYLINE
  8
2
 62
7
  6
CONTINUOUS
 70
0
 66
1
  0
VERTEX
 10
24.400000
 20
58.300000
  8
2
 62
7
  6
CONTINUOUS
  0
VERTEX
 10
24.800000
 20
58.300000
  8
2
 62
7
  6
CONTINUOUS
  0
SEQEND
  0
POLYLINE
  8
2
 62
7
  6
CONTINUOUS
 70
1
 66
1
  0
VERTEX
 10
21.300000
 20
66.900000
  8
2
 62
7
  6
CONTINUOUS
  0
VERTEX
 10
23.600000
 20
66.900000
  8
2
 62
7
  6
CONTINUOUS
  0
VERTEX
 10
24.300000
 20
65.000000
  8
2
 62
7
  6
CONTINUOUS
  0
VERTEX
 10
24.300000
 20
58.300000
  8
2
 62
7
  6
CONTINUOUS
  0
VERTEX
 10
20.700000
 20
58.300000
  8
2
 62
7
  6
CONTINUOUS
  0
VERTEX
 10
20.700000
 20
65.000000
  8
2
 62
7
  6
CONTINUOUS
  0
SEQEND
  0
POLYLINE
  8
2
 62
7
  6
CONTINUOUS
 70
1
 66
1
  0
VERTEX
 10
21.500000
 20
65.900000
  8
2
 62
7
  6
CONTINUOUS
  0
VERTEX
 10
23.400000
 20
65.900000
  8
2
 62
7
  6
CONTINUOUS
  0
VERTEX
 10
24.100000
 20
64.100000
  8
2
 62
7
  6
CONTINUOUS
  0
VERTEX
 10
24.100000
 20
57.900000
  8
2
 62
7
  6
CONTINUOUS
  0
VERTEX
 10
20.900000
 20
57.900000
  8
2
 62
7
  6
CONTINUOUS
  0
VERTEX
 10
20.900000
 20
64.100000
  8
2
 62
7
  6
CONTINUOUS
  0
SEQEND
  0
CIRCLE
  8
2
 62
7
  6
CONTINUOUS
 10
22.500000
 20
64.900000
 30
0.0
 40
0.400000
  0
POLYLINE
  8
2
 62
7
  6
CONTINUOUS
 70
1
 66
1
  0
VERTEX
 10
23.700000
 20
59.200000
 30
0.000000
  8
2
 62
7
  6
CONTINUOUS
  0
VERTEX
 10
23.700000
 20
63.800000
 30
0.000000
  8
2
 62
7
  6
CONTINUOUS
  0
VERTEX
 10
21.300000
 20
63.800000
 30
0.000000
  8
2
 62
7
  6
CONTINUOUS
  0
VERTEX
 10
21.300000
 20
59.200000
 30
0.000000
  8
2
 62
7
  6
CONTINUOUS
  0
SEQEND
  0
CIRCLE
  8
2
 62
7
  6
CONTINUOUS
 10
22.500000
 20
58.300000
 30
0.0
 40
0.400000
  0
POLYLINE
  8
2
 62
7
  6
CONTINUOUS
 70
1
 66
1
  0
VERTEX
 10
20.200000
 20
49.400000
  8
2
 62
7
  6
CONTINUOUS
  0
VERTEX
 10
21.300000
 20
50.200000
  8
2
 62
7
  6
CONTINUOUS
  0
VERTEX
 10
23.700000
 20
50.200000
  8
2
 62
7
  6
CONTINUOUS
  0
VERTEX
 10
24.800000
 20
49.500000
  8
2
 62
7
  6
CONTINUOUS
  0
VERTEX
 10
24.800000
 20
36.700000
  8
2
 62
7
  6
CONTINUOUS
  0
VERTEX
 10
24.400000
 20
36.700000
  8
2
 62
7
  6
CONTINUOUS
  0
VERTEX
 10
24.400000
 20
39.800000
  8
2
 62
7
  6
CONTINUOUS
  0
VERTEX
 10
20.600000
 20
39.800000
  8
2
 62
7
  6
CONTINUOUS
  0
VERTEX
 10
20.600000
 20
36.700000
  8
2
 62
7
  6
CONTINUOUS
  0
VERTEX
 10
20.200000
 20
36.700000
  8
2
 62
7
  6
CONTINUOUS
  0
SEQEND
  0
POLYLINE
  8
2
 62
7
  6
CONTINUOUS
 70
1
 66
1
  0
VERTEX
 10
20.600000
 20
47.900000
  8
2
 62
7
  6
CONTINUOUS
  0
VERTEX
 10
21.300000
 20
48.700000
  8
2
 62
7
  6
CONTINUOUS
  0
VERTEX
 10
23.700000
 20
48.700000
  8
2
 62
7
  6
CONTINUOUS
  0
VERTEX
 10
24.400000
 20
47.900000
  8
2
 62
7
  6
CONTINUOUS
  0
VERTEX
 10
24.400000
 20
39.800000
  8
2
 62
7
  6
CONTINUOUS
  0
VERTEX
 10
24.200000
 20
39.300000
  8
2
 62
7
  6
CONTINUOUS
  0
VERTEX
 10
24.000000
 20
39.000000
  8
2
 62
7
  6
CONTINUOUS
  0
VERTEX
 10
21.000000
 20
39.000000
  8
2
 62
7
  6
CONTINUOUS
  0
VERTEX
 10
20.800000
 20
39.300000
  8
2
 62
7
  6
CONTINUOUS
  0
VERTEX
 10
20.600000
 20
39.800000
  8
2
 62
7
  6
CONTINUOUS
  0
SEQEND
  0
POLYLINE
  8
2
 62
7
  6
CONTINUOUS
 70
0
 66
1
  0
VERTEX
 10
20.600000
 20
39.800000
  8
2
 62
7
  6
CONTINUOUS
  0
VERTEX
 10
20.200000
 20
39.800000
  8
2
 62
7
  6
CONTINUOUS
  0
SEQEND
  0
POLYLINE
  8
2
 62
7
  6
CONTINUOUS
 70
0
 66
1
  0
VERTEX
 10
24.400000
 20
39.800000
  8
2
 62
7
  6
CONTINUOUS
  0
VERTEX
 10
24.800000
 20
39.800000
  8
2
 62
7
  6
CONTINUOUS
  0
SEQEND
  0
POLYLINE
  8
2
 62
7
  6
CONTINUOUS
 70
1
 66
1
  0
VERTEX
 10
21.300000
 20
48.400000
  8
2
 62
7
  6
CONTINUOUS
  0
VERTEX
 10
23.600000
 20
48.400000
  8
2
 62
7
  6
CONTINUOUS
  0
VERTEX
 10
24.300000
 20
46.500000
  8
2
 62
7
  6
CONTINUOUS
  0
VERTEX
 10
24.300000
 20
39.800000
  8
2
 62
7
  6
CONTINUOUS
  0
VERTEX
 10
20.700000
 20
39.800000
  8
2
 62
7
  6
CONTINUOUS
  0
VERTEX
 10
20.700000
 20
46.500000
  8
2
 62
7
  6
CONTINUOUS
  0
SEQEND
  0
POLYLINE
  8
2
 62
7
  6
CONTINUOUS
 70
1
 66
1
  0
VERTEX
 10
21.500000
 20
47.400000
  8
2
 62
7
  6
CONTINUOUS
  0
VERTEX
 10
23.400000
 20
47.400000
  8
2
 62
7
  6
CONTINUOUS
  0
VERTEX
 10
24.100000
 20
45.600000
  8
2
 62
7
  6
CONTINUOUS
  0
VERTEX
 10
24.100000
 20
39.400000
  8
2
 62
7
  6
CONTINUOUS
  0
VERTEX
 10
20.900000
 20
39.400000
  8
2
 62
7
  6
CONTINUOUS
  0
VERTEX
 10
20.900000
 20
45.600000
  8
2
 62
7
  6
CONTINUOUS
  0
SEQEND
  0
CIRCLE
  8
2
 62
7
  6
CONTINUOUS
 10
22.500000
 20
46.400000
 30
0.0
 40
0.400000
  0
POLYLINE
  8
2
 62
7
  6
CONTINUOUS
 70
1
 66
1
  0
VERTEX
 10
23.700000
 20
40.700000
 30
0.000000
  8
2
 62
7
  6
CONTINUOUS
  0
VERTEX
 10
23.700000
 20
45.300000
 30
0.000000
  8
2
 62
7
  6
CONTINUOUS
  0
VERTEX
 10
21.300000
 20
45.300000
 30
0.000000
  8
2
 62
7
  6
CONTINUOUS
  0
VERTEX
 10
21.300000
 20
40.700000
 30
0.000000
  8
2
 62
7
  6
CONTINUOUS
  0
SEQEND
  0
CIRCLE
  8
2
 62
7
  6
CONTINUOUS
 10
22.500000
 20
39.800000
 30
0.0
 40
0.400000
  0
POLYLINE
  8
2
 62
7
  6
CONTINUOUS
 70
1
 66
1
  0
VERTEX
 10
20.600000
 20
29.400000
  8
2
 62
7
  6
CONTINUOUS
  0
VERTEX
 10
21.300000
 20
30.200000
  8
2
 62
7
  6
CONTINUOUS
  0
VERTEX
 10
23.700000
 20
30.200000
  8
2
 62
7
  6
CONTINUOUS
  0
VERTEX
 10
24.400000
 20
29.400000
  8
2
 62
7
  6
CONTINUOUS
  0
VERTEX
 10
24.400000
 20
21.300000
  8
2
 62
7
  6
CONTINUOUS
  0
VERTEX
 10
24.200000
 20
20.800000
  8
2
 62
7
  6
CONTINUOUS
  0
VERTEX
 10
24.000000
 20
20.500000
  8
2
 62
7
  6
CONTINUOUS
  0
VERTEX
 10
21.000000
 20
20.500000
  8
2
 62
7
  6
CONTINUOUS
  0
VERTEX
 10
20.800000
 20
20.800000
  8
2
 62
7
  6
CONTINUOUS
  0
VERTEX
 10
20.600000
 20
21.300000
  8
2
 62
7
  6
CONTINUOUS
  0
SEQEND
  0
POLYLINE
  8
2
 62
7
  6
CONTINUOUS
 70
0
 66
1
  0
VERTEX
 10
20.600000
 20
21.300000
  8
2
 62
7
  6
CONTINUOUS
  0
VERTEX
 10
20.200000
 20
21.300000
  8
2
 62
7
  6
CONTINUOUS
  0
SEQEND
  0
POLYLINE
  8
2
 62
7
  6
CONTINUOUS
 70
0
 66
1
  0
VERTEX
 10
24.400000
 20
21.300000
  8
2
 62
7
  6
CONTINUOUS
  0
VERTEX
 10
24.800000
 20
21.300000
  8
2
 62
7
  6
CONTINUOUS
  0
SEQEND
  0
POLYLINE
  8
2
 62
7
  6
CONTINUOUS
 70
1
 66
1
  0
VERTEX
 10
21.300000
 20
29.900000
  8
2
 62
7
  6
CONTINUOUS
  0
VERTEX
 10
23.600000
 20
29.900000
  8
2
 62
7
  6
CONTINUOUS
  0
VERTEX
 10
24.300000
 20
28.000000
  8
2
 62
7
  6
CONTINUOUS
  0
VERTEX
 10
24.300000
 20
21.300000
  8
2
 62
7
  6
CONTINUOUS
  0
VERTEX
 10
20.700000
 20
21.300000
  8
2
 62
7
  6
CONTINUOUS
  0
VERTEX
 10
20.700000
 20
28.000000
  8
2
 62
7
  6
CONTINUOUS
  0
SEQEND
  0
POLYLINE
  8
2
 62
7
  6
CONTINUOUS
 70
1
 66
1
  0
VERTEX
 10
21.500000
 20
28.900000
  8
2
 62
7
  6
CONTINUOUS
  0
VERTEX
 10
23.400000
 20
28.900000
  8
2
 62
7
  6
CONTINUOUS
  0
VERTEX
 10
24.100000
 20
27.100000
  8
2
 62
7
  6
CONTINUOUS
  0
VERTEX
 10
24.100000
 20
20.900000
  8
2
 62
7
  6
CONTINUOUS
  0
VERTEX
 10
20.900000
 20
20.900000
  8
2
 62
7
  6
CONTINUOUS
  0
VERTEX
 10
20.900000
 20
27.100000
  8
2
 62
7
  6
CONTINUOUS
  0
SEQEND
  0
CIRCLE
  8
2
 62
7
  6
CONTINUOUS
 10
22.500000
 20
27.900000
 30
0.0
 40
0.400000
  0
POLYLINE
  8
2
 62
7
  6
CONTINUOUS
 70
1
 66
1
  0
VERTEX
 10
23.700000
 20
22.200000
 30
0.000000
  8
2
 62
7
  6
CONTINUOUS
  0
VERTEX
 10
23.700000
 20
26.800000
 30
0.000000
  8
2
 62
7
  6
CONTINUOUS
  0
VERTEX
 10
21.300000
 20
26.800000
 30
0.000000
  8
2
 62
7
  6
CONTINUOUS
  0
VERTEX
 10
21.300000
 20
22.200000
 30
0.000000
  8
2
 62
7
  6
CONTINUOUS
  0
SEQEND
  0
CIRCLE
  8
2
 62
7
  6
CONTINUOUS
 10
22.500000
 20
21.300000
 30
0.0
 40
0.400000
  0
SOLID
  8
2
 62
1
  6
CONTINUOUS
 10
24.900000
 20
69.600000
 11
24.900000
 21
70.500000
 12
20.100000
 22
69.600000
 13
20.100000
 23
70.500000
  0
POLYLINE
  8
2
 62
7
  6
CONTINUOUS
 70
1
 66
1
  0
VERTEX
 10
24.900000
 20
69.600000
 30
0.000000
  8
2
 62
7
  6
CONTINUOUS
  0
VERTEX
 10
24.900000
 20
70.500000
 30
0.000000
  8
2
 62
7
  6
CONTINUOUS
  0
VERTEX
 10
20.100000
 20
70.500000
 30
0.000000
  8
2
 62
7
  6
CONTINUOUS
  0
VERTEX
 10
20.100000
 20
69.600000
 30
0.000000
  8
2
 62
7
  6
CONTINUOUS
  0
SEQEND
  0
SOLID
  8
2
 62
254
  6
CONTINUOUS
 10
20.600000
 20
26.200000
 11
20.600000
 21
64.900000
 12
20.200000
 22
26.200000
 13
20.200000
 23
64.900000
  0
POLYLINE
  8
2
 62
7
  6
CONTINUOUS
 70
1
 66
1
  0
VERTEX
 10
20.600000
 20
26.200000
 30
0.000000
  8
2
 62
7
  6
CONTINUOUS
  0
VERTEX
 10
20.600000
 20
64.900000
 30
0.000000
  8
2
 62
7
  6
CONTINUOUS
  0
VERTEX
 10
20.200000
 20
64.900000
 30
0.000000
  8
2
 62
7
  6
CONTINUOUS
  0
VERTEX
 10
20.200000
 20
26.200000
 30
0.000000
  8
2
 62
7
  6
CONTINUOUS
  0
SEQEND
  0
POLYLINE
  8
2
 62
7
  6
CONTINUOUS
 70
1
 66
1
  0
VERTEX
 10
20.600000
 20
18.200000
 30
0.000000
  8
2
 62
7
  6
CONTINUOUS
  0
VERTEX
 10
20.600000
 20
21.300000
 30
0.000000
  8
2
 62
7
  6
CONTINUOUS
  0
VERTEX
 10
20.200000
 20
21.300000
 30
0.000000
  8
2
 62
7
  6
CONTINUOUS
  0
VERTEX
 10
20.200000
 20
18.200000
 30
0.000000
  8
2
 62
7
  6
CONTINUOUS
  0
SEQEND
  0
POLYLINE
  8
2
 62
7
  6
CONTINUOUS
 70
1
 66
1
  0
VERTEX
 10
20.600000
 20
55.200000
 30
0.000000
  8
2
 62
7
  6
CONTINUOUS
  0
VERTEX
 10
20.600000
 20
58.300000
 30
0.000000
  8
2
 62
7
  6
CONTINUOUS
  0
VERTEX
 10
20.200000
 20
58.300000
 30
0.000000
  8
2
 62
7
  6
CONTINUOUS
  0
VERTEX
 10
20.200000
 20
55.200000
 30
0.000000
  8
2
 62
7
  6
CONTINUOUS
  0
SEQEND
  0
POLYLINE
  8
2
 62
7
  6
CONTINUOUS
 70
1
 66
1
  0
VERTEX
 10
24.800000
 20
55.200000
 30
0.000000
  8
2
 62
7
  6
CONTINUOUS
  0
VERTEX
 10
24.800000
 20
58.300000
 30
0.000000
  8
2
 62
7
  6
CONTINUOUS
  0
VERTEX
 10
24.400000
 20
58.300000
 30
0.000000
  8
2
 62
7
  6
CONTINUOUS
  0
VERTEX
 10
24.400000
 20
55.200000
 30
0.000000
  8
2
 62
7
  6
CONTINUOUS
  0
SEQEND
  0
POLYLINE
  8
2
 62
7
  6
CONTINUOUS
 70
1
 66
1
  0
VERTEX
 10
24.800000
 20
18.200000
 30
0.000000
  8
2
 62
7
  6
CONTINUOUS
  0
VERTEX
 10
24.800000
 20
21.300000
 30
0.000000
  8
2
 62
7
  6
CONTINUOUS
  0
VERTEX
 10
24.400000
 20
21.300000
 30
0.000000
  8
2
 62
7
  6
CONTINUOUS
  0
VERTEX
 10
24.400000
 20
18.200000
 30
0.000000
  8
2
 62
7
  6
CONTINUOUS
  0
SEQEND
  0
SOLID
  8
2
 62
254
  6
CONTINUOUS
 10
24.800000
 20
26.200000
 11
24.800000
 21
64.900000
 12
24.400000
 22
26.200000
 13
24.400000
 23
64.900000
  0
POLYLINE
  8
2
 62
7
  6
CONTINUOUS
 70
1
 66
1
  0
VERTEX
 10
24.800000
 20
26.200000
 30
0.000000
  8
2
 62
7
  6
CONTINUOUS
  0
VERTEX
 10
24.800000
 20
64.900000
 30
0.000000
  8
2
 62
7
  6
CONTINUOUS
  0
VERTEX
 10
24.400000
 20
64.900000
 30
0.000000
  8
2
 62
7
  6
CONTINUOUS
  0
VERTEX
 10
24.400000
 20
26.200000
 30
0.000000
  8
2
 62
7
  6
CONTINUOUS
  0
SEQEND
  0
POLYLINE
  8
2
 62
7
  6
CONTINUOUS
 70
1
 66
1
  0
VERTEX
 10
21.300000
 20
50.200000
  8
2
 62
7
  6
CONTINUOUS
  0
VERTEX
 10
23.700000
 20
50.200000
  8
2
 62
7
  6
CONTINUOUS
  0
VERTEX
 10
24.800000
 20
49.500000
  8
2
 62
7
  6
CONTINUOUS
  0
VERTEX
 10
24.800000
 20
39.800000
  8
2
 62
7
  6
CONTINUOUS
  0
VERTEX
 10
24.400000
 20
39.800000
  8
2
 62
7
  6
CONTINUOUS
  0
VERTEX
 10
24.400000
 20
47.900000
  8
2
 62
7
  6
CONTINUOUS
  0
VERTEX
 10
23.700000
 20
48.700000
  8
2
 62
7
  6
CONTINUOUS
  0
VERTEX
 10
21.300000
 20
48.700000
  8
2
 62
7
  6
CONTINUOUS
  0
VERTEX
 10
20.600000
 20
47.900000
  8
2
 62
7
  6
CONTINUOUS
  0
VERTEX
 10
20.600000
 20
39.800000
  8
2
 62
7
  6
CONTINUOUS
  0
VERTEX
 10
20.200000
 20
39.800000
  8
2
 62
7
  6
CONTINUOUS
  0
VERTEX
 10
20.200000
 20
49.400000
  8
2
 62
7
  6
CONTINUOUS
  0
SEQEND
  0
SOLID
  8
2
 62
255
  6
CONTINUOUS
 10
29.900000
 20
6.600000
 11
29.900000
 21
71.600000
 12
25.100000
 22
6.600000
 13
25.100000
 23
71.600000
  0
POLYLINE
  8
2
 62
7
  6
CONTINUOUS
 70
1
 66
1
  0
VERTEX
 10
29.900000
 20
6.600000
 30
0.000000
  8
2
 62
7
  6
CONTINUOUS
  0
VERTEX
 10
29.900000
 20
71.600000
 30
0.000000
  8
2
 62
7
  6
CONTINUOUS
  0
VERTEX
 10
25.100000
 20
71.600000
 30
0.000000
  8
2
 62
7
  6
CONTINUOUS
  0
VERTEX
 10
25.100000
 20
6.600000
 30
0.000000
  8
2
 62
7
  6
CONTINUOUS
  0
SEQEND
  0
POLYLINE
  8
2
 62
7
  6
L000000000000000000
 70
0
 66
1
  0
VERTEX
 10
27.500000
 20
71.600000
  8
2
 62
7
  6
L000000000000000000
  0
VERTEX
 10
27.500000
 20
67.200000
  8
2
 62
7
  6
L000000000000000000
  0
SEQEND
  0
POLYLINE
  8
2
 62
7
  6
L000000000000000000
 70
0
 66
1
  0
VERTEX
 10
27.500000
 20
57.500000
  8
2
 62
7
  6
L000000000000000000
  0
VERTEX
 10
27.500000
 20
50.200000
  8
2
 62
7
  6
L000000000000000000
  0
SEQEND
  0
POLYLINE
  8
2
 62
7
  6
L000000000000000000
 70
0
 66
1
  0
VERTEX
 10
27.500000
 20
39.000000
  8
2
 62
7
  6
L000000000000000000
  0
VERTEX
 10
27.500000
 20
30.200000
  8
2
 62
7
  6
L000000000000000000
  0
SEQEND
  0
POLYLINE
  8
2
 62
7
  6
L000000000000000000
 70
0
 66
1
  0
VERTEX
 10
27.500000
 20
20.500000
  8
2
 62
7
  6
L000000000000000000
  0
VERTEX
 10
27.500000
 20
15.000000
  8
2
 62
7
  6
L000000000000000000
  0
SEQEND
  0
POLYLINE
  8
2
 62
7
  6
CONTINUOUS
 70
0
 66
1
  0
VERTEX
 10
25.100000
 20
14.300000
  8
2
 62
7
  6
CONTINUOUS
  0
VERTEX
 10
25.900000
 20
14.300000
  8
2
 62
7
  6
CONTINUOUS
  0
VERTEX
 10
25.900000
 20
15.000000
  8
2
 62
7
  6
CONTINUOUS
  0
VERTEX
 10
29.100000
 20
15.000000
  8
2
 62
7
  6
CONTINUOUS
  0
VERTEX
 10
29.100000
 20
14.300000
  8
2
 62
7
  6
CONTINUOUS
  0
VERTEX
 10
29.900000
 20
14.300000
  8
2
 62
7
  6
CONTINUOUS
  0
SEQEND
  0
POLYLINE
  8
2
 62
7
  6
CONTINUOUS
 70
1
 66
1
  0
VERTEX
 10
29.300000
 20
7.100000
 30
0.000000
  8
2
 62
7
  6
CONTINUOUS
  0
VERTEX
 10
29.300000
 20
11.400000
 30
0.000000
  8
2
 62
7
  6
CONTINUOUS
  0
VERTEX
 10
25.800000
 20
11.400000
 30
0.000000
  8
2
 62
7
  6
CONTINUOUS
  0
VERTEX
 10
25.800000
 20
7.100000
 30
0.000000
  8
2
 62
7
  6
CONTINUOUS
  0
SEQEND
  0
POLYLINE
  8
2
 62
7
  6
CONTINUOUS
 70
1
 66
1
  0
VERTEX
 10
28.900000
 20
7.500000
 30
0.000000
  8
2
 62
7
  6
CONTINUOUS
  0
VERTEX
 10
28.900000
 20
10.800000
 30
0.000000
  8
2
 62
7
  6
CONTINUOUS
  0
VERTEX
 10
26.200000
 20
10.800000
 30
0.000000
  8
2
 62
7
  6
CONTINUOUS
  0
VERTEX
 10
26.200000
 20
7.500000
 30
0.000000
  8
2
 62
7
  6
CONTINUOUS
  0
SEQEND
  0
POLYLINE
  8
2
 62
7
  6
CONTINUOUS
 70
0
 66
1
  0
VERTEX
 10
25.800000
 20
11.400000
  8
2
 62
7
  6
CONTINUOUS
  0
VERTEX
 10
26.200000
 20
10.800000
  8
2
 62
7
  6
CONTINUOUS
  0
SEQEND
  0
POLYLINE
  8
2
 62
7
  6
CONTINUOUS
 70
0
 66
1
  0
VERTEX
 10
29.300000
 20
11.400000
  8
2
 62
7
  6
CONTINUOUS
  0
VERTEX
 10
28.900000
 20
10.800000
  8
2
 62
7
  6
CONTINUOUS
  0
SEQEND
  0
POLYLINE
  8
2
 62
7
  6
CONTINUOUS
 70
1
 66
1
  0
VERTEX
 10
28.800000
 20
9.600000
 30
0.000000
  8
2
 62
7
  6
CONTINUOUS
  0
VERTEX
 10
28.800000
 20
10.100000
 30
0.000000
  8
2
 62
7
  6
CONTINUOUS
  0
VERTEX
 10
26.300000
 20
10.100000
 30
0.000000
  8
2
 62
7
  6
CONTINUOUS
  0
VERTEX
 10
26.300000
 20
9.600000
 30
0.000000
  8
2
 62
7
  6
CONTINUOUS
  0
SEQEND
  0
POLYLINE
  8
2
 62
7
  6
CONTINUOUS
 70
1
 66
1
  0
VERTEX
 10
28.800000
 20
8.800000
 30
0.000000
  8
2
 62
7
  6
CONTINUOUS
  0
VERTEX
 10
28.800000
 20
9.300000
 30
0.000000
  8
2
 62
7
  6
CONTINUOUS
  0
VERTEX
 10
26.300000
 20
9.300000
 30
0.000000
  8
2
 62
7
  6
CONTINUOUS
  0
VERTEX
 10
26.300000
 20
8.800000
 30
0.000000
  8
2
 62
7
  6
CONTINUOUS
  0
SEQEND
  0
POLYLINE
  8
2
 62
7
  6
CONTINUOUS
 70
1
 66
1
  0
VERTEX
 10
28.800000
 20
8.000000
 30
0.000000
  8
2
 62
7
  6
CONTINUOUS
  0
VERTEX
 10
28.800000
 20
8.500000
 30
0.000000
  8
2
 62
7
  6
CONTINUOUS
  0
VERTEX
 10
26.300000
 20
8.500000
 30
0.000000
  8
2
 62
7
  6
CONTINUOUS
  0
VERTEX
 10
26.300000
 20
8.000000
 30
0.000000
  8
2
 62
7
  6
CONTINUOUS
  0
SEQEND
  0
SOLID
  8
2
 62
1
  6
CONTINUOUS
 10
29.300000
 20
13.400000
 11
29.300000
 21
13.900000
 12
25.700000
 22
13.400000
 13
25.700000
 23
13.900000
  0
POLYLINE
  8
2
 62
7
  6
CONTINUOUS
 70
1
 66
1
  0
VERTEX
 10
29.300000
 20
13.400000
 30
0.000000
  8
2
 62
7
  6
CONTINUOUS
  0
VERTEX
 10
29.300000
 20
13.900000
 30
0.000000
  8
2
 62
7
  6
CONTINUOUS
  0
VERTEX
 10
25.700000
 20
13.900000
 30
0.000000
  8
2
 62
7
  6
CONTINUOUS
  0
VERTEX
 10
25.700000
 20
13.400000
 30
0.000000
  8
2
 62
7
  6
CONTINUOUS
  0
SEQEND
  0
POLYLINE
  8
2
 62
7
  6
CONTINUOUS
 70
1
 66
1
  0
VERTEX
 10
25.600000
 20
66.400000
  8
2
 62
7
  6
CONTINUOUS
  0
VERTEX
 10
26.300000
 20
67.200000
  8
2
 62
7
  6
CONTINUOUS
  0
VERTEX
 10
28.700000
 20
67.200000
  8
2
 62
7
  6
CONTINUOUS
  0
VERTEX
 10
29.400000
 20
66.400000
  8
2
 62
7
  6
CONTINUOUS
  0
VERTEX
 10
29.400000
 20
58.300000
  8
2
 62
7
  6
CONTINUOUS
  0
VERTEX
 10
29.200000
 20
57.800000
  8
2
 62
7
  6
CONTINUOUS
  0
VERTEX
 10
29.000000
 20
57.500000
  8
2
 62
7
  6
CONTINUOUS
  0
VERTEX
 10
26.000000
 20
57.500000
  8
2
 62
7
  6
CONTINUOUS
  0
VERTEX
 10
25.800000
 20
57.800000
  8
2
 62
7
  6
CONTINUOUS
  0
VERTEX
 10
25.600000
 20
58.300000
  8
2
 62
7
  6
CONTINUOUS
  0
SEQEND
  0
POLYLINE
  8
2
 62
7
  6
CONTINUOUS
 70
0
 66
1
  0
VERTEX
 10
25.600000
 20
58.300000
  8
2
 62
7
  6
CONTINUOUS
  0
VERTEX
 10
25.200000
 20
58.300000
  8
2
 62
7
  6
CONTINUOUS
  0
SEQEND
  0
POLYLINE
  8
2
 62
7
  6
CONTINUOUS
 70
0
 66
1
  0
VERTEX
 10
29.400000
 20
58.300000
  8
2
 62
7
  6
CONTINUOUS
  0
VERTEX
 10
29.800000
 20
58.300000
  8
2
 62
7
  6
CONTINUOUS
  0
SEQEND
  0
POLYLINE
  8
2
 62
7
  6
CONTINUOUS
 70
1
 66
1
  0
VERTEX
 10
26.300000
 20
66.900000
  8
2
 62
7
  6
CONTINUOUS
  0
VERTEX
 10
28.600000
 20
66.900000
  8
2
 62
7
  6
CONTINUOUS
  0
VERTEX
 10
29.300000
 20
65.000000
  8
2
 62
7
  6
CONTINUOUS
  0
VERTEX
 10
29.300000
 20
58.300000
  8
2
 62
7
  6
CONTINUOUS
  0
VERTEX
 10
25.700000
 20
58.300000
  8
2
 62
7
  6
CONTINUOUS
  0
VERTEX
 10
25.700000
 20
65.000000
  8
2
 62
7
  6
CONTINUOUS
  0
SEQEND
  0
POLYLINE
  8
2
 62
7
  6
CONTINUOUS
 70
1
 66
1
  0
VERTEX
 10
26.500000
 20
65.900000
  8
2
 62
7
  6
CONTINUOUS
  0
VERTEX
 10
28.400000
 20
65.900000
  8
2
 62
7
  6
CONTINUOUS
  0
VERTEX
 10
29.100000
 20
64.100000
  8
2
 62
7
  6
CONTINUOUS
  0
VERTEX
 10
29.100000
 20
57.900000
  8
2
 62
7
  6
CONTINUOUS
  0
VERTEX
 10
25.900000
 20
57.900000
  8
2
 62
7
  6
CONTINUOUS
  0
VERTEX
 10
25.900000
 20
64.100000
  8
2
 62
7
  6
CONTINUOUS
  0
SEQEND
  0
CIRCLE
  8
2
 62
7
  6
CONTINUOUS
 10
27.500000
 20
64.900000
 30
0.0
 40
0.400000
  0
POLYLINE
  8
2
 62
7
  6
CONTINUOUS
 70
1
 66
1
  0
VERTEX
 10
28.700000
 20
59.200000
 30
0.000000
  8
2
 62
7
  6
CONTINUOUS
  0
VERTEX
 10
28.700000
 20
63.800000
 30
0.000000
  8
2
 62
7
  6
CONTINUOUS
  0
VERTEX
 10
26.300000
 20
63.800000
 30
0.000000
  8
2
 62
7
  6
CONTINUOUS
  0
VERTEX
 10
26.300000
 20
59.200000
 30
0.000000
  8
2
 62
7
  6
CONTINUOUS
  0
SEQEND
  0
CIRCLE
  8
2
 62
7
  6
CONTINUOUS
 10
27.500000
 20
58.300000
 30
0.0
 40
0.400000
  0
POLYLINE
  8
2
 62
7
  6
CONTINUOUS
 70
1
 66
1
  0
VERTEX
 10
25.200000
 20
49.400000
  8
2
 62
7
  6
CONTINUOUS
  0
VERTEX
 10
26.300000
 20
50.200000
  8
2
 62
7
  6
CONTINUOUS
  0
VERTEX
 10
28.700000
 20
50.200000
  8
2
 62
7
  6
CONTINUOUS
  0
VERTEX
 10
29.800000
 20
49.500000
  8
2
 62
7
  6
CONTINUOUS
  0
VERTEX
 10
29.800000
 20
36.700000
  8
2
 62
7
  6
CONTINUOUS
  0
VERTEX
 10
29.400000
 20
36.700000
  8
2
 62
7
  6
CONTINUOUS
  0
VERTEX
 10
29.400000
 20
39.800000
  8
2
 62
7
  6
CONTINUOUS
  0
VERTEX
 10
25.600000
 20
39.800000
  8
2
 62
7
  6
CONTINUOUS
  0
VERTEX
 10
25.600000
 20
36.700000
  8
2
 62
7
  6
CONTINUOUS
  0
VERTEX
 10
25.200000
 20
36.700000
  8
2
 62
7
  6
CONTINUOUS
  0
SEQEND
  0
POLYLINE
  8
2
 62
7
  6
CONTINUOUS
 70
1
 66
1
  0
VERTEX
 10
25.600000
 20
47.900000
  8
2
 62
7
  6
CONTINUOUS
  0
VERTEX
 10
26.300000
 20
48.700000
  8
2
 62
7
  6
CONTINUOUS
  0
VERTEX
 10
28.700000
 20
48.700000
  8
2
 62
7
  6
CONTINUOUS
  0
VERTEX
 10
29.400000
 20
47.900000
  8
2
 62
7
  6
CONTINUOUS
  0
VERTEX
 10
29.400000
 20
39.800000
  8
2
 62
7
  6
CONTINUOUS
  0
VERTEX
 10
29.200000
 20
39.300000
  8
2
 62
7
  6
CONTINUOUS
  0
VERTEX
 10
29.000000
 20
39.000000
  8
2
 62
7
  6
CONTINUOUS
  0
VERTEX
 10
26.000000
 20
39.000000
  8
2
 62
7
  6
CONTINUOUS
  0
VERTEX
 10
25.800000
 20
39.300000
  8
2
 62
7
  6
CONTINUOUS
  0
VERTEX
 10
25.600000
 20
39.800000
  8
2
 62
7
  6
CONTINUOUS
  0
SEQEND
  0
POLYLINE
  8
2
 62
7
  6
CONTINUOUS
 70
0
 66
1
  0
VERTEX
 10
25.600000
 20
39.800000
  8
2
 62
7
  6
CONTINUOUS
  0
VERTEX
 10
25.200000
 20
39.800000
  8
2
 62
7
  6
CONTINUOUS
  0
SEQEND
  0
POLYLINE
  8
2
 62
7
  6
CONTINUOUS
 70
0
 66
1
  0
VERTEX
 10
29.400000
 20
39.800000
  8
2
 62
7
  6
CONTINUOUS
  0
VERTEX
 10
29.800000
 20
39.800000
  8
2
 62
7
  6
CONTINUOUS
  0
SEQEND
  0
POLYLINE
  8
2
 62
7
  6
CONTINUOUS
 70
1
 66
1
  0
VERTEX
 10
26.300000
 20
48.400000
  8
2
 62
7
  6
CONTINUOUS
  0
VERTEX
 10
28.600000
 20
48.400000
  8
2
 62
7
  6
CONTINUOUS
  0
VERTEX
 10
29.300000
 20
46.500000
  8
2
 62
7
  6
CONTINUOUS
  0
VERTEX
 10
29.300000
 20
39.800000
  8
2
 62
7
  6
CONTINUOUS
  0
VERTEX
 10
25.700000
 20
39.800000
  8
2
 62
7
  6
CONTINUOUS
  0
VERTEX
 10
25.700000
 20
46.500000
  8
2
 62
7
  6
CONTINUOUS
  0
SEQEND
  0
POLYLINE
  8
2
 62
7
  6
CONTINUOUS
 70
1
 66
1
  0
VERTEX
 10
26.500000
 20
47.400000
  8
2
 62
7
  6
CONTINUOUS
  0
VERTEX
 10
28.400000
 20
47.400000
  8
2
 62
7
  6
CONTINUOUS
  0
VERTEX
 10
29.100000
 20
45.600000
  8
2
 62
7
  6
CONTINUOUS
  0
VERTEX
 10
29.100000
 20
39.400000
  8
2
 62
7
  6
CONTINUOUS
  0
VERTEX
 10
25.900000
 20
39.400000
  8
2
 62
7
  6
CONTINUOUS
  0
VERTEX
 10
25.900000
 20
45.600000
  8
2
 62
7
  6
CONTINUOUS
  0
SEQEND
  0
CIRCLE
  8
2
 62
7
  6
CONTINUOUS
 10
27.500000
 20
46.400000
 30
0.0
 40
0.400000
  0
POLYLINE
  8
2
 62
7
  6
CONTINUOUS
 70
1
 66
1
  0
VERTEX
 10
28.700000
 20
40.700000
 30
0.000000
  8
2
 62
7
  6
CONTINUOUS
  0
VERTEX
 10
28.700000
 20
45.300000
 30
0.000000
  8
2
 62
7
  6
CONTINUOUS
  0
VERTEX
 10
26.300000
 20
45.300000
 30
0.000000
  8
2
 62
7
  6
CONTINUOUS
  0
VERTEX
 10
26.300000
 20
40.700000
 30
0.000000
  8
2
 62
7
  6
CONTINUOUS
  0
SEQEND
  0
CIRCLE
  8
2
 62
7
  6
CONTINUOUS
 10
27.500000
 20
39.800000
 30
0.0
 40
0.400000
  0
POLYLINE
  8
2
 62
7
  6
CONTINUOUS
 70
1
 66
1
  0
VERTEX
 10
25.600000
 20
29.400000
  8
2
 62
7
  6
CONTINUOUS
  0
VERTEX
 10
26.300000
 20
30.200000
  8
2
 62
7
  6
CONTINUOUS
  0
VERTEX
 10
28.700000
 20
30.200000
  8
2
 62
7
  6
CONTINUOUS
  0
VERTEX
 10
29.400000
 20
29.400000
  8
2
 62
7
  6
CONTINUOUS
  0
VERTEX
 10
29.400000
 20
21.300000
  8
2
 62
7
  6
CONTINUOUS
  0
VERTEX
 10
29.200000
 20
20.800000
  8
2
 62
7
  6
CONTINUOUS
  0
VERTEX
 10
29.000000
 20
20.500000
  8
2
 62
7
  6
CONTINUOUS
  0
VERTEX
 10
26.000000
 20
20.500000
  8
2
 62
7
  6
CONTINUOUS
  0
VERTEX
 10
25.800000
 20
20.800000
  8
2
 62
7
  6
CONTINUOUS
  0
VERTEX
 10
25.600000
 20
21.300000
  8
2
 62
7
  6
CONTINUOUS
  0
SEQEND
  0
POLYLINE
  8
2
 62
7
  6
CONTINUOUS
 70
0
 66
1
  0
VERTEX
 10
25.600000
 20
21.300000
  8
2
 62
7
  6
CONTINUOUS
  0
VERTEX
 10
25.200000
 20
21.300000
  8
2
 62
7
  6
CONTINUOUS
  0
SEQEND
  0
POLYLINE
  8
2
 62
7
  6
CONTINUOUS
 70
0
 66
1
  0
VERTEX
 10
29.400000
 20
21.300000
  8
2
 62
7
  6
CONTINUOUS
  0
VERTEX
 10
29.800000
 20
21.300000
  8
2
 62
7
  6
CONTINUOUS
  0
SEQEND
  0
POLYLINE
  8
2
 62
7
  6
CONTINUOUS
 70
1
 66
1
  0
VERTEX
 10
26.300000
 20
29.900000
  8
2
 62
7
  6
CONTINUOUS
  0
VERTEX
 10
28.600000
 20
29.900000
  8
2
 62
7
  6
CONTINUOUS
  0
VERTEX
 10
29.300000
 20
28.000000
  8
2
 62
7
  6
CONTINUOUS
  0
VERTEX
 10
29.300000
 20
21.300000
  8
2
 62
7
  6
CONTINUOUS
  0
VERTEX
 10
25.700000
 20
21.300000
  8
2
 62
7
  6
CONTINUOUS
  0
VERTEX
 10
25.700000
 20
28.000000
  8
2
 62
7
  6
CONTINUOUS
  0
SEQEND
  0
POLYLINE
  8
2
 62
7
  6
CONTINUOUS
 70
1
 66
1
  0
VERTEX
 10
26.500000
 20
28.900000
  8
2
 62
7
  6
CONTINUOUS
  0
VERTEX
 10
28.400000
 20
28.900000
  8
2
 62
7
  6
CONTINUOUS
  0
VERTEX
 10
29.100000
 20
27.100000
  8
2
 62
7
  6
CONTINUOUS
  0
VERTEX
 10
29.100000
 20
20.900000
  8
2
 62
7
  6
CONTINUOUS
  0
VERTEX
 10
25.900000
 20
20.900000
  8
2
 62
7
  6
CONTINUOUS
  0
VERTEX
 10
25.900000
 20
27.100000
  8
2
 62
7
  6
CONTINUOUS
  0
SEQEND
  0
CIRCLE
  8
2
 62
7
  6
CONTINUOUS
 10
27.500000
 20
27.900000
 30
0.0
 40
0.400000
  0
POLYLINE
  8
2
 62
7
  6
CONTINUOUS
 70
1
 66
1
  0
VERTEX
 10
28.700000
 20
22.200000
 30
0.000000
  8
2
 62
7
  6
CONTINUOUS
  0
VERTEX
 10
28.700000
 20
26.800000
 30
0.000000
  8
2
 62
7
  6
CONTINUOUS
  0
VERTEX
 10
26.300000
 20
26.800000
 30
0.000000
  8
2
 62
7
  6
CONTINUOUS
  0
VERTEX
 10
26.300000
 20
22.200000
 30
0.000000
  8
2
 62
7
  6
CONTINUOUS
  0
SEQEND
  0
CIRCLE
  8
2
 62
7
  6
CONTINUOUS
 10
27.500000
 20
21.300000
 30
0.0
 40
0.400000
  0
SOLID
  8
2
 62
1
  6
CONTINUOUS
 10
29.900000
 20
69.600000
 11
29.900000
 21
70.500000
 12
25.100000
 22
69.600000
 13
25.100000
 23
70.500000
  0
POLYLINE
  8
2
 62
7
  6
CONTINUOUS
 70
1
 66
1
  0
VERTEX
 10
29.900000
 20
69.600000
 30
0.000000
  8
2
 62
7
  6
CONTINUOUS
  0
VERTEX
 10
29.900000
 20
70.500000
 30
0.000000
  8
2
 62
7
  6
CONTINUOUS
  0
VERTEX
 10
25.100000
 20
70.500000
 30
0.000000
  8
2
 62
7
  6
CONTINUOUS
  0
VERTEX
 10
25.100000
 20
69.600000
 30
0.000000
  8
2
 62
7
  6
CONTINUOUS
  0
SEQEND
  0
SOLID
  8
2
 62
254
  6
CONTINUOUS
 10
25.600000
 20
26.200000
 11
25.600000
 21
64.900000
 12
25.200000
 22
26.200000
 13
25.200000
 23
64.900000
  0
POLYLINE
  8
2
 62
7
  6
CONTINUOUS
 70
1
 66
1
  0
VERTEX
 10
25.600000
 20
26.200000
 30
0.000000
  8
2
 62
7
  6
CONTINUOUS
  0
VERTEX
 10
25.600000
 20
64.900000
 30
0.000000
  8
2
 62
7
  6
CONTINUOUS
  0
VERTEX
 10
25.200000
 20
64.900000
 30
0.000000
  8
2
 62
7
  6
CONTINUOUS
  0
VERTEX
 10
25.200000
 20
26.200000
 30
0.000000
  8
2
 62
7
  6
CONTINUOUS
  0
SEQEND
  0
POLYLINE
  8
2
 62
7
  6
CONTINUOUS
 70
1
 66
1
  0
VERTEX
 10
25.600000
 20
18.200000
 30
0.000000
  8
2
 62
7
  6
CONTINUOUS
  0
VERTEX
 10
25.600000
 20
21.300000
 30
0.000000
  8
2
 62
7
  6
CONTINUOUS
  0
VERTEX
 10
25.200000
 20
21.300000
 30
0.000000
  8
2
 62
7
  6
CONTINUOUS
  0
VERTEX
 10
25.200000
 20
18.200000
 30
0.000000
  8
2
 62
7
  6
CONTINUOUS
  0
SEQEND
  0
POLYLINE
  8
2
 62
7
  6
CONTINUOUS
 70
1
 66
1
  0
VERTEX
 10
25.600000
 20
55.200000
 30
0.000000
  8
2
 62
7
  6
CONTINUOUS
  0
VERTEX
 10
25.600000
 20
58.300000
 30
0.000000
  8
2
 62
7
  6
CONTINUOUS
  0
VERTEX
 10
25.200000
 20
58.300000
 30
0.000000
  8
2
 62
7
  6
CONTINUOUS
  0
VERTEX
 10
25.200000
 20
55.200000
 30
0.000000
  8
2
 62
7
  6
CONTINUOUS
  0
SEQEND
  0
POLYLINE
  8
2
 62
7
  6
CONTINUOUS
 70
1
 66
1
  0
VERTEX
 10
29.800000
 20
55.200000
 30
0.000000
  8
2
 62
7
  6
CONTINUOUS
  0
VERTEX
 10
29.800000
 20
58.300000
 30
0.000000
  8
2
 62
7
  6
CONTINUOUS
  0
VERTEX
 10
29.400000
 20
58.300000
 30
0.000000
  8
2
 62
7
  6
CONTINUOUS
  0
VERTEX
 10
29.400000
 20
55.200000
 30
0.000000
  8
2
 62
7
  6
CONTINUOUS
  0
SEQEND
  0
POLYLINE
  8
2
 62
7
  6
CONTINUOUS
 70
1
 66
1
  0
VERTEX
 10
29.800000
 20
18.200000
 30
0.000000
  8
2
 62
7
  6
CONTINUOUS
  0
VERTEX
 10
29.800000
 20
21.300000
 30
0.000000
  8
2
 62
7
  6
CONTINUOUS
  0
VERTEX
 10
29.400000
 20
21.300000
 30
0.000000
  8
2
 62
7
  6
CONTINUOUS
  0
VERTEX
 10
29.400000
 20
18.200000
 30
0.000000
  8
2
 62
7
  6
CONTINUOUS
  0
SEQEND
  0
SOLID
  8
2
 62
254
  6
CONTINUOUS
 10
29.800000
 20
26.200000
 11
29.800000
 21
64.900000
 12
29.400000
 22
26.200000
 13
29.400000
 23
64.900000
  0
POLYLINE
  8
2
 62
7
  6
CONTINUOUS
 70
1
 66
1
  0
VERTEX
 10
29.800000
 20
26.200000
 30
0.000000
  8
2
 62
7
  6
CONTINUOUS
  0
VERTEX
 10
29.800000
 20
64.900000
 30
0.000000
  8
2
 62
7
  6
CONTINUOUS
  0
VERTEX
 10
29.400000
 20
64.900000
 30
0.000000
  8
2
 62
7
  6
CONTINUOUS
  0
VERTEX
 10
29.400000
 20
26.200000
 30
0.000000
  8
2
 62
7
  6
CONTINUOUS
  0
SEQEND
  0
POLYLINE
  8
2
 62
7
  6
CONTINUOUS
 70
1
 66
1
  0
VERTEX
 10
26.300000
 20
50.200000
  8
2
 62
7
  6
CONTINUOUS
  0
VERTEX
 10
28.700000
 20
50.200000
  8
2
 62
7
  6
CONTINUOUS
  0
VERTEX
 10
29.800000
 20
49.500000
  8
2
 62
7
  6
CONTINUOUS
  0
VERTEX
 10
29.800000
 20
39.800000
  8
2
 62
7
  6
CONTINUOUS
  0
VERTEX
 10
29.400000
 20
39.800000
  8
2
 62
7
  6
CONTINUOUS
  0
VERTEX
 10
29.400000
 20
47.900000
  8
2
 62
7
  6
CONTINUOUS
  0
VERTEX
 10
28.700000
 20
48.700000
  8
2
 62
7
  6
CONTINUOUS
  0
VERTEX
 10
26.300000
 20
48.700000
  8
2
 62
7
  6
CONTINUOUS
  0
VERTEX
 10
25.600000
 20
47.900000
  8
2
 62
7
  6
CONTINUOUS
  0
VERTEX
 10
25.600000
 20
39.800000
  8
2
 62
7
  6
CONTINUOUS
  0
VERTEX
 10
25.200000
 20
39.800000
  8
2
 62
7
  6
CONTINUOUS
  0
VERTEX
 10
25.200000
 20
49.400000
  8
2
 62
7
  6
CONTINUOUS
  0
SEQEND
  0
SOLID
  8
2
 62
255
  6
CONTINUOUS
 10
34.900000
 20
6.600000
 11
34.900000
 21
71.600000
 12
30.100000
 22
6.600000
 13
30.100000
 23
71.600000
  0
POLYLINE
  8
2
 62
7
  6
CONTINUOUS
 70
1
 66
1
  0
VERTEX
 10
34.900000
 20
6.600000
 30
0.000000
  8
2
 62
7
  6
CONTINUOUS
  0
VERTEX
 10
34.900000
 20
71.600000
 30
0.000000
  8
2
 62
7
  6
CONTINUOUS
  0
VERTEX
 10
30.100000
 20
71.600000
 30
0.000000
  8
2
 62
7
  6
CONTINUOUS
  0
VERTEX
 10
30.100000
 20
6.600000
 30
0.000000
  8
2
 62
7
  6
CONTINUOUS
  0
SEQEND
  0
POLYLINE
  8
2
 62
7
  6
L000000000000000000
 70
0
 66
1
  0
VERTEX
 10
32.500000
 20
71.600000
  8
2
 62
7
  6
L000000000000000000
  0
VERTEX
 10
32.500000
 20
67.200000
  8
2
 62
7
  6
L000000000000000000
  0
SEQEND
  0
POLYLINE
  8
2
 62
7
  6
L000000000000000000
 70
0
 66
1
  0
VERTEX
 10
32.500000
 20
57.500000
  8
2
 62
7
  6
L000000000000000000
  0
VERTEX
 10
32.500000
 20
50.200000
  8
2
 62
7
  6
L000000000000000000
  0
SEQEND
  0
POLYLINE
  8
2
 62
7
  6
L000000000000000000
 70
0
 66
1
  0
VERTEX
 10
32.500000
 20
39.000000
  8
2
 62
7
  6
L000000000000000000
  0
VERTEX
 10
32.500000
 20
30.200000
  8
2
 62
7
  6
L000000000000000000
  0
SEQEND
  0
POLYLINE
  8
2
 62
7
  6
L000000000000000000
 70
0
 66
1
  0
VERTEX
 10
32.500000
 20
20.500000
  8
2
 62
7
  6
L000000000000000000
  0
VERTEX
 10
32.500000
 20
15.000000
  8
2
 62
7
  6
L000000000000000000
  0
SEQEND
  0
POLYLINE
  8
2
 62
7
  6
CONTINUOUS
 70
0
 66
1
  0
VERTEX
 10
30.100000
 20
14.300000
  8
2
 62
7
  6
CONTINUOUS
  0
VERTEX
 10
30.900000
 20
14.300000
  8
2
 62
7
  6
CONTINUOUS
  0
VERTEX
 10
30.900000
 20
15.000000
  8
2
 62
7
  6
CONTINUOUS
  0
VERTEX
 10
34.100000
 20
15.000000
  8
2
 62
7
  6
CONTINUOUS
  0
VERTEX
 10
34.100000
 20
14.300000
  8
2
 62
7
  6
CONTINUOUS
  0
VERTEX
 10
34.900000
 20
14.300000
  8
2
 62
7
  6
CONTINUOUS
  0
SEQEND
  0
POLYLINE
  8
2
 62
7
  6
CONTINUOUS
 70
1
 66
1
  0
VERTEX
 10
34.300000
 20
7.100000
 30
0.000000
  8
2
 62
7
  6
CONTINUOUS
  0
VERTEX
 10
34.300000
 20
11.400000
 30
0.000000
  8
2
 62
7
  6
CONTINUOUS
  0
VERTEX
 10
30.800000
 20
11.400000
 30
0.000000
  8
2
 62
7
  6
CONTINUOUS
  0
VERTEX
 10
30.800000
 20
7.100000
 30
0.000000
  8
2
 62
7
  6
CONTINUOUS
  0
SEQEND
  0
POLYLINE
  8
2
 62
7
  6
CONTINUOUS
 70
1
 66
1
  0
VERTEX
 10
33.900000
 20
7.500000
 30
0.000000
  8
2
 62
7
  6
CONTINUOUS
  0
VERTEX
 10
33.900000
 20
10.800000
 30
0.000000
  8
2
 62
7
  6
CONTINUOUS
  0
VERTEX
 10
31.200000
 20
10.800000
 30
0.000000
  8
2
 62
7
  6
CONTINUOUS
  0
VERTEX
 10
31.200000
 20
7.500000
 30
0.000000
  8
2
 62
7
  6
CONTINUOUS
  0
SEQEND
  0
POLYLINE
  8
2
 62
7
  6
CONTINUOUS
 70
0
 66
1
  0
VERTEX
 10
30.800000
 20
11.400000
  8
2
 62
7
  6
CONTINUOUS
  0
VERTEX
 10
31.200000
 20
10.800000
  8
2
 62
7
  6
CONTINUOUS
  0
SEQEND
  0
POLYLINE
  8
2
 62
7
  6
CONTINUOUS
 70
0
 66
1
  0
VERTEX
 10
34.300000
 20
11.400000
  8
2
 62
7
  6
CONTINUOUS
  0
VERTEX
 10
33.900000
 20
10.800000
  8
2
 62
7
  6
CONTINUOUS
  0
SEQEND
  0
POLYLINE
  8
2
 62
7
  6
CONTINUOUS
 70
1
 66
1
  0
VERTEX
 10
33.800000
 20
9.600000
 30
0.000000
  8
2
 62
7
  6
CONTINUOUS
  0
VERTEX
 10
33.800000
 20
10.100000
 30
0.000000
  8
2
 62
7
  6
CONTINUOUS
  0
VERTEX
 10
31.300000
 20
10.100000
 30
0.000000
  8
2
 62
7
  6
CONTINUOUS
  0
VERTEX
 10
31.300000
 20
9.600000
 30
0.000000
  8
2
 62
7
  6
CONTINUOUS
  0
SEQEND
  0
POLYLINE
  8
2
 62
7
  6
CONTINUOUS
 70
1
 66
1
  0
VERTEX
 10
33.800000
 20
8.800000
 30
0.000000
  8
2
 62
7
  6
CONTINUOUS
  0
VERTEX
 10
33.800000
 20
9.300000
 30
0.000000
  8
2
 62
7
  6
CONTINUOUS
  0
VERTEX
 10
31.300000
 20
9.300000
 30
0.000000
  8
2
 62
7
  6
CONTINUOUS
  0
VERTEX
 10
31.300000
 20
8.800000
 30
0.000000
  8
2
 62
7
  6
CONTINUOUS
  0
SEQEND
  0
POLYLINE
  8
2
 62
7
  6
CONTINUOUS
 70
1
 66
1
  0
VERTEX
 10
33.800000
 20
8.000000
 30
0.000000
  8
2
 62
7
  6
CONTINUOUS
  0
VERTEX
 10
33.800000
 20
8.500000
 30
0.000000
  8
2
 62
7
  6
CONTINUOUS
  0
VERTEX
 10
31.300000
 20
8.500000
 30
0.000000
  8
2
 62
7
  6
CONTINUOUS
  0
VERTEX
 10
31.300000
 20
8.000000
 30
0.000000
  8
2
 62
7
  6
CONTINUOUS
  0
SEQEND
  0
SOLID
  8
2
 62
1
  6
CONTINUOUS
 10
34.300000
 20
13.400000
 11
34.300000
 21
13.900000
 12
30.700000
 22
13.400000
 13
30.700000
 23
13.900000
  0
POLYLINE
  8
2
 62
7
  6
CONTINUOUS
 70
1
 66
1
  0
VERTEX
 10
34.300000
 20
13.400000
 30
0.000000
  8
2
 62
7
  6
CONTINUOUS
  0
VERTEX
 10
34.300000
 20
13.900000
 30
0.000000
  8
2
 62
7
  6
CONTINUOUS
  0
VERTEX
 10
30.700000
 20
13.900000
 30
0.000000
  8
2
 62
7
  6
CONTINUOUS
  0
VERTEX
 10
30.700000
 20
13.400000
 30
0.000000
  8
2
 62
7
  6
CONTINUOUS
  0
SEQEND
  0
POLYLINE
  8
2
 62
7
  6
CONTINUOUS
 70
1
 66
1
  0
VERTEX
 10
30.600000
 20
66.400000
  8
2
 62
7
  6
CONTINUOUS
  0
VERTEX
 10
31.300000
 20
67.200000
  8
2
 62
7
  6
CONTINUOUS
  0
VERTEX
 10
33.700000
 20
67.200000
  8
2
 62
7
  6
CONTINUOUS
  0
VERTEX
 10
34.400000
 20
66.400000
  8
2
 62
7
  6
CONTINUOUS
  0
VERTEX
 10
34.400000
 20
58.300000
  8
2
 62
7
  6
CONTINUOUS
  0
VERTEX
 10
34.200000
 20
57.800000
  8
2
 62
7
  6
CONTINUOUS
  0
VERTEX
 10
34.000000
 20
57.500000
  8
2
 62
7
  6
CONTINUOUS
  0
VERTEX
 10
31.000000
 20
57.500000
  8
2
 62
7
  6
CONTINUOUS
  0
VERTEX
 10
30.800000
 20
57.800000
  8
2
 62
7
  6
CONTINUOUS
  0
VERTEX
 10
30.600000
 20
58.300000
  8
2
 62
7
  6
CONTINUOUS
  0
SEQEND
  0
POLYLINE
  8
2
 62
7
  6
CONTINUOUS
 70
0
 66
1
  0
VERTEX
 10
30.600000
 20
58.300000
  8
2
 62
7
  6
CONTINUOUS
  0
VERTEX
 10
30.200000
 20
58.300000
  8
2
 62
7
  6
CONTINUOUS
  0
SEQEND
  0
POLYLINE
  8
2
 62
7
  6
CONTINUOUS
 70
0
 66
1
  0
VERTEX
 10
34.400000
 20
58.300000
  8
2
 62
7
  6
CONTINUOUS
  0
VERTEX
 10
34.800000
 20
58.300000
  8
2
 62
7
  6
CONTINUOUS
  0
SEQEND
  0
POLYLINE
  8
2
 62
7
  6
CONTINUOUS
 70
1
 66
1
  0
VERTEX
 10
31.300000
 20
66.900000
  8
2
 62
7
  6
CONTINUOUS
  0
VERTEX
 10
33.600000
 20
66.900000
  8
2
 62
7
  6
CONTINUOUS
  0
VERTEX
 10
34.300000
 20
65.000000
  8
2
 62
7
  6
CONTINUOUS
  0
VERTEX
 10
34.300000
 20
58.300000
  8
2
 62
7
  6
CONTINUOUS
  0
VERTEX
 10
30.700000
 20
58.300000
  8
2
 62
7
  6
CONTINUOUS
  0
VERTEX
 10
30.700000
 20
65.000000
  8
2
 62
7
  6
CONTINUOUS
  0
SEQEND
  0
POLYLINE
  8
2
 62
7
  6
CONTINUOUS
 70
1
 66
1
  0
VERTEX
 10
31.500000
 20
65.900000
  8
2
 62
7
  6
CONTINUOUS
  0
VERTEX
 10
33.400000
 20
65.900000
  8
2
 62
7
  6
CONTINUOUS
  0
VERTEX
 10
34.100000
 20
64.100000
  8
2
 62
7
  6
CONTINUOUS
  0
VERTEX
 10
34.100000
 20
57.900000
  8
2
 62
7
  6
CONTINUOUS
  0
VERTEX
 10
30.900000
 20
57.900000
  8
2
 62
7
  6
CONTINUOUS
  0
VERTEX
 10
30.900000
 20
64.100000
  8
2
 62
7
  6
CONTINUOUS
  0
SEQEND
  0
CIRCLE
  8
2
 62
7
  6
CONTINUOUS
 10
32.500000
 20
64.900000
 30
0.0
 40
0.400000
  0
POLYLINE
  8
2
 62
7
  6
CONTINUOUS
 70
1
 66
1
  0
VERTEX
 10
33.700000
 20
59.200000
 30
0.000000
  8
2
 62
7
  6
CONTINUOUS
  0
VERTEX
 10
33.700000
 20
63.800000
 30
0.000000
  8
2
 62
7
  6
CONTINUOUS
  0
VERTEX
 10
31.300000
 20
63.800000
 30
0.000000
  8
2
 62
7
  6
CONTINUOUS
  0
VERTEX
 10
31.300000
 20
59.200000
 30
0.000000
  8
2
 62
7
  6
CONTINUOUS
  0
SEQEND
  0
CIRCLE
  8
2
 62
7
  6
CONTINUOUS
 10
32.500000
 20
58.300000
 30
0.0
 40
0.400000
  0
POLYLINE
  8
2
 62
7
  6
CONTINUOUS
 70
1
 66
1
  0
VERTEX
 10
30.200000
 20
49.400000
  8
2
 62
7
  6
CONTINUOUS
  0
VERTEX
 10
31.300000
 20
50.200000
  8
2
 62
7
  6
CONTINUOUS
  0
VERTEX
 10
33.700000
 20
50.200000
  8
2
 62
7
  6
CONTINUOUS
  0
VERTEX
 10
34.800000
 20
49.500000
  8
2
 62
7
  6
CONTINUOUS
  0
VERTEX
 10
34.800000
 20
36.700000
  8
2
 62
7
  6
CONTINUOUS
  0
VERTEX
 10
34.400000
 20
36.700000
  8
2
 62
7
  6
CONTINUOUS
  0
VERTEX
 10
34.400000
 20
39.800000
  8
2
 62
7
  6
CONTINUOUS
  0
VERTEX
 10
30.600000
 20
39.800000
  8
2
 62
7
  6
CONTINUOUS
  0
VERTEX
 10
30.600000
 20
36.700000
  8
2
 62
7
  6
CONTINUOUS
  0
VERTEX
 10
30.200000
 20
36.700000
  8
2
 62
7
  6
CONTINUOUS
  0
SEQEND
  0
POLYLINE
  8
2
 62
7
  6
CONTINUOUS
 70
1
 66
1
  0
VERTEX
 10
30.600000
 20
47.900000
  8
2
 62
7
  6
CONTINUOUS
  0
VERTEX
 10
31.300000
 20
48.700000
  8
2
 62
7
  6
CONTINUOUS
  0
VERTEX
 10
33.700000
 20
48.700000
  8
2
 62
7
  6
CONTINUOUS
  0
VERTEX
 10
34.400000
 20
47.900000
  8
2
 62
7
  6
CONTINUOUS
  0
VERTEX
 10
34.400000
 20
39.800000
  8
2
 62
7
  6
CONTINUOUS
  0
VERTEX
 10
34.200000
 20
39.300000
  8
2
 62
7
  6
CONTINUOUS
  0
VERTEX
 10
34.000000
 20
39.000000
  8
2
 62
7
  6
CONTINUOUS
  0
VERTEX
 10
31.000000
 20
39.000000
  8
2
 62
7
  6
CONTINUOUS
  0
VERTEX
 10
30.800000
 20
39.300000
  8
2
 62
7
  6
CONTINUOUS
  0
VERTEX
 10
30.600000
 20
39.800000
  8
2
 62
7
  6
CONTINUOUS
  0
SEQEND
  0
POLYLINE
  8
2
 62
7
  6
CONTINUOUS
 70
0
 66
1
  0
VERTEX
 10
30.600000
 20
39.800000
  8
2
 62
7
  6
CONTINUOUS
  0
VERTEX
 10
30.200000
 20
39.800000
  8
2
 62
7
  6
CONTINUOUS
  0
SEQEND
  0
POLYLINE
  8
2
 62
7
  6
CONTINUOUS
 70
0
 66
1
  0
VERTEX
 10
34.400000
 20
39.800000
  8
2
 62
7
  6
CONTINUOUS
  0
VERTEX
 10
34.800000
 20
39.800000
  8
2
 62
7
  6
CONTINUOUS
  0
SEQEND
  0
POLYLINE
  8
2
 62
7
  6
CONTINUOUS
 70
1
 66
1
  0
VERTEX
 10
31.300000
 20
48.400000
  8
2
 62
7
  6
CONTINUOUS
  0
VERTEX
 10
33.600000
 20
48.400000
  8
2
 62
7
  6
CONTINUOUS
  0
VERTEX
 10
34.300000
 20
46.500000
  8
2
 62
7
  6
CONTINUOUS
  0
VERTEX
 10
34.300000
 20
39.800000
  8
2
 62
7
  6
CONTINUOUS
  0
VERTEX
 10
30.700000
 20
39.800000
  8
2
 62
7
  6
CONTINUOUS
  0
VERTEX
 10
30.700000
 20
46.500000
  8
2
 62
7
  6
CONTINUOUS
  0
SEQEND
  0
POLYLINE
  8
2
 62
7
  6
CONTINUOUS
 70
1
 66
1
  0
VERTEX
 10
31.500000
 20
47.400000
  8
2
 62
7
  6
CONTINUOUS
  0
VERTEX
 10
33.400000
 20
47.400000
  8
2
 62
7
  6
CONTINUOUS
  0
VERTEX
 10
34.100000
 20
45.600000
  8
2
 62
7
  6
CONTINUOUS
  0
VERTEX
 10
34.100000
 20
39.400000
  8
2
 62
7
  6
CONTINUOUS
  0
VERTEX
 10
30.900000
 20
39.400000
  8
2
 62
7
  6
CONTINUOUS
  0
VERTEX
 10
30.900000
 20
45.600000
  8
2
 62
7
  6
CONTINUOUS
  0
SEQEND
  0
CIRCLE
  8
2
 62
7
  6
CONTINUOUS
 10
32.500000
 20
46.400000
 30
0.0
 40
0.400000
  0
POLYLINE
  8
2
 62
7
  6
CONTINUOUS
 70
1
 66
1
  0
VERTEX
 10
33.700000
 20
40.700000
 30
0.000000
  8
2
 62
7
  6
CONTINUOUS
  0
VERTEX
 10
33.700000
 20
45.300000
 30
0.000000
  8
2
 62
7
  6
CONTINUOUS
  0
VERTEX
 10
31.300000
 20
45.300000
 30
0.000000
  8
2
 62
7
  6
CONTINUOUS
  0
VERTEX
 10
31.300000
 20
40.700000
 30
0.000000
  8
2
 62
7
  6
CONTINUOUS
  0
SEQEND
  0
CIRCLE
  8
2
 62
7
  6
CONTINUOUS
 10
32.500000
 20
39.800000
 30
0.0
 40
0.400000
  0
POLYLINE
  8
2
 62
7
  6
CONTINUOUS
 70
1
 66
1
  0
VERTEX
 10
30.600000
 20
29.400000
  8
2
 62
7
  6
CONTINUOUS
  0
VERTEX
 10
31.300000
 20
30.200000
  8
2
 62
7
  6
CONTINUOUS
  0
VERTEX
 10
33.700000
 20
30.200000
  8
2
 62
7
  6
CONTINUOUS
  0
VERTEX
 10
34.400000
 20
29.400000
  8
2
 62
7
  6
CONTINUOUS
  0
VERTEX
 10
34.400000
 20
21.300000
  8
2
 62
7
  6
CONTINUOUS
  0
VERTEX
 10
34.200000
 20
20.800000
  8
2
 62
7
  6
CONTINUOUS
  0
VERTEX
 10
34.000000
 20
20.500000
  8
2
 62
7
  6
CONTINUOUS
  0
VERTEX
 10
31.000000
 20
20.500000
  8
2
 62
7
  6
CONTINUOUS
  0
VERTEX
 10
30.800000
 20
20.800000
  8
2
 62
7
  6
CONTINUOUS
  0
VERTEX
 10
30.600000
 20
21.300000
  8
2
 62
7
  6
CONTINUOUS
  0
SEQEND
  0
POLYLINE
  8
2
 62
7
  6
CONTINUOUS
 70
0
 66
1
  0
VERTEX
 10
30.600000
 20
21.300000
  8
2
 62
7
  6
CONTINUOUS
  0
VERTEX
 10
30.200000
 20
21.300000
  8
2
 62
7
  6
CONTINUOUS
  0
SEQEND
  0
POLYLINE
  8
2
 62
7
  6
CONTINUOUS
 70
0
 66
1
  0
VERTEX
 10
34.400000
 20
21.300000
  8
2
 62
7
  6
CONTINUOUS
  0
VERTEX
 10
34.800000
 20
21.300000
  8
2
 62
7
  6
CONTINUOUS
  0
SEQEND
  0
POLYLINE
  8
2
 62
7
  6
CONTINUOUS
 70
1
 66
1
  0
VERTEX
 10
31.300000
 20
29.900000
  8
2
 62
7
  6
CONTINUOUS
  0
VERTEX
 10
33.600000
 20
29.900000
  8
2
 62
7
  6
CONTINUOUS
  0
VERTEX
 10
34.300000
 20
28.000000
  8
2
 62
7
  6
CONTINUOUS
  0
VERTEX
 10
34.300000
 20
21.300000
  8
2
 62
7
  6
CONTINUOUS
  0
VERTEX
 10
30.700000
 20
21.300000
  8
2
 62
7
  6
CONTINUOUS
  0
VERTEX
 10
30.700000
 20
28.000000
  8
2
 62
7
  6
CONTINUOUS
  0
SEQEND
  0
POLYLINE
  8
2
 62
7
  6
CONTINUOUS
 70
1
 66
1
  0
VERTEX
 10
31.500000
 20
28.900000
  8
2
 62
7
  6
CONTINUOUS
  0
VERTEX
 10
33.400000
 20
28.900000
  8
2
 62
7
  6
CONTINUOUS
  0
VERTEX
 10
34.100000
 20
27.100000
  8
2
 62
7
  6
CONTINUOUS
  0
VERTEX
 10
34.100000
 20
20.900000
  8
2
 62
7
  6
CONTINUOUS
  0
VERTEX
 10
30.900000
 20
20.900000
  8
2
 62
7
  6
CONTINUOUS
  0
VERTEX
 10
30.900000
 20
27.100000
  8
2
 62
7
  6
CONTINUOUS
  0
SEQEND
  0
CIRCLE
  8
2
 62
7
  6
CONTINUOUS
 10
32.500000
 20
27.900000
 30
0.0
 40
0.400000
  0
POLYLINE
  8
2
 62
7
  6
CONTINUOUS
 70
1
 66
1
  0
VERTEX
 10
33.700000
 20
22.200000
 30
0.000000
  8
2
 62
7
  6
CONTINUOUS
  0
VERTEX
 10
33.700000
 20
26.800000
 30
0.000000
  8
2
 62
7
  6
CONTINUOUS
  0
VERTEX
 10
31.300000
 20
26.800000
 30
0.000000
  8
2
 62
7
  6
CONTINUOUS
  0
VERTEX
 10
31.300000
 20
22.200000
 30
0.000000
  8
2
 62
7
  6
CONTINUOUS
  0
SEQEND
  0
CIRCLE
  8
2
 62
7
  6
CONTINUOUS
 10
32.500000
 20
21.300000
 30
0.0
 40
0.400000
  0
SOLID
  8
2
 62
1
  6
CONTINUOUS
 10
34.900000
 20
69.600000
 11
34.900000
 21
70.500000
 12
30.100000
 22
69.600000
 13
30.100000
 23
70.500000
  0
POLYLINE
  8
2
 62
7
  6
CONTINUOUS
 70
1
 66
1
  0
VERTEX
 10
34.900000
 20
69.600000
 30
0.000000
  8
2
 62
7
  6
CONTINUOUS
  0
VERTEX
 10
34.900000
 20
70.500000
 30
0.000000
  8
2
 62
7
  6
CONTINUOUS
  0
VERTEX
 10
30.100000
 20
70.500000
 30
0.000000
  8
2
 62
7
  6
CONTINUOUS
  0
VERTEX
 10
30.100000
 20
69.600000
 30
0.000000
  8
2
 62
7
  6
CONTINUOUS
  0
SEQEND
  0
SOLID
  8
2
 62
254
  6
CONTINUOUS
 10
30.600000
 20
26.200000
 11
30.600000
 21
64.900000
 12
30.200000
 22
26.200000
 13
30.200000
 23
64.900000
  0
POLYLINE
  8
2
 62
7
  6
CONTINUOUS
 70
1
 66
1
  0
VERTEX
 10
30.600000
 20
26.200000
 30
0.000000
  8
2
 62
7
  6
CONTINUOUS
  0
VERTEX
 10
30.600000
 20
64.900000
 30
0.000000
  8
2
 62
7
  6
CONTINUOUS
  0
VERTEX
 10
30.200000
 20
64.900000
 30
0.000000
  8
2
 62
7
  6
CONTINUOUS
  0
VERTEX
 10
30.200000
 20
26.200000
 30
0.000000
  8
2
 62
7
  6
CONTINUOUS
  0
SEQEND
  0
POLYLINE
  8
2
 62
7
  6
CONTINUOUS
 70
1
 66
1
  0
VERTEX
 10
30.600000
 20
18.200000
 30
0.000000
  8
2
 62
7
  6
CONTINUOUS
  0
VERTEX
 10
30.600000
 20
21.300000
 30
0.000000
  8
2
 62
7
  6
CONTINUOUS
  0
VERTEX
 10
30.200000
 20
21.300000
 30
0.000000
  8
2
 62
7
  6
CONTINUOUS
  0
VERTEX
 10
30.200000
 20
18.200000
 30
0.000000
  8
2
 62
7
  6
CONTINUOUS
  0
SEQEND
  0
POLYLINE
  8
2
 62
7
  6
CONTINUOUS
 70
1
 66
1
  0
VERTEX
 10
30.600000
 20
55.200000
 30
0.000000
  8
2
 62
7
  6
CONTINUOUS
  0
VERTEX
 10
30.600000
 20
58.300000
 30
0.000000
  8
2
 62
7
  6
CONTINUOUS
  0
VERTEX
 10
30.200000
 20
58.300000
 30
0.000000
  8
2
 62
7
  6
CONTINUOUS
  0
VERTEX
 10
30.200000
 20
55.200000
 30
0.000000
  8
2
 62
7
  6
CONTINUOUS
  0
SEQEND
  0
POLYLINE
  8
2
 62
7
  6
CONTINUOUS
 70
1
 66
1
  0
VERTEX
 10
34.800000
 20
55.200000
 30
0.000000
  8
2
 62
7
  6
CONTINUOUS
  0
VERTEX
 10
34.800000
 20
58.300000
 30
0.000000
  8
2
 62
7
  6
CONTINUOUS
  0
VERTEX
 10
34.400000
 20
58.300000
 30
0.000000
  8
2
 62
7
  6
CONTINUOUS
  0
VERTEX
 10
34.400000
 20
55.200000
 30
0.000000
  8
2
 62
7
  6
CONTINUOUS
  0
SEQEND
  0
POLYLINE
  8
2
 62
7
  6
CONTINUOUS
 70
1
 66
1
  0
VERTEX
 10
34.800000
 20
18.200000
 30
0.000000
  8
2
 62
7
  6
CONTINUOUS
  0
VERTEX
 10
34.800000
 20
21.300000
 30
0.000000
  8
2
 62
7
  6
CONTINUOUS
  0
VERTEX
 10
34.400000
 20
21.300000
 30
0.000000
  8
2
 62
7
  6
CONTINUOUS
  0
VERTEX
 10
34.400000
 20
18.200000
 30
0.000000
  8
2
 62
7
  6
CONTINUOUS
  0
SEQEND
  0
SOLID
  8
2
 62
254
  6
CONTINUOUS
 10
34.800000
 20
26.200000
 11
34.800000
 21
64.900000
 12
34.400000
 22
26.200000
 13
34.400000
 23
64.900000
  0
POLYLINE
  8
2
 62
7
  6
CONTINUOUS
 70
1
 66
1
  0
VERTEX
 10
34.800000
 20
26.200000
 30
0.000000
  8
2
 62
7
  6
CONTINUOUS
  0
VERTEX
 10
34.800000
 20
64.900000
 30
0.000000
  8
2
 62
7
  6
CONTINUOUS
  0
VERTEX
 10
34.400000
 20
64.900000
 30
0.000000
  8
2
 62
7
  6
CONTINUOUS
  0
VERTEX
 10
34.400000
 20
26.200000
 30
0.000000
  8
2
 62
7
  6
CONTINUOUS
  0
SEQEND
  0
POLYLINE
  8
2
 62
7
  6
CONTINUOUS
 70
1
 66
1
  0
VERTEX
 10
31.300000
 20
50.200000
  8
2
 62
7
  6
CONTINUOUS
  0
VERTEX
 10
33.700000
 20
50.200000
  8
2
 62
7
  6
CONTINUOUS
  0
VERTEX
 10
34.800000
 20
49.500000
  8
2
 62
7
  6
CONTINUOUS
  0
VERTEX
 10
34.800000
 20
39.800000
  8
2
 62
7
  6
CONTINUOUS
  0
VERTEX
 10
34.400000
 20
39.800000
  8
2
 62
7
  6
CONTINUOUS
  0
VERTEX
 10
34.400000
 20
47.900000
  8
2
 62
7
  6
CONTINUOUS
  0
VERTEX
 10
33.700000
 20
48.700000
  8
2
 62
7
  6
CONTINUOUS
  0
VERTEX
 10
31.300000
 20
48.700000
  8
2
 62
7
  6
CONTINUOUS
  0
VERTEX
 10
30.600000
 20
47.900000
  8
2
 62
7
  6
CONTINUOUS
  0
VERTEX
 10
30.600000
 20
39.800000
  8
2
 62
7
  6
CONTINUOUS
  0
VERTEX
 10
30.200000
 20
39.800000
  8
2
 62
7
  6
CONTINUOUS
  0
VERTEX
 10
30.200000
 20
49.400000
  8
2
 62
7
  6
CONTINUOUS
  0
SEQEND
  0
SOLID
  8
2
 62
255
  6
CONTINUOUS
 10
44.900000
 20
6.600000
 11
44.900000
 21
71.600000
 12
40.100000
 22
6.600000
 13
40.100000
 23
71.600000
  0
POLYLINE
  8
2
 62
7
  6
CONTINUOUS
 70
1
 66
1
  0
VERTEX
 10
44.900000
 20
6.600000
 30
0.000000
  8
2
 62
7
  6
CONTINUOUS
  0
VERTEX
 10
44.900000
 20
71.600000
 30
0.000000
  8
2
 62
7
  6
CONTINUOUS
  0
VERTEX
 10
40.100000
 20
71.600000
 30
0.000000
  8
2
 62
7
  6
CONTINUOUS
  0
VERTEX
 10
40.100000
 20
6.600000
 30
0.000000
  8
2
 62
7
  6
CONTINUOUS
  0
SEQEND
  0
POLYLINE
  8
2
 62
7
  6
L000000000000000000
 70
0
 66
1
  0
VERTEX
 10
42.500000
 20
71.600000
  8
2
 62
7
  6
L000000000000000000
  0
VERTEX
 10
42.500000
 20
67.200000
  8
2
 62
7
  6
L000000000000000000
  0
SEQEND
  0
POLYLINE
  8
2
 62
7
  6
L000000000000000000
 70
0
 66
1
  0
VERTEX
 10
42.500000
 20
57.500000
  8
2
 62
7
  6
L000000000000000000
  0
VERTEX
 10
42.500000
 20
50.200000
  8
2
 62
7
  6
L000000000000000000
  0
SEQEND
  0
POLYLINE
  8
2
 62
7
  6
L000000000000000000
 70
0
 66
1
  0
VERTEX
 10
42.500000
 20
39.000000
  8
2
 62
7
  6
L000000000000000000
  0
VERTEX
 10
42.500000
 20
30.200000
  8
2
 62
7
  6
L000000000000000000
  0
SEQEND
  0
POLYLINE
  8
2
 62
7
  6
L000000000000000000
 70
0
 66
1
  0
VERTEX
 10
42.500000
 20
20.500000
  8
2
 62
7
  6
L000000000000000000
  0
VERTEX
 10
42.500000
 20
15.000000
  8
2
 62
7
  6
L000000000000000000
  0
SEQEND
  0
POLYLINE
  8
2
 62
7
  6
CONTINUOUS
 70
0
 66
1
  0
VERTEX
 10
40.100000
 20
14.300000
  8
2
 62
7
  6
CONTINUOUS
  0
VERTEX
 10
40.900000
 20
14.300000
  8
2
 62
7
  6
CONTINUOUS
  0
VERTEX
 10
40.900000
 20
15.000000
  8
2
 62
7
  6
CONTINUOUS
  0
VERTEX
 10
44.100000
 20
15.000000
  8
2
 62
7
  6
CONTINUOUS
  0
VERTEX
 10
44.100000
 20
14.300000
  8
2
 62
7
  6
CONTINUOUS
  0
VERTEX
 10
44.900000
 20
14.300000
  8
2
 62
7
  6
CONTINUOUS
  0
SEQEND
  0
POLYLINE
  8
2
 62
7
  6
CONTINUOUS
 70
1
 66
1
  0
VERTEX
 10
44.300000
 20
7.100000
 30
0.000000
  8
2
 62
7
  6
CONTINUOUS
  0
VERTEX
 10
44.300000
 20
11.400000
 30
0.000000
  8
2
 62
7
  6
CONTINUOUS
  0
VERTEX
 10
40.800000
 20
11.400000
 30
0.000000
  8
2
 62
7
  6
CONTINUOUS
  0
VERTEX
 10
40.800000
 20
7.100000
 30
0.000000
  8
2
 62
7
  6
CONTINUOUS
  0
SEQEND
  0
POLYLINE
  8
2
 62
7
  6
CONTINUOUS
 70
1
 66
1
  0
VERTEX
 10
43.900000
 20
7.500000
 30
0.000000
  8
2
 62
7
  6
CONTINUOUS
  0
VERTEX
 10
43.900000
 20
10.800000
 30
0.000000
  8
2
 62
7
  6
CONTINUOUS
  0
VERTEX
 10
41.200000
 20
10.800000
 30
0.000000
  8
2
 62
7
  6
CONTINUOUS
  0
VERTEX
 10
41.200000
 20
7.500000
 30
0.000000
  8
2
 62
7
  6
CONTINUOUS
  0
SEQEND
  0
POLYLINE
  8
2
 62
7
  6
CONTINUOUS
 70
0
 66
1
  0
VERTEX
 10
40.800000
 20
11.400000
  8
2
 62
7
  6
CONTINUOUS
  0
VERTEX
 10
41.200000
 20
10.800000
  8
2
 62
7
  6
CONTINUOUS
  0
SEQEND
  0
POLYLINE
  8
2
 62
7
  6
CONTINUOUS
 70
0
 66
1
  0
VERTEX
 10
44.300000
 20
11.400000
  8
2
 62
7
  6
CONTINUOUS
  0
VERTEX
 10
43.900000
 20
10.800000
  8
2
 62
7
  6
CONTINUOUS
  0
SEQEND
  0
POLYLINE
  8
2
 62
7
  6
CONTINUOUS
 70
1
 66
1
  0
VERTEX
 10
43.800000
 20
9.600000
 30
0.000000
  8
2
 62
7
  6
CONTINUOUS
  0
VERTEX
 10
43.800000
 20
10.100000
 30
0.000000
  8
2
 62
7
  6
CONTINUOUS
  0
VERTEX
 10
41.300000
 20
10.100000
 30
0.000000
  8
2
 62
7
  6
CONTINUOUS
  0
VERTEX
 10
41.300000
 20
9.600000
 30
0.000000
  8
2
 62
7
  6
CONTINUOUS
  0
SEQEND
  0
POLYLINE
  8
2
 62
7
  6
CONTINUOUS
 70
1
 66
1
  0
VERTEX
 10
43.800000
 20
8.800000
 30
0.000000
  8
2
 62
7
  6
CONTINUOUS
  0
VERTEX
 10
43.800000
 20
9.300000
 30
0.000000
  8
2
 62
7
  6
CONTINUOUS
  0
VERTEX
 10
41.300000
 20
9.300000
 30
0.000000
  8
2
 62
7
  6
CONTINUOUS
  0
VERTEX
 10
41.300000
 20
8.800000
 30
0.000000
  8
2
 62
7
  6
CONTINUOUS
  0
SEQEND
  0
POLYLINE
  8
2
 62
7
  6
CONTINUOUS
 70
1
 66
1
  0
VERTEX
 10
43.800000
 20
8.000000
 30
0.000000
  8
2
 62
7
  6
CONTINUOUS
  0
VERTEX
 10
43.800000
 20
8.500000
 30
0.000000
  8
2
 62
7
  6
CONTINUOUS
  0
VERTEX
 10
41.300000
 20
8.500000
 30
0.000000
  8
2
 62
7
  6
CONTINUOUS
  0
VERTEX
 10
41.300000
 20
8.000000
 30
0.000000
  8
2
 62
7
  6
CONTINUOUS
  0
SEQEND
  0
SOLID
  8
2
 62
1
  6
CONTINUOUS
 10
44.300000
 20
13.400000
 11
44.300000
 21
13.900000
 12
40.700000
 22
13.400000
 13
40.700000
 23
13.900000
  0
POLYLINE
  8
2
 62
7
  6
CONTINUOUS
 70
1
 66
1
  0
VERTEX
 10
44.300000
 20
13.400000
 30
0.000000
  8
2
 62
7
  6
CONTINUOUS
  0
VERTEX
 10
44.300000
 20
13.900000
 30
0.000000
  8
2
 62
7
  6
CONTINUOUS
  0
VERTEX
 10
40.700000
 20
13.900000
 30
0.000000
  8
2
 62
7
  6
CONTINUOUS
  0
VERTEX
 10
40.700000
 20
13.400000
 30
0.000000
  8
2
 62
7
  6
CONTINUOUS
  0
SEQEND
  0
POLYLINE
  8
2
 62
7
  6
CONTINUOUS
 70
1
 66
1
  0
VERTEX
 10
40.600000
 20
66.400000
  8
2
 62
7
  6
CONTINUOUS
  0
VERTEX
 10
41.300000
 20
67.200000
  8
2
 62
7
  6
CONTINUOUS
  0
VERTEX
 10
43.700000
 20
67.200000
  8
2
 62
7
  6
CONTINUOUS
  0
VERTEX
 10
44.400000
 20
66.400000
  8
2
 62
7
  6
CONTINUOUS
  0
VERTEX
 10
44.400000
 20
58.300000
  8
2
 62
7
  6
CONTINUOUS
  0
VERTEX
 10
44.200000
 20
57.800000
  8
2
 62
7
  6
CONTINUOUS
  0
VERTEX
 10
44.000000
 20
57.500000
  8
2
 62
7
  6
CONTINUOUS
  0
VERTEX
 10
41.000000
 20
57.500000
  8
2
 62
7
  6
CONTINUOUS
  0
VERTEX
 10
40.800000
 20
57.800000
  8
2
 62
7
  6
CONTINUOUS
  0
VERTEX
 10
40.600000
 20
58.300000
  8
2
 62
7
  6
CONTINUOUS
  0
SEQEND
  0
POLYLINE
  8
2
 62
7
  6
CONTINUOUS
 70
0
 66
1
  0
VERTEX
 10
40.600000
 20
58.300000
  8
2
 62
7
  6
CONTINUOUS
  0
VERTEX
 10
40.200000
 20
58.300000
  8
2
 62
7
  6
CONTINUOUS
  0
SEQEND
  0
POLYLINE
  8
2
 62
7
  6
CONTINUOUS
 70
0
 66
1
  0
VERTEX
 10
44.400000
 20
58.300000
  8
2
 62
7
  6
CONTINUOUS
  0
VERTEX
 10
44.800000
 20
58.300000
  8
2
 62
7
  6
CONTINUOUS
  0
SEQEND
  0
POLYLINE
  8
2
 62
7
  6
CONTINUOUS
 70
1
 66
1
  0
VERTEX
 10
41.300000
 20
66.900000
  8
2
 62
7
  6
CONTINUOUS
  0
VERTEX
 10
43.600000
 20
66.900000
  8
2
 62
7
  6
CONTINUOUS
  0
VERTEX
 10
44.300000
 20
65.000000
  8
2
 62
7
  6
CONTINUOUS
  0
VERTEX
 10
44.300000
 20
58.300000
  8
2
 62
7
  6
CONTINUOUS
  0
VERTEX
 10
40.700000
 20
58.300000
  8
2
 62
7
  6
CONTINUOUS
  0
VERTEX
 10
40.700000
 20
65.000000
  8
2
 62
7
  6
CONTINUOUS
  0
SEQEND
  0
POLYLINE
  8
2
 62
7
  6
CONTINUOUS
 70
1
 66
1
  0
VERTEX
 10
41.500000
 20
65.900000
  8
2
 62
7
  6
CONTINUOUS
  0
VERTEX
 10
43.400000
 20
65.900000
  8
2
 62
7
  6
CONTINUOUS
  0
VERTEX
 10
44.100000
 20
64.100000
  8
2
 62
7
  6
CONTINUOUS
  0
VERTEX
 10
44.100000
 20
57.900000
  8
2
 62
7
  6
CONTINUOUS
  0
VERTEX
 10
40.900000
 20
57.900000
  8
2
 62
7
  6
CONTINUOUS
  0
VERTEX
 10
40.900000
 20
64.100000
  8
2
 62
7
  6
CONTINUOUS
  0
SEQEND
  0
CIRCLE
  8
2
 62
7
  6
CONTINUOUS
 10
42.500000
 20
64.900000
 30
0.0
 40
0.400000
  0
POLYLINE
  8
2
 62
7
  6
CONTINUOUS
 70
1
 66
1
  0
VERTEX
 10
43.700000
 20
59.200000
 30
0.000000
  8
2
 62
7
  6
CONTINUOUS
  0
VERTEX
 10
43.700000
 20
63.800000
 30
0.000000
  8
2
 62
7
  6
CONTINUOUS
  0
VERTEX
 10
41.300000
 20
63.800000
 30
0.000000
  8
2
 62
7
  6
CONTINUOUS
  0
VERTEX
 10
41.300000
 20
59.200000
 30
0.000000
  8
2
 62
7
  6
CONTINUOUS
  0
SEQEND
  0
CIRCLE
  8
2
 62
7
  6
CONTINUOUS
 10
42.500000
 20
58.300000
 30
0.0
 40
0.400000
  0
POLYLINE
  8
2
 62
7
  6
CONTINUOUS
 70
1
 66
1
  0
VERTEX
 10
40.200000
 20
49.400000
  8
2
 62
7
  6
CONTINUOUS
  0
VERTEX
 10
41.300000
 20
50.200000
  8
2
 62
7
  6
CONTINUOUS
  0
VERTEX
 10
43.700000
 20
50.200000
  8
2
 62
7
  6
CONTINUOUS
  0
VERTEX
 10
44.800000
 20
49.500000
  8
2
 62
7
  6
CONTINUOUS
  0
VERTEX
 10
44.800000
 20
36.700000
  8
2
 62
7
  6
CONTINUOUS
  0
VERTEX
 10
44.400000
 20
36.700000
  8
2
 62
7
  6
CONTINUOUS
  0
VERTEX
 10
44.400000
 20
39.800000
  8
2
 62
7
  6
CONTINUOUS
  0
VERTEX
 10
40.600000
 20
39.800000
  8
2
 62
7
  6
CONTINUOUS
  0
VERTEX
 10
40.600000
 20
36.700000
  8
2
 62
7
  6
CONTINUOUS
  0
VERTEX
 10
40.200000
 20
36.700000
  8
2
 62
7
  6
CONTINUOUS
  0
SEQEND
  0
POLYLINE
  8
2
 62
7
  6
CONTINUOUS
 70
1
 66
1
  0
VERTEX
 10
40.600000
 20
47.900000
  8
2
 62
7
  6
CONTINUOUS
  0
VERTEX
 10
41.300000
 20
48.700000
  8
2
 62
7
  6
CONTINUOUS
  0
VERTEX
 10
43.700000
 20
48.700000
  8
2
 62
7
  6
CONTINUOUS
  0
VERTEX
 10
44.400000
 20
47.900000
  8
2
 62
7
  6
CONTINUOUS
  0
VERTEX
 10
44.400000
 20
39.800000
  8
2
 62
7
  6
CONTINUOUS
  0
VERTEX
 10
44.200000
 20
39.300000
  8
2
 62
7
  6
CONTINUOUS
  0
VERTEX
 10
44.000000
 20
39.000000
  8
2
 62
7
  6
CONTINUOUS
  0
VERTEX
 10
41.000000
 20
39.000000
  8
2
 62
7
  6
CONTINUOUS
  0
VERTEX
 10
40.800000
 20
39.300000
  8
2
 62
7
  6
CONTINUOUS
  0
VERTEX
 10
40.600000
 20
39.800000
  8
2
 62
7
  6
CONTINUOUS
  0
SEQEND
  0
POLYLINE
  8
2
 62
7
  6
CONTINUOUS
 70
0
 66
1
  0
VERTEX
 10
40.600000
 20
39.800000
  8
2
 62
7
  6
CONTINUOUS
  0
VERTEX
 10
40.200000
 20
39.800000
  8
2
 62
7
  6
CONTINUOUS
  0
SEQEND
  0
POLYLINE
  8
2
 62
7
  6
CONTINUOUS
 70
0
 66
1
  0
VERTEX
 10
44.400000
 20
39.800000
  8
2
 62
7
  6
CONTINUOUS
  0
VERTEX
 10
44.800000
 20
39.800000
  8
2
 62
7
  6
CONTINUOUS
  0
SEQEND
  0
POLYLINE
  8
2
 62
7
  6
CONTINUOUS
 70
1
 66
1
  0
VERTEX
 10
41.300000
 20
48.400000
  8
2
 62
7
  6
CONTINUOUS
  0
VERTEX
 10
43.600000
 20
48.400000
  8
2
 62
7
  6
CONTINUOUS
  0
VERTEX
 10
44.300000
 20
46.500000
  8
2
 62
7
  6
CONTINUOUS
  0
VERTEX
 10
44.300000
 20
39.800000
  8
2
 62
7
  6
CONTINUOUS
  0
VERTEX
 10
40.700000
 20
39.800000
  8
2
 62
7
  6
CONTINUOUS
  0
VERTEX
 10
40.700000
 20
46.500000
  8
2
 62
7
  6
CONTINUOUS
  0
SEQEND
  0
POLYLINE
  8
2
 62
7
  6
CONTINUOUS
 70
1
 66
1
  0
VERTEX
 10
41.500000
 20
47.400000
  8
2
 62
7
  6
CONTINUOUS
  0
VERTEX
 10
43.400000
 20
47.400000
  8
2
 62
7
  6
CONTINUOUS
  0
VERTEX
 10
44.100000
 20
45.600000
  8
2
 62
7
  6
CONTINUOUS
  0
VERTEX
 10
44.100000
 20
39.400000
  8
2
 62
7
  6
CONTINUOUS
  0
VERTEX
 10
40.900000
 20
39.400000
  8
2
 62
7
  6
CONTINUOUS
  0
VERTEX
 10
40.900000
 20
45.600000
  8
2
 62
7
  6
CONTINUOUS
  0
SEQEND
  0
CIRCLE
  8
2
 62
7
  6
CONTINUOUS
 10
42.500000
 20
46.400000
 30
0.0
 40
0.400000
  0
POLYLINE
  8
2
 62
7
  6
CONTINUOUS
 70
1
 66
1
  0
VERTEX
 10
43.700000
 20
40.700000
 30
0.000000
  8
2
 62
7
  6
CONTINUOUS
  0
VERTEX
 10
43.700000
 20
45.300000
 30
0.000000
  8
2
 62
7
  6
CONTINUOUS
  0
VERTEX
 10
41.300000
 20
45.300000
 30
0.000000
  8
2
 62
7
  6
CONTINUOUS
  0
VERTEX
 10
41.300000
 20
40.700000
 30
0.000000
  8
2
 62
7
  6
CONTINUOUS
  0
SEQEND
  0
CIRCLE
  8
2
 62
7
  6
CONTINUOUS
 10
42.500000
 20
39.800000
 30
0.0
 40
0.400000
  0
POLYLINE
  8
2
 62
7
  6
CONTINUOUS
 70
1
 66
1
  0
VERTEX
 10
40.600000
 20
29.400000
  8
2
 62
7
  6
CONTINUOUS
  0
VERTEX
 10
41.300000
 20
30.200000
  8
2
 62
7
  6
CONTINUOUS
  0
VERTEX
 10
43.700000
 20
30.200000
  8
2
 62
7
  6
CONTINUOUS
  0
VERTEX
 10
44.400000
 20
29.400000
  8
2
 62
7
  6
CONTINUOUS
  0
VERTEX
 10
44.400000
 20
21.300000
  8
2
 62
7
  6
CONTINUOUS
  0
VERTEX
 10
44.200000
 20
20.800000
  8
2
 62
7
  6
CONTINUOUS
  0
VERTEX
 10
44.000000
 20
20.500000
  8
2
 62
7
  6
CONTINUOUS
  0
VERTEX
 10
41.000000
 20
20.500000
  8
2
 62
7
  6
CONTINUOUS
  0
VERTEX
 10
40.800000
 20
20.800000
  8
2
 62
7
  6
CONTINUOUS
  0
VERTEX
 10
40.600000
 20
21.300000
  8
2
 62
7
  6
CONTINUOUS
  0
SEQEND
  0
POLYLINE
  8
2
 62
7
  6
CONTINUOUS
 70
0
 66
1
  0
VERTEX
 10
40.600000
 20
21.300000
  8
2
 62
7
  6
CONTINUOUS
  0
VERTEX
 10
40.200000
 20
21.300000
  8
2
 62
7
  6
CONTINUOUS
  0
SEQEND
  0
POLYLINE
  8
2
 62
7
  6
CONTINUOUS
 70
0
 66
1
  0
VERTEX
 10
44.400000
 20
21.300000
  8
2
 62
7
  6
CONTINUOUS
  0
VERTEX
 10
44.800000
 20
21.300000
  8
2
 62
7
  6
CONTINUOUS
  0
SEQEND
  0
POLYLINE
  8
2
 62
7
  6
CONTINUOUS
 70
1
 66
1
  0
VERTEX
 10
41.300000
 20
29.900000
  8
2
 62
7
  6
CONTINUOUS
  0
VERTEX
 10
43.600000
 20
29.900000
  8
2
 62
7
  6
CONTINUOUS
  0
VERTEX
 10
44.300000
 20
28.000000
  8
2
 62
7
  6
CONTINUOUS
  0
VERTEX
 10
44.300000
 20
21.300000
  8
2
 62
7
  6
CONTINUOUS
  0
VERTEX
 10
40.700000
 20
21.300000
  8
2
 62
7
  6
CONTINUOUS
  0
VERTEX
 10
40.700000
 20
28.000000
  8
2
 62
7
  6
CONTINUOUS
  0
SEQEND
  0
POLYLINE
  8
2
 62
7
  6
CONTINUOUS
 70
1
 66
1
  0
VERTEX
 10
41.500000
 20
28.900000
  8
2
 62
7
  6
CONTINUOUS
  0
VERTEX
 10
43.400000
 20
28.900000
  8
2
 62
7
  6
CONTINUOUS
  0
VERTEX
 10
44.100000
 20
27.100000
  8
2
 62
7
  6
CONTINUOUS
  0
VERTEX
 10
44.100000
 20
20.900000
  8
2
 62
7
  6
CONTINUOUS
  0
VERTEX
 10
40.900000
 20
20.900000
  8
2
 62
7
  6
CONTINUOUS
  0
VERTEX
 10
40.900000
 20
27.100000
  8
2
 62
7
  6
CONTINUOUS
  0
SEQEND
  0
CIRCLE
  8
2
 62
7
  6
CONTINUOUS
 10
42.500000
 20
27.900000
 30
0.0
 40
0.400000
  0
POLYLINE
  8
2
 62
7
  6
CONTINUOUS
 70
1
 66
1
  0
VERTEX
 10
43.700000
 20
22.200000
 30
0.000000
  8
2
 62
7
  6
CONTINUOUS
  0
VERTEX
 10
43.700000
 20
26.800000
 30
0.000000
  8
2
 62
7
  6
CONTINUOUS
  0
VERTEX
 10
41.300000
 20
26.800000
 30
0.000000
  8
2
 62
7
  6
CONTINUOUS
  0
VERTEX
 10
41.300000
 20
22.200000
 30
0.000000
  8
2
 62
7
  6
CONTINUOUS
  0
SEQEND
  0
CIRCLE
  8
2
 62
7
  6
CONTINUOUS
 10
42.500000
 20
21.300000
 30
0.0
 40
0.400000
  0
SOLID
  8
2
 62
1
  6
CONTINUOUS
 10
44.900000
 20
69.600000
 11
44.900000
 21
70.500000
 12
40.100000
 22
69.600000
 13
40.100000
 23
70.500000
  0
POLYLINE
  8
2
 62
7
  6
CONTINUOUS
 70
1
 66
1
  0
VERTEX
 10
44.900000
 20
69.600000
 30
0.000000
  8
2
 62
7
  6
CONTINUOUS
  0
VERTEX
 10
44.900000
 20
70.500000
 30
0.000000
  8
2
 62
7
  6
CONTINUOUS
  0
VERTEX
 10
40.100000
 20
70.500000
 30
0.000000
  8
2
 62
7
  6
CONTINUOUS
  0
VERTEX
 10
40.100000
 20
69.600000
 30
0.000000
  8
2
 62
7
  6
CONTINUOUS
  0
SEQEND
  0
SOLID
  8
2
 62
254
  6
CONTINUOUS
 10
40.600000
 20
26.200000
 11
40.600000
 21
64.900000
 12
40.200000
 22
26.200000
 13
40.200000
 23
64.900000
  0
POLYLINE
  8
2
 62
7
  6
CONTINUOUS
 70
1
 66
1
  0
VERTEX
 10
40.600000
 20
26.200000
 30
0.000000
  8
2
 62
7
  6
CONTINUOUS
  0
VERTEX
 10
40.600000
 20
64.900000
 30
0.000000
  8
2
 62
7
  6
CONTINUOUS
  0
VERTEX
 10
40.200000
 20
64.900000
 30
0.000000
  8
2
 62
7
  6
CONTINUOUS
  0
VERTEX
 10
40.200000
 20
26.200000
 30
0.000000
  8
2
 62
7
  6
CONTINUOUS
  0
SEQEND
  0
POLYLINE
  8
2
 62
7
  6
CONTINUOUS
 70
1
 66
1
  0
VERTEX
 10
40.600000
 20
18.200000
 30
0.000000
  8
2
 62
7
  6
CONTINUOUS
  0
VERTEX
 10
40.600000
 20
21.300000
 30
0.000000
  8
2
 62
7
  6
CONTINUOUS
  0
VERTEX
 10
40.200000
 20
21.300000
 30
0.000000
  8
2
 62
7
  6
CONTINUOUS
  0
VERTEX
 10
40.200000
 20
18.200000
 30
0.000000
  8
2
 62
7
  6
CONTINUOUS
  0
SEQEND
  0
POLYLINE
  8
2
 62
7
  6
CONTINUOUS
 70
1
 66
1
  0
VERTEX
 10
40.600000
 20
55.200000
 30
0.000000
  8
2
 62
7
  6
CONTINUOUS
  0
VERTEX
 10
40.600000
 20
58.300000
 30
0.000000
  8
2
 62
7
  6
CONTINUOUS
  0
VERTEX
 10
40.200000
 20
58.300000
 30
0.000000
  8
2
 62
7
  6
CONTINUOUS
  0
VERTEX
 10
40.200000
 20
55.200000
 30
0.000000
  8
2
 62
7
  6
CONTINUOUS
  0
SEQEND
  0
POLYLINE
  8
2
 62
7
  6
CONTINUOUS
 70
1
 66
1
  0
VERTEX
 10
44.800000
 20
55.200000
 30
0.000000
  8
2
 62
7
  6
CONTINUOUS
  0
VERTEX
 10
44.800000
 20
58.300000
 30
0.000000
  8
2
 62
7
  6
CONTINUOUS
  0
VERTEX
 10
44.400000
 20
58.300000
 30
0.000000
  8
2
 62
7
  6
CONTINUOUS
  0
VERTEX
 10
44.400000
 20
55.200000
 30
0.000000
  8
2
 62
7
  6
CONTINUOUS
  0
SEQEND
  0
POLYLINE
  8
2
 62
7
  6
CONTINUOUS
 70
1
 66
1
  0
VERTEX
 10
44.800000
 20
18.200000
 30
0.000000
  8
2
 62
7
  6
CONTINUOUS
  0
VERTEX
 10
44.800000
 20
21.300000
 30
0.000000
  8
2
 62
7
  6
CONTINUOUS
  0
VERTEX
 10
44.400000
 20
21.300000
 30
0.000000
  8
2
 62
7
  6
CONTINUOUS
  0
VERTEX
 10
44.400000
 20
18.200000
 30
0.000000
  8
2
 62
7
  6
CONTINUOUS
  0
SEQEND
  0
SOLID
  8
2
 62
254
  6
CONTINUOUS
 10
44.800000
 20
26.200000
 11
44.800000
 21
64.900000
 12
44.400000
 22
26.200000
 13
44.400000
 23
64.900000
  0
POLYLINE
  8
2
 62
7
  6
CONTINUOUS
 70
1
 66
1
  0
VERTEX
 10
44.800000
 20
26.200000
 30
0.000000
  8
2
 62
7
  6
CONTINUOUS
  0
VERTEX
 10
44.800000
 20
64.900000
 30
0.000000
  8
2
 62
7
  6
CONTINUOUS
  0
VERTEX
 10
44.400000
 20
64.900000
 30
0.000000
  8
2
 62
7
  6
CONTINUOUS
  0
VERTEX
 10
44.400000
 20
26.200000
 30
0.000000
  8
2
 62
7
  6
CONTINUOUS
  0
SEQEND
  0
POLYLINE
  8
2
 62
7
  6
CONTINUOUS
 70
1
 66
1
  0
VERTEX
 10
41.300000
 20
50.200000
  8
2
 62
7
  6
CONTINUOUS
  0
VERTEX
 10
43.700000
 20
50.200000
  8
2
 62
7
  6
CONTINUOUS
  0
VERTEX
 10
44.800000
 20
49.500000
  8
2
 62
7
  6
CONTINUOUS
  0
VERTEX
 10
44.800000
 20
39.800000
  8
2
 62
7
  6
CONTINUOUS
  0
VERTEX
 10
44.400000
 20
39.800000
  8
2
 62
7
  6
CONTINUOUS
  0
VERTEX
 10
44.400000
 20
47.900000
  8
2
 62
7
  6
CONTINUOUS
  0
VERTEX
 10
43.700000
 20
48.700000
  8
2
 62
7
  6
CONTINUOUS
  0
VERTEX
 10
41.300000
 20
48.700000
  8
2
 62
7
  6
CONTINUOUS
  0
VERTEX
 10
40.600000
 20
47.900000
  8
2
 62
7
  6
CONTINUOUS
  0
VERTEX
 10
40.600000
 20
39.800000
  8
2
 62
7
  6
CONTINUOUS
  0
VERTEX
 10
40.200000
 20
39.800000
  8
2
 62
7
  6
CONTINUOUS
  0
VERTEX
 10
40.200000
 20
49.400000
  8
2
 62
7
  6
CONTINUOUS
  0
SEQEND
  0
SOLID
  8
2
 62
255
  6
CONTINUOUS
 10
49.900000
 20
6.600000
 11
49.900000
 21
71.600000
 12
45.100000
 22
6.600000
 13
45.100000
 23
71.600000
  0
POLYLINE
  8
2
 62
7
  6
CONTINUOUS
 70
1
 66
1
  0
VERTEX
 10
49.900000
 20
6.600000
 30
0.000000
  8
2
 62
7
  6
CONTINUOUS
  0
VERTEX
 10
49.900000
 20
71.600000
 30
0.000000
  8
2
 62
7
  6
CONTINUOUS
  0
VERTEX
 10
45.100000
 20
71.600000
 30
0.000000
  8
2
 62
7
  6
CONTINUOUS
  0
VERTEX
 10
45.100000
 20
6.600000
 30
0.000000
  8
2
 62
7
  6
CONTINUOUS
  0
SEQEND
  0
POLYLINE
  8
2
 62
7
  6
L000000000000000000
 70
0
 66
1
  0
VERTEX
 10
47.500000
 20
71.600000
  8
2
 62
7
  6
L000000000000000000
  0
VERTEX
 10
47.500000
 20
67.200000
  8
2
 62
7
  6
L000000000000000000
  0
SEQEND
  0
POLYLINE
  8
2
 62
7
  6
L000000000000000000
 70
0
 66
1
  0
VERTEX
 10
47.500000
 20
57.500000
  8
2
 62
7
  6
L000000000000000000
  0
VERTEX
 10
47.500000
 20
50.200000
  8
2
 62
7
  6
L000000000000000000
  0
SEQEND
  0
POLYLINE
  8
2
 62
7
  6
L000000000000000000
 70
0
 66
1
  0
VERTEX
 10
47.500000
 20
39.000000
  8
2
 62
7
  6
L000000000000000000
  0
VERTEX
 10
47.500000
 20
30.200000
  8
2
 62
7
  6
L000000000000000000
  0
SEQEND
  0
POLYLINE
  8
2
 62
7
  6
L000000000000000000
 70
0
 66
1
  0
VERTEX
 10
47.500000
 20
20.500000
  8
2
 62
7
  6
L000000000000000000
  0
VERTEX
 10
47.500000
 20
15.000000
  8
2
 62
7
  6
L000000000000000000
  0
SEQEND
  0
POLYLINE
  8
2
 62
7
  6
CONTINUOUS
 70
0
 66
1
  0
VERTEX
 10
45.100000
 20
14.300000
  8
2
 62
7
  6
CONTINUOUS
  0
VERTEX
 10
45.900000
 20
14.300000
  8
2
 62
7
  6
CONTINUOUS
  0
VERTEX
 10
45.900000
 20
15.000000
  8
2
 62
7
  6
CONTINUOUS
  0
VERTEX
 10
49.100000
 20
15.000000
  8
2
 62
7
  6
CONTINUOUS
  0
VERTEX
 10
49.100000
 20
14.300000
  8
2
 62
7
  6
CONTINUOUS
  0
VERTEX
 10
49.900000
 20
14.300000
  8
2
 62
7
  6
CONTINUOUS
  0
SEQEND
  0
POLYLINE
  8
2
 62
7
  6
CONTINUOUS
 70
1
 66
1
  0
VERTEX
 10
49.300000
 20
7.100000
 30
0.000000
  8
2
 62
7
  6
CONTINUOUS
  0
VERTEX
 10
49.300000
 20
11.400000
 30
0.000000
  8
2
 62
7
  6
CONTINUOUS
  0
VERTEX
 10
45.800000
 20
11.400000
 30
0.000000
  8
2
 62
7
  6
CONTINUOUS
  0
VERTEX
 10
45.800000
 20
7.100000
 30
0.000000
  8
2
 62
7
  6
CONTINUOUS
  0
SEQEND
  0
POLYLINE
  8
2
 62
7
  6
CONTINUOUS
 70
1
 66
1
  0
VERTEX
 10
48.900000
 20
7.500000
 30
0.000000
  8
2
 62
7
  6
CONTINUOUS
  0
VERTEX
 10
48.900000
 20
10.800000
 30
0.000000
  8
2
 62
7
  6
CONTINUOUS
  0
VERTEX
 10
46.200000
 20
10.800000
 30
0.000000
  8
2
 62
7
  6
CONTINUOUS
  0
VERTEX
 10
46.200000
 20
7.500000
 30
0.000000
  8
2
 62
7
  6
CONTINUOUS
  0
SEQEND
  0
POLYLINE
  8
2
 62
7
  6
CONTINUOUS
 70
0
 66
1
  0
VERTEX
 10
45.800000
 20
11.400000
  8
2
 62
7
  6
CONTINUOUS
  0
VERTEX
 10
46.200000
 20
10.800000
  8
2
 62
7
  6
CONTINUOUS
  0
SEQEND
  0
POLYLINE
  8
2
 62
7
  6
CONTINUOUS
 70
0
 66
1
  0
VERTEX
 10
49.300000
 20
11.400000
  8
2
 62
7
  6
CONTINUOUS
  0
VERTEX
 10
48.900000
 20
10.800000
  8
2
 62
7
  6
CONTINUOUS
  0
SEQEND
  0
POLYLINE
  8
2
 62
7
  6
CONTINUOUS
 70
1
 66
1
  0
VERTEX
 10
48.800000
 20
9.600000
 30
0.000000
  8
2
 62
7
  6
CONTINUOUS
  0
VERTEX
 10
48.800000
 20
10.100000
 30
0.000000
  8
2
 62
7
  6
CONTINUOUS
  0
VERTEX
 10
46.300000
 20
10.100000
 30
0.000000
  8
2
 62
7
  6
CONTINUOUS
  0
VERTEX
 10
46.300000
 20
9.600000
 30
0.000000
  8
2
 62
7
  6
CONTINUOUS
  0
SEQEND
  0
POLYLINE
  8
2
 62
7
  6
CONTINUOUS
 70
1
 66
1
  0
VERTEX
 10
48.800000
 20
8.800000
 30
0.000000
  8
2
 62
7
  6
CONTINUOUS
  0
VERTEX
 10
48.800000
 20
9.300000
 30
0.000000
  8
2
 62
7
  6
CONTINUOUS
  0
VERTEX
 10
46.300000
 20
9.300000
 30
0.000000
  8
2
 62
7
  6
CONTINUOUS
  0
VERTEX
 10
46.300000
 20
8.800000
 30
0.000000
  8
2
 62
7
  6
CONTINUOUS
  0
SEQEND
  0
POLYLINE
  8
2
 62
7
  6
CONTINUOUS
 70
1
 66
1
  0
VERTEX
 10
48.800000
 20
8.000000
 30
0.000000
  8
2
 62
7
  6
CONTINUOUS
  0
VERTEX
 10
48.800000
 20
8.500000
 30
0.000000
  8
2
 62
7
  6
CONTINUOUS
  0
VERTEX
 10
46.300000
 20
8.500000
 30
0.000000
  8
2
 62
7
  6
CONTINUOUS
  0
VERTEX
 10
46.300000
 20
8.000000
 30
0.000000
  8
2
 62
7
  6
CONTINUOUS
  0
SEQEND
  0
SOLID
  8
2
 62
1
  6
CONTINUOUS
 10
49.300000
 20
13.400000
 11
49.300000
 21
13.900000
 12
45.700000
 22
13.400000
 13
45.700000
 23
13.900000
  0
POLYLINE
  8
2
 62
7
  6
CONTINUOUS
 70
1
 66
1
  0
VERTEX
 10
49.300000
 20
13.400000
 30
0.000000
  8
2
 62
7
  6
CONTINUOUS
  0
VERTEX
 10
49.300000
 20
13.900000
 30
0.000000
  8
2
 62
7
  6
CONTINUOUS
  0
VERTEX
 10
45.700000
 20
13.900000
 30
0.000000
  8
2
 62
7
  6
CONTINUOUS
  0
VERTEX
 10
45.700000
 20
13.400000
 30
0.000000
  8
2
 62
7
  6
CONTINUOUS
  0
SEQEND
  0
POLYLINE
  8
2
 62
7
  6
CONTINUOUS
 70
1
 66
1
  0
VERTEX
 10
45.600000
 20
66.400000
  8
2
 62
7
  6
CONTINUOUS
  0
VERTEX
 10
46.300000
 20
67.200000
  8
2
 62
7
  6
CONTINUOUS
  0
VERTEX
 10
48.700000
 20
67.200000
  8
2
 62
7
  6
CONTINUOUS
  0
VERTEX
 10
49.400000
 20
66.400000
  8
2
 62
7
  6
CONTINUOUS
  0
VERTEX
 10
49.400000
 20
58.300000
  8
2
 62
7
  6
CONTINUOUS
  0
VERTEX
 10
49.200000
 20
57.800000
  8
2
 62
7
  6
CONTINUOUS
  0
VERTEX
 10
49.000000
 20
57.500000
  8
2
 62
7
  6
CONTINUOUS
  0
VERTEX
 10
46.000000
 20
57.500000
  8
2
 62
7
  6
CONTINUOUS
  0
VERTEX
 10
45.800000
 20
57.800000
  8
2
 62
7
  6
CONTINUOUS
  0
VERTEX
 10
45.600000
 20
58.300000
  8
2
 62
7
  6
CONTINUOUS
  0
SEQEND
  0
POLYLINE
  8
2
 62
7
  6
CONTINUOUS
 70
0
 66
1
  0
VERTEX
 10
45.600000
 20
58.300000
  8
2
 62
7
  6
CONTINUOUS
  0
VERTEX
 10
45.200000
 20
58.300000
  8
2
 62
7
  6
CONTINUOUS
  0
SEQEND
  0
POLYLINE
  8
2
 62
7
  6
CONTINUOUS
 70
0
 66
1
  0
VERTEX
 10
49.400000
 20
58.300000
  8
2
 62
7
  6
CONTINUOUS
  0
VERTEX
 10
49.800000
 20
58.300000
  8
2
 62
7
  6
CONTINUOUS
  0
SEQEND
  0
POLYLINE
  8
2
 62
7
  6
CONTINUOUS
 70
1
 66
1
  0
VERTEX
 10
46.300000
 20
66.900000
  8
2
 62
7
  6
CONTINUOUS
  0
VERTEX
 10
48.600000
 20
66.900000
  8
2
 62
7
  6
CONTINUOUS
  0
VERTEX
 10
49.300000
 20
65.000000
  8
2
 62
7
  6
CONTINUOUS
  0
VERTEX
 10
49.300000
 20
58.300000
  8
2
 62
7
  6
CONTINUOUS
  0
VERTEX
 10
45.700000
 20
58.300000
  8
2
 62
7
  6
CONTINUOUS
  0
VERTEX
 10
45.700000
 20
65.000000
  8
2
 62
7
  6
CONTINUOUS
  0
SEQEND
  0
POLYLINE
  8
2
 62
7
  6
CONTINUOUS
 70
1
 66
1
  0
VERTEX
 10
46.500000
 20
65.900000
  8
2
 62
7
  6
CONTINUOUS
  0
VERTEX
 10
48.400000
 20
65.900000
  8
2
 62
7
  6
CONTINUOUS
  0
VERTEX
 10
49.100000
 20
64.100000
  8
2
 62
7
  6
CONTINUOUS
  0
VERTEX
 10
49.100000
 20
57.900000
  8
2
 62
7
  6
CONTINUOUS
  0
VERTEX
 10
45.900000
 20
57.900000
  8
2
 62
7
  6
CONTINUOUS
  0
VERTEX
 10
45.900000
 20
64.100000
  8
2
 62
7
  6
CONTINUOUS
  0
SEQEND
  0
CIRCLE
  8
2
 62
7
  6
CONTINUOUS
 10
47.500000
 20
64.900000
 30
0.0
 40
0.400000
  0
POLYLINE
  8
2
 62
7
  6
CONTINUOUS
 70
1
 66
1
  0
VERTEX
 10
48.700000
 20
59.200000
 30
0.000000
  8
2
 62
7
  6
CONTINUOUS
  0
VERTEX
 10
48.700000
 20
63.800000
 30
0.000000
  8
2
 62
7
  6
CONTINUOUS
  0
VERTEX
 10
46.300000
 20
63.800000
 30
0.000000
  8
2
 62
7
  6
CONTINUOUS
  0
VERTEX
 10
46.300000
 20
59.200000
 30
0.000000
  8
2
 62
7
  6
CONTINUOUS
  0
SEQEND
  0
CIRCLE
  8
2
 62
7
  6
CONTINUOUS
 10
47.500000
 20
58.300000
 30
0.0
 40
0.400000
  0
POLYLINE
  8
2
 62
7
  6
CONTINUOUS
 70
1
 66
1
  0
VERTEX
 10
45.200000
 20
49.400000
  8
2
 62
7
  6
CONTINUOUS
  0
VERTEX
 10
46.300000
 20
50.200000
  8
2
 62
7
  6
CONTINUOUS
  0
VERTEX
 10
48.700000
 20
50.200000
  8
2
 62
7
  6
CONTINUOUS
  0
VERTEX
 10
49.800000
 20
49.500000
  8
2
 62
7
  6
CONTINUOUS
  0
VERTEX
 10
49.800000
 20
36.700000
  8
2
 62
7
  6
CONTINUOUS
  0
VERTEX
 10
49.400000
 20
36.700000
  8
2
 62
7
  6
CONTINUOUS
  0
VERTEX
 10
49.400000
 20
39.800000
  8
2
 62
7
  6
CONTINUOUS
  0
VERTEX
 10
45.600000
 20
39.800000
  8
2
 62
7
  6
CONTINUOUS
  0
VERTEX
 10
45.600000
 20
36.700000
  8
2
 62
7
  6
CONTINUOUS
  0
VERTEX
 10
45.200000
 20
36.700000
  8
2
 62
7
  6
CONTINUOUS
  0
SEQEND
  0
POLYLINE
  8
2
 62
7
  6
CONTINUOUS
 70
1
 66
1
  0
VERTEX
 10
45.600000
 20
47.900000
  8
2
 62
7
  6
CONTINUOUS
  0
VERTEX
 10
46.300000
 20
48.700000
  8
2
 62
7
  6
CONTINUOUS
  0
VERTEX
 10
48.700000
 20
48.700000
  8
2
 62
7
  6
CONTINUOUS
  0
VERTEX
 10
49.400000
 20
47.900000
  8
2
 62
7
  6
CONTINUOUS
  0
VERTEX
 10
49.400000
 20
39.800000
  8
2
 62
7
  6
CONTINUOUS
  0
VERTEX
 10
49.200000
 20
39.300000
  8
2
 62
7
  6
CONTINUOUS
  0
VERTEX
 10
49.000000
 20
39.000000
  8
2
 62
7
  6
CONTINUOUS
  0
VERTEX
 10
46.000000
 20
39.000000
  8
2
 62
7
  6
CONTINUOUS
  0
VERTEX
 10
45.800000
 20
39.300000
  8
2
 62
7
  6
CONTINUOUS
  0
VERTEX
 10
45.600000
 20
39.800000
  8
2
 62
7
  6
CONTINUOUS
  0
SEQEND
  0
POLYLINE
  8
2
 62
7
  6
CONTINUOUS
 70
0
 66
1
  0
VERTEX
 10
45.600000
 20
39.800000
  8
2
 62
7
  6
CONTINUOUS
  0
VERTEX
 10
45.200000
 20
39.800000
  8
2
 62
7
  6
CONTINUOUS
  0
SEQEND
  0
POLYLINE
  8
2
 62
7
  6
CONTINUOUS
 70
0
 66
1
  0
VERTEX
 10
49.400000
 20
39.800000
  8
2
 62
7
  6
CONTINUOUS
  0
VERTEX
 10
49.800000
 20
39.800000
  8
2
 62
7
  6
CONTINUOUS
  0
SEQEND
  0
POLYLINE
  8
2
 62
7
  6
CONTINUOUS
 70
1
 66
1
  0
VERTEX
 10
46.300000
 20
48.400000
  8
2
 62
7
  6
CONTINUOUS
  0
VERTEX
 10
48.600000
 20
48.400000
  8
2
 62
7
  6
CONTINUOUS
  0
VERTEX
 10
49.300000
 20
46.500000
  8
2
 62
7
  6
CONTINUOUS
  0
VERTEX
 10
49.300000
 20
39.800000
  8
2
 62
7
  6
CONTINUOUS
  0
VERTEX
 10
45.700000
 20
39.800000
  8
2
 62
7
  6
CONTINUOUS
  0
VERTEX
 10
45.700000
 20
46.500000
  8
2
 62
7
  6
CONTINUOUS
  0
SEQEND
  0
POLYLINE
  8
2
 62
7
  6
CONTINUOUS
 70
1
 66
1
  0
VERTEX
 10
46.500000
 20
47.400000
  8
2
 62
7
  6
CONTINUOUS
  0
VERTEX
 10
48.400000
 20
47.400000
  8
2
 62
7
  6
CONTINUOUS
  0
VERTEX
 10
49.100000
 20
45.600000
  8
2
 62
7
  6
CONTINUOUS
  0
VERTEX
 10
49.100000
 20
39.400000
  8
2
 62
7
  6
CONTINUOUS
  0
VERTEX
 10
45.900000
 20
39.400000
  8
2
 62
7
  6
CONTINUOUS
  0
VERTEX
 10
45.900000
 20
45.600000
  8
2
 62
7
  6
CONTINUOUS
  0
SEQEND
  0
CIRCLE
  8
2
 62
7
  6
CONTINUOUS
 10
47.500000
 20
46.400000
 30
0.0
 40
0.400000
  0
POLYLINE
  8
2
 62
7
  6
CONTINUOUS
 70
1
 66
1
  0
VERTEX
 10
48.700000
 20
40.700000
 30
0.000000
  8
2
 62
7
  6
CONTINUOUS
  0
VERTEX
 10
48.700000
 20
45.300000
 30
0.000000
  8
2
 62
7
  6
CONTINUOUS
  0
VERTEX
 10
46.300000
 20
45.300000
 30
0.000000
  8
2
 62
7
  6
CONTINUOUS
  0
VERTEX
 10
46.300000
 20
40.700000
 30
0.000000
  8
2
 62
7
  6
CONTINUOUS
  0
SEQEND
  0
CIRCLE
  8
2
 62
7
  6
CONTINUOUS
 10
47.500000
 20
39.800000
 30
0.0
 40
0.400000
  0
POLYLINE
  8
2
 62
7
  6
CONTINUOUS
 70
1
 66
1
  0
VERTEX
 10
45.600000
 20
29.400000
  8
2
 62
7
  6
CONTINUOUS
  0
VERTEX
 10
46.300000
 20
30.200000
  8
2
 62
7
  6
CONTINUOUS
  0
VERTEX
 10
48.700000
 20
30.200000
  8
2
 62
7
  6
CONTINUOUS
  0
VERTEX
 10
49.400000
 20
29.400000
  8
2
 62
7
  6
CONTINUOUS
  0
VERTEX
 10
49.400000
 20
21.300000
  8
2
 62
7
  6
CONTINUOUS
  0
VERTEX
 10
49.200000
 20
20.800000
  8
2
 62
7
  6
CONTINUOUS
  0
VERTEX
 10
49.000000
 20
20.500000
  8
2
 62
7
  6
CONTINUOUS
  0
VERTEX
 10
46.000000
 20
20.500000
  8
2
 62
7
  6
CONTINUOUS
  0
VERTEX
 10
45.800000
 20
20.800000
  8
2
 62
7
  6
CONTINUOUS
  0
VERTEX
 10
45.600000
 20
21.300000
  8
2
 62
7
  6
CONTINUOUS
  0
SEQEND
  0
POLYLINE
  8
2
 62
7
  6
CONTINUOUS
 70
0
 66
1
  0
VERTEX
 10
45.600000
 20
21.300000
  8
2
 62
7
  6
CONTINUOUS
  0
VERTEX
 10
45.200000
 20
21.300000
  8
2
 62
7
  6
CONTINUOUS
  0
SEQEND
  0
POLYLINE
  8
2
 62
7
  6
CONTINUOUS
 70
0
 66
1
  0
VERTEX
 10
49.400000
 20
21.300000
  8
2
 62
7
  6
CONTINUOUS
  0
VERTEX
 10
49.800000
 20
21.300000
  8
2
 62
7
  6
CONTINUOUS
  0
SEQEND
  0
POLYLINE
  8
2
 62
7
  6
CONTINUOUS
 70
1
 66
1
  0
VERTEX
 10
46.300000
 20
29.900000
  8
2
 62
7
  6
CONTINUOUS
  0
VERTEX
 10
48.600000
 20
29.900000
  8
2
 62
7
  6
CONTINUOUS
  0
VERTEX
 10
49.300000
 20
28.000000
  8
2
 62
7
  6
CONTINUOUS
  0
VERTEX
 10
49.300000
 20
21.300000
  8
2
 62
7
  6
CONTINUOUS
  0
VERTEX
 10
45.700000
 20
21.300000
  8
2
 62
7
  6
CONTINUOUS
  0
VERTEX
 10
45.700000
 20
28.000000
  8
2
 62
7
  6
CONTINUOUS
  0
SEQEND
  0
POLYLINE
  8
2
 62
7
  6
CONTINUOUS
 70
1
 66
1
  0
VERTEX
 10
46.500000
 20
28.900000
  8
2
 62
7
  6
CONTINUOUS
  0
VERTEX
 10
48.400000
 20
28.900000
  8
2
 62
7
  6
CONTINUOUS
  0
VERTEX
 10
49.100000
 20
27.100000
  8
2
 62
7
  6
CONTINUOUS
  0
VERTEX
 10
49.100000
 20
20.900000
  8
2
 62
7
  6
CONTINUOUS
  0
VERTEX
 10
45.900000
 20
20.900000
  8
2
 62
7
  6
CONTINUOUS
  0
VERTEX
 10
45.900000
 20
27.100000
  8
2
 62
7
  6
CONTINUOUS
  0
SEQEND
  0
CIRCLE
  8
2
 62
7
  6
CONTINUOUS
 10
47.500000
 20
27.900000
 30
0.0
 40
0.400000
  0
POLYLINE
  8
2
 62
7
  6
CONTINUOUS
 70
1
 66
1
  0
VERTEX
 10
48.700000
 20
22.200000
 30
0.000000
  8
2
 62
7
  6
CONTINUOUS
  0
VERTEX
 10
48.700000
 20
26.800000
 30
0.000000
  8
2
 62
7
  6
CONTINUOUS
  0
VERTEX
 10
46.300000
 20
26.800000
 30
0.000000
  8
2
 62
7
  6
CONTINUOUS
  0
VERTEX
 10
46.300000
 20
22.200000
 30
0.000000
  8
2
 62
7
  6
CONTINUOUS
  0
SEQEND
  0
CIRCLE
  8
2
 62
7
  6
CONTINUOUS
 10
47.500000
 20
21.300000
 30
0.0
 40
0.400000
  0
SOLID
  8
2
 62
1
  6
CONTINUOUS
 10
49.900000
 20
69.600000
 11
49.900000
 21
70.500000
 12
45.100000
 22
69.600000
 13
45.100000
 23
70.500000
  0
POLYLINE
  8
2
 62
7
  6
CONTINUOUS
 70
1
 66
1
  0
VERTEX
 10
49.900000
 20
69.600000
 30
0.000000
  8
2
 62
7
  6
CONTINUOUS
  0
VERTEX
 10
49.900000
 20
70.500000
 30
0.000000
  8
2
 62
7
  6
CONTINUOUS
  0
VERTEX
 10
45.100000
 20
70.500000
 30
0.000000
  8
2
 62
7
  6
CONTINUOUS
  0
VERTEX
 10
45.100000
 20
69.600000
 30
0.000000
  8
2
 62
7
  6
CONTINUOUS
  0
SEQEND
  0
SOLID
  8
2
 62
254
  6
CONTINUOUS
 10
45.600000
 20
26.200000
 11
45.600000
 21
64.900000
 12
45.200000
 22
26.200000
 13
45.200000
 23
64.900000
  0
POLYLINE
  8
2
 62
7
  6
CONTINUOUS
 70
1
 66
1
  0
VERTEX
 10
45.600000
 20
26.200000
 30
0.000000
  8
2
 62
7
  6
CONTINUOUS
  0
VERTEX
 10
45.600000
 20
64.900000
 30
0.000000
  8
2
 62
7
  6
CONTINUOUS
  0
VERTEX
 10
45.200000
 20
64.900000
 30
0.000000
  8
2
 62
7
  6
CONTINUOUS
  0
VERTEX
 10
45.200000
 20
26.200000
 30
0.000000
  8
2
 62
7
  6
CONTINUOUS
  0
SEQEND
  0
POLYLINE
  8
2
 62
7
  6
CONTINUOUS
 70
1
 66
1
  0
VERTEX
 10
45.600000
 20
18.200000
 30
0.000000
  8
2
 62
7
  6
CONTINUOUS
  0
VERTEX
 10
45.600000
 20
21.300000
 30
0.000000
  8
2
 62
7
  6
CONTINUOUS
  0
VERTEX
 10
45.200000
 20
21.300000
 30
0.000000
  8
2
 62
7
  6
CONTINUOUS
  0
VERTEX
 10
45.200000
 20
18.200000
 30
0.000000
  8
2
 62
7
  6
CONTINUOUS
  0
SEQEND
  0
POLYLINE
  8
2
 62
7
  6
CONTINUOUS
 70
1
 66
1
  0
VERTEX
 10
45.600000
 20
55.200000
 30
0.000000
  8
2
 62
7
  6
CONTINUOUS
  0
VERTEX
 10
45.600000
 20
58.300000
 30
0.000000
  8
2
 62
7
  6
CONTINUOUS
  0
VERTEX
 10
45.200000
 20
58.300000
 30
0.000000
  8
2
 62
7
  6
CONTINUOUS
  0
VERTEX
 10
45.200000
 20
55.200000
 30
0.000000
  8
2
 62
7
  6
CONTINUOUS
  0
SEQEND
  0
POLYLINE
  8
2
 62
7
  6
CONTINUOUS
 70
1
 66
1
  0
VERTEX
 10
49.800000
 20
55.200000
 30
0.000000
  8
2
 62
7
  6
CONTINUOUS
  0
VERTEX
 10
49.800000
 20
58.300000
 30
0.000000
  8
2
 62
7
  6
CONTINUOUS
  0
VERTEX
 10
49.400000
 20
58.300000
 30
0.000000
  8
2
 62
7
  6
CONTINUOUS
  0
VERTEX
 10
49.400000
 20
55.200000
 30
0.000000
  8
2
 62
7
  6
CONTINUOUS
  0
SEQEND
  0
POLYLINE
  8
2
 62
7
  6
CONTINUOUS
 70
1
 66
1
  0
VERTEX
 10
49.800000
 20
18.200000
 30
0.000000
  8
2
 62
7
  6
CONTINUOUS
  0
VERTEX
 10
49.800000
 20
21.300000
 30
0.000000
  8
2
 62
7
  6
CONTINUOUS
  0
VERTEX
 10
49.400000
 20
21.300000
 30
0.000000
  8
2
 62
7
  6
CONTINUOUS
  0
VERTEX
 10
49.400000
 20
18.200000
 30
0.000000
  8
2
 62
7
  6
CONTINUOUS
  0
SEQEND
  0
SOLID
  8
2
 62
254
  6
CONTINUOUS
 10
49.800000
 20
26.200000
 11
49.800000
 21
64.900000
 12
49.400000
 22
26.200000
 13
49.400000
 23
64.900000
  0
POLYLINE
  8
2
 62
7
  6
CONTINUOUS
 70
1
 66
1
  0
VERTEX
 10
49.800000
 20
26.200000
 30
0.000000
  8
2
 62
7
  6
CONTINUOUS
  0
VERTEX
 10
49.800000
 20
64.900000
 30
0.000000
  8
2
 62
7
  6
CONTINUOUS
  0
VERTEX
 10
49.400000
 20
64.900000
 30
0.000000
  8
2
 62
7
  6
CONTINUOUS
  0
VERTEX
 10
49.400000
 20
26.200000
 30
0.000000
  8
2
 62
7
  6
CONTINUOUS
  0
SEQEND
  0
POLYLINE
  8
2
 62
7
  6
CONTINUOUS
 70
1
 66
1
  0
VERTEX
 10
46.300000
 20
50.200000
  8
2
 62
7
  6
CONTINUOUS
  0
VERTEX
 10
48.700000
 20
50.200000
  8
2
 62
7
  6
CONTINUOUS
  0
VERTEX
 10
49.800000
 20
49.500000
  8
2
 62
7
  6
CONTINUOUS
  0
VERTEX
 10
49.800000
 20
39.800000
  8
2
 62
7
  6
CONTINUOUS
  0
VERTEX
 10
49.400000
 20
39.800000
  8
2
 62
7
  6
CONTINUOUS
  0
VERTEX
 10
49.400000
 20
47.900000
  8
2
 62
7
  6
CONTINUOUS
  0
VERTEX
 10
48.700000
 20
48.700000
  8
2
 62
7
  6
CONTINUOUS
  0
VERTEX
 10
46.300000
 20
48.700000
  8
2
 62
7
  6
CONTINUOUS
  0
VERTEX
 10
45.600000
 20
47.900000
  8
2
 62
7
  6
CONTINUOUS
  0
VERTEX
 10
45.600000
 20
39.800000
  8
2
 62
7
  6
CONTINUOUS
  0
VERTEX
 10
45.200000
 20
39.800000
  8
2
 62
7
  6
CONTINUOUS
  0
VERTEX
 10
45.200000
 20
49.400000
  8
2
 62
7
  6
CONTINUOUS
  0
SEQEND
  0
SOLID
  8
2
 62
255
  6
CONTINUOUS
 10
54.900000
 20
6.600000
 11
54.900000
 21
71.600000
 12
50.100000
 22
6.600000
 13
50.100000
 23
71.600000
  0
POLYLINE
  8
2
 62
7
  6
CONTINUOUS
 70
1
 66
1
  0
VERTEX
 10
54.900000
 20
6.600000
 30
0.000000
  8
2
 62
7
  6
CONTINUOUS
  0
VERTEX
 10
54.900000
 20
71.600000
 30
0.000000
  8
2
 62
7
  6
CONTINUOUS
  0
VERTEX
 10
50.100000
 20
71.600000
 30
0.000000
  8
2
 62
7
  6
CONTINUOUS
  0
VERTEX
 10
50.100000
 20
6.600000
 30
0.000000
  8
2
 62
7
  6
CONTINUOUS
  0
SEQEND
  0
POLYLINE
  8
2
 62
7
  6
L000000000000000000
 70
0
 66
1
  0
VERTEX
 10
52.500000
 20
71.600000
  8
2
 62
7
  6
L000000000000000000
  0
VERTEX
 10
52.500000
 20
67.200000
  8
2
 62
7
  6
L000000000000000000
  0
SEQEND
  0
POLYLINE
  8
2
 62
7
  6
L000000000000000000
 70
0
 66
1
  0
VERTEX
 10
52.500000
 20
57.500000
  8
2
 62
7
  6
L000000000000000000
  0
VERTEX
 10
52.500000
 20
50.200000
  8
2
 62
7
  6
L000000000000000000
  0
SEQEND
  0
POLYLINE
  8
2
 62
7
  6
L000000000000000000
 70
0
 66
1
  0
VERTEX
 10
52.500000
 20
39.000000
  8
2
 62
7
  6
L000000000000000000
  0
VERTEX
 10
52.500000
 20
30.200000
  8
2
 62
7
  6
L000000000000000000
  0
SEQEND
  0
POLYLINE
  8
2
 62
7
  6
L000000000000000000
 70
0
 66
1
  0
VERTEX
 10
52.500000
 20
20.500000
  8
2
 62
7
  6
L000000000000000000
  0
VERTEX
 10
52.500000
 20
15.000000
  8
2
 62
7
  6
L000000000000000000
  0
SEQEND
  0
POLYLINE
  8
2
 62
7
  6
CONTINUOUS
 70
0
 66
1
  0
VERTEX
 10
50.100000
 20
14.300000
  8
2
 62
7
  6
CONTINUOUS
  0
VERTEX
 10
50.900000
 20
14.300000
  8
2
 62
7
  6
CONTINUOUS
  0
VERTEX
 10
50.900000
 20
15.000000
  8
2
 62
7
  6
CONTINUOUS
  0
VERTEX
 10
54.100000
 20
15.000000
  8
2
 62
7
  6
CONTINUOUS
  0
VERTEX
 10
54.100000
 20
14.300000
  8
2
 62
7
  6
CONTINUOUS
  0
VERTEX
 10
54.900000
 20
14.300000
  8
2
 62
7
  6
CONTINUOUS
  0
SEQEND
  0
POLYLINE
  8
2
 62
7
  6
CONTINUOUS
 70
1
 66
1
  0
VERTEX
 10
54.300000
 20
7.100000
 30
0.000000
  8
2
 62
7
  6
CONTINUOUS
  0
VERTEX
 10
54.300000
 20
11.400000
 30
0.000000
  8
2
 62
7
  6
CONTINUOUS
  0
VERTEX
 10
50.800000
 20
11.400000
 30
0.000000
  8
2
 62
7
  6
CONTINUOUS
  0
VERTEX
 10
50.800000
 20
7.100000
 30
0.000000
  8
2
 62
7
  6
CONTINUOUS
  0
SEQEND
  0
POLYLINE
  8
2
 62
7
  6
CONTINUOUS
 70
1
 66
1
  0
VERTEX
 10
53.900000
 20
7.500000
 30
0.000000
  8
2
 62
7
  6
CONTINUOUS
  0
VERTEX
 10
53.900000
 20
10.800000
 30
0.000000
  8
2
 62
7
  6
CONTINUOUS
  0
VERTEX
 10
51.200000
 20
10.800000
 30
0.000000
  8
2
 62
7
  6
CONTINUOUS
  0
VERTEX
 10
51.200000
 20
7.500000
 30
0.000000
  8
2
 62
7
  6
CONTINUOUS
  0
SEQEND
  0
POLYLINE
  8
2
 62
7
  6
CONTINUOUS
 70
0
 66
1
  0
VERTEX
 10
50.800000
 20
11.400000
  8
2
 62
7
  6
CONTINUOUS
  0
VERTEX
 10
51.200000
 20
10.800000
  8
2
 62
7
  6
CONTINUOUS
  0
SEQEND
  0
POLYLINE
  8
2
 62
7
  6
CONTINUOUS
 70
0
 66
1
  0
VERTEX
 10
54.300000
 20
11.400000
  8
2
 62
7
  6
CONTINUOUS
  0
VERTEX
 10
53.900000
 20
10.800000
  8
2
 62
7
  6
CONTINUOUS
  0
SEQEND
  0
POLYLINE
  8
2
 62
7
  6
CONTINUOUS
 70
1
 66
1
  0
VERTEX
 10
53.800000
 20
9.600000
 30
0.000000
  8
2
 62
7
  6
CONTINUOUS
  0
VERTEX
 10
53.800000
 20
10.100000
 30
0.000000
  8
2
 62
7
  6
CONTINUOUS
  0
VERTEX
 10
51.300000
 20
10.100000
 30
0.000000
  8
2
 62
7
  6
CONTINUOUS
  0
VERTEX
 10
51.300000
 20
9.600000
 30
0.000000
  8
2
 62
7
  6
CONTINUOUS
  0
SEQEND
  0
POLYLINE
  8
2
 62
7
  6
CONTINUOUS
 70
1
 66
1
  0
VERTEX
 10
53.800000
 20
8.800000
 30
0.000000
  8
2
 62
7
  6
CONTINUOUS
  0
VERTEX
 10
53.800000
 20
9.300000
 30
0.000000
  8
2
 62
7
  6
CONTINUOUS
  0
VERTEX
 10
51.300000
 20
9.300000
 30
0.000000
  8
2
 62
7
  6
CONTINUOUS
  0
VERTEX
 10
51.300000
 20
8.800000
 30
0.000000
  8
2
 62
7
  6
CONTINUOUS
  0
SEQEND
  0
POLYLINE
  8
2
 62
7
  6
CONTINUOUS
 70
1
 66
1
  0
VERTEX
 10
53.800000
 20
8.000000
 30
0.000000
  8
2
 62
7
  6
CONTINUOUS
  0
VERTEX
 10
53.800000
 20
8.500000
 30
0.000000
  8
2
 62
7
  6
CONTINUOUS
  0
VERTEX
 10
51.300000
 20
8.500000
 30
0.000000
  8
2
 62
7
  6
CONTINUOUS
  0
VERTEX
 10
51.300000
 20
8.000000
 30
0.000000
  8
2
 62
7
  6
CONTINUOUS
  0
SEQEND
  0
SOLID
  8
2
 62
1
  6
CONTINUOUS
 10
54.300000
 20
13.400000
 11
54.300000
 21
13.900000
 12
50.700000
 22
13.400000
 13
50.700000
 23
13.900000
  0
POLYLINE
  8
2
 62
7
  6
CONTINUOUS
 70
1
 66
1
  0
VERTEX
 10
54.300000
 20
13.400000
 30
0.000000
  8
2
 62
7
  6
CONTINUOUS
  0
VERTEX
 10
54.300000
 20
13.900000
 30
0.000000
  8
2
 62
7
  6
CONTINUOUS
  0
VERTEX
 10
50.700000
 20
13.900000
 30
0.000000
  8
2
 62
7
  6
CONTINUOUS
  0
VERTEX
 10
50.700000
 20
13.400000
 30
0.000000
  8
2
 62
7
  6
CONTINUOUS
  0
SEQEND
  0
POLYLINE
  8
2
 62
7
  6
CONTINUOUS
 70
1
 66
1
  0
VERTEX
 10
50.600000
 20
66.400000
  8
2
 62
7
  6
CONTINUOUS
  0
VERTEX
 10
51.300000
 20
67.200000
  8
2
 62
7
  6
CONTINUOUS
  0
VERTEX
 10
53.700000
 20
67.200000
  8
2
 62
7
  6
CONTINUOUS
  0
VERTEX
 10
54.400000
 20
66.400000
  8
2
 62
7
  6
CONTINUOUS
  0
VERTEX
 10
54.400000
 20
58.300000
  8
2
 62
7
  6
CONTINUOUS
  0
VERTEX
 10
54.200000
 20
57.800000
  8
2
 62
7
  6
CONTINUOUS
  0
VERTEX
 10
54.000000
 20
57.500000
  8
2
 62
7
  6
CONTINUOUS
  0
VERTEX
 10
51.000000
 20
57.500000
  8
2
 62
7
  6
CONTINUOUS
  0
VERTEX
 10
50.800000
 20
57.800000
  8
2
 62
7
  6
CONTINUOUS
  0
VERTEX
 10
50.600000
 20
58.300000
  8
2
 62
7
  6
CONTINUOUS
  0
SEQEND
  0
POLYLINE
  8
2
 62
7
  6
CONTINUOUS
 70
0
 66
1
  0
VERTEX
 10
50.600000
 20
58.300000
  8
2
 62
7
  6
CONTINUOUS
  0
VERTEX
 10
50.200000
 20
58.300000
  8
2
 62
7
  6
CONTINUOUS
  0
SEQEND
  0
POLYLINE
  8
2
 62
7
  6
CONTINUOUS
 70
0
 66
1
  0
VERTEX
 10
54.400000
 20
58.300000
  8
2
 62
7
  6
CONTINUOUS
  0
VERTEX
 10
54.800000
 20
58.300000
  8
2
 62
7
  6
CONTINUOUS
  0
SEQEND
  0
POLYLINE
  8
2
 62
7
  6
CONTINUOUS
 70
1
 66
1
  0
VERTEX
 10
51.300000
 20
66.900000
  8
2
 62
7
  6
CONTINUOUS
  0
VERTEX
 10
53.600000
 20
66.900000
  8
2
 62
7
  6
CONTINUOUS
  0
VERTEX
 10
54.300000
 20
65.000000
  8
2
 62
7
  6
CONTINUOUS
  0
VERTEX
 10
54.300000
 20
58.300000
  8
2
 62
7
  6
CONTINUOUS
  0
VERTEX
 10
50.700000
 20
58.300000
  8
2
 62
7
  6
CONTINUOUS
  0
VERTEX
 10
50.700000
 20
65.000000
  8
2
 62
7
  6
CONTINUOUS
  0
SEQEND
  0
POLYLINE
  8
2
 62
7
  6
CONTINUOUS
 70
1
 66
1
  0
VERTEX
 10
51.500000
 20
65.900000
  8
2
 62
7
  6
CONTINUOUS
  0
VERTEX
 10
53.400000
 20
65.900000
  8
2
 62
7
  6
CONTINUOUS
  0
VERTEX
 10
54.100000
 20
64.100000
  8
2
 62
7
  6
CONTINUOUS
  0
VERTEX
 10
54.100000
 20
57.900000
  8
2
 62
7
  6
CONTINUOUS
  0
VERTEX
 10
50.900000
 20
57.900000
  8
2
 62
7
  6
CONTINUOUS
  0
VERTEX
 10
50.900000
 20
64.100000
  8
2
 62
7
  6
CONTINUOUS
  0
SEQEND
  0
CIRCLE
  8
2
 62
7
  6
CONTINUOUS
 10
52.500000
 20
64.900000
 30
0.0
 40
0.400000
  0
POLYLINE
  8
2
 62
7
  6
CONTINUOUS
 70
1
 66
1
  0
VERTEX
 10
53.700000
 20
59.200000
 30
0.000000
  8
2
 62
7
  6
CONTINUOUS
  0
VERTEX
 10
53.700000
 20
63.800000
 30
0.000000
  8
2
 62
7
  6
CONTINUOUS
  0
VERTEX
 10
51.300000
 20
63.800000
 30
0.000000
  8
2
 62
7
  6
CONTINUOUS
  0
VERTEX
 10
51.300000
 20
59.200000
 30
0.000000
  8
2
 62
7
  6
CONTINUOUS
  0
SEQEND
  0
CIRCLE
  8
2
 62
7
  6
CONTINUOUS
 10
52.500000
 20
58.300000
 30
0.0
 40
0.400000
  0
POLYLINE
  8
2
 62
7
  6
CONTINUOUS
 70
1
 66
1
  0
VERTEX
 10
50.200000
 20
49.400000
  8
2
 62
7
  6
CONTINUOUS
  0
VERTEX
 10
51.300000
 20
50.200000
  8
2
 62
7
  6
CONTINUOUS
  0
VERTEX
 10
53.700000
 20
50.200000
  8
2
 62
7
  6
CONTINUOUS
  0
VERTEX
 10
54.800000
 20
49.500000
  8
2
 62
7
  6
CONTINUOUS
  0
VERTEX
 10
54.800000
 20
36.700000
  8
2
 62
7
  6
CONTINUOUS
  0
VERTEX
 10
54.400000
 20
36.700000
  8
2
 62
7
  6
CONTINUOUS
  0
VERTEX
 10
54.400000
 20
39.800000
  8
2
 62
7
  6
CONTINUOUS
  0
VERTEX
 10
50.600000
 20
39.800000
  8
2
 62
7
  6
CONTINUOUS
  0
VERTEX
 10
50.600000
 20
36.700000
  8
2
 62
7
  6
CONTINUOUS
  0
VERTEX
 10
50.200000
 20
36.700000
  8
2
 62
7
  6
CONTINUOUS
  0
SEQEND
  0
POLYLINE
  8
2
 62
7
  6
CONTINUOUS
 70
1
 66
1
  0
VERTEX
 10
50.600000
 20
47.900000
  8
2
 62
7
  6
CONTINUOUS
  0
VERTEX
 10
51.300000
 20
48.700000
  8
2
 62
7
  6
CONTINUOUS
  0
VERTEX
 10
53.700000
 20
48.700000
  8
2
 62
7
  6
CONTINUOUS
  0
VERTEX
 10
54.400000
 20
47.900000
  8
2
 62
7
  6
CONTINUOUS
  0
VERTEX
 10
54.400000
 20
39.800000
  8
2
 62
7
  6
CONTINUOUS
  0
VERTEX
 10
54.200000
 20
39.300000
  8
2
 62
7
  6
CONTINUOUS
  0
VERTEX
 10
54.000000
 20
39.000000
  8
2
 62
7
  6
CONTINUOUS
  0
VERTEX
 10
51.000000
 20
39.000000
  8
2
 62
7
  6
CONTINUOUS
  0
VERTEX
 10
50.800000
 20
39.300000
  8
2
 62
7
  6
CONTINUOUS
  0
VERTEX
 10
50.600000
 20
39.800000
  8
2
 62
7
  6
CONTINUOUS
  0
SEQEND
  0
POLYLINE
  8
2
 62
7
  6
CONTINUOUS
 70
0
 66
1
  0
VERTEX
 10
50.600000
 20
39.800000
  8
2
 62
7
  6
CONTINUOUS
  0
VERTEX
 10
50.200000
 20
39.800000
  8
2
 62
7
  6
CONTINUOUS
  0
SEQEND
  0
POLYLINE
  8
2
 62
7
  6
CONTINUOUS
 70
0
 66
1
  0
VERTEX
 10
54.400000
 20
39.800000
  8
2
 62
7
  6
CONTINUOUS
  0
VERTEX
 10
54.800000
 20
39.800000
  8
2
 62
7
  6
CONTINUOUS
  0
SEQEND
  0
POLYLINE
  8
2
 62
7
  6
CONTINUOUS
 70
1
 66
1
  0
VERTEX
 10
51.300000
 20
48.400000
  8
2
 62
7
  6
CONTINUOUS
  0
VERTEX
 10
53.600000
 20
48.400000
  8
2
 62
7
  6
CONTINUOUS
  0
VERTEX
 10
54.300000
 20
46.500000
  8
2
 62
7
  6
CONTINUOUS
  0
VERTEX
 10
54.300000
 20
39.800000
  8
2
 62
7
  6
CONTINUOUS
  0
VERTEX
 10
50.700000
 20
39.800000
  8
2
 62
7
  6
CONTINUOUS
  0
VERTEX
 10
50.700000
 20
46.500000
  8
2
 62
7
  6
CONTINUOUS
  0
SEQEND
  0
POLYLINE
  8
2
 62
7
  6
CONTINUOUS
 70
1
 66
1
  0
VERTEX
 10
51.500000
 20
47.400000
  8
2
 62
7
  6
CONTINUOUS
  0
VERTEX
 10
53.400000
 20
47.400000
  8
2
 62
7
  6
CONTINUOUS
  0
VERTEX
 10
54.100000
 20
45.600000
  8
2
 62
7
  6
CONTINUOUS
  0
VERTEX
 10
54.100000
 20
39.400000
  8
2
 62
7
  6
CONTINUOUS
  0
VERTEX
 10
50.900000
 20
39.400000
  8
2
 62
7
  6
CONTINUOUS
  0
VERTEX
 10
50.900000
 20
45.600000
  8
2
 62
7
  6
CONTINUOUS
  0
SEQEND
  0
CIRCLE
  8
2
 62
7
  6
CONTINUOUS
 10
52.500000
 20
46.400000
 30
0.0
 40
0.400000
  0
POLYLINE
  8
2
 62
7
  6
CONTINUOUS
 70
1
 66
1
  0
VERTEX
 10
53.700000
 20
40.700000
 30
0.000000
  8
2
 62
7
  6
CONTINUOUS
  0
VERTEX
 10
53.700000
 20
45.300000
 30
0.000000
  8
2
 62
7
  6
CONTINUOUS
  0
VERTEX
 10
51.300000
 20
45.300000
 30
0.000000
  8
2
 62
7
  6
CONTINUOUS
  0
VERTEX
 10
51.300000
 20
40.700000
 30
0.000000
  8
2
 62
7
  6
CONTINUOUS
  0
SEQEND
  0
CIRCLE
  8
2
 62
7
  6
CONTINUOUS
 10
52.500000
 20
39.800000
 30
0.0
 40
0.400000
  0
POLYLINE
  8
2
 62
7
  6
CONTINUOUS
 70
1
 66
1
  0
VERTEX
 10
50.600000
 20
29.400000
  8
2
 62
7
  6
CONTINUOUS
  0
VERTEX
 10
51.300000
 20
30.200000
  8
2
 62
7
  6
CONTINUOUS
  0
VERTEX
 10
53.700000
 20
30.200000
  8
2
 62
7
  6
CONTINUOUS
  0
VERTEX
 10
54.400000
 20
29.400000
  8
2
 62
7
  6
CONTINUOUS
  0
VERTEX
 10
54.400000
 20
21.300000
  8
2
 62
7
  6
CONTINUOUS
  0
VERTEX
 10
54.200000
 20
20.800000
  8
2
 62
7
  6
CONTINUOUS
  0
VERTEX
 10
54.000000
 20
20.500000
  8
2
 62
7
  6
CONTINUOUS
  0
VERTEX
 10
51.000000
 20
20.500000
  8
2
 62
7
  6
CONTINUOUS
  0
VERTEX
 10
50.800000
 20
20.800000
  8
2
 62
7
  6
CONTINUOUS
  0
VERTEX
 10
50.600000
 20
21.300000
  8
2
 62
7
  6
CONTINUOUS
  0
SEQEND
  0
POLYLINE
  8
2
 62
7
  6
CONTINUOUS
 70
0
 66
1
  0
VERTEX
 10
50.600000
 20
21.300000
  8
2
 62
7
  6
CONTINUOUS
  0
VERTEX
 10
50.200000
 20
21.300000
  8
2
 62
7
  6
CONTINUOUS
  0
SEQEND
  0
POLYLINE
  8
2
 62
7
  6
CONTINUOUS
 70
0
 66
1
  0
VERTEX
 10
54.400000
 20
21.300000
  8
2
 62
7
  6
CONTINUOUS
  0
VERTEX
 10
54.800000
 20
21.300000
  8
2
 62
7
  6
CONTINUOUS
  0
SEQEND
  0
POLYLINE
  8
2
 62
7
  6
CONTINUOUS
 70
1
 66
1
  0
VERTEX
 10
51.300000
 20
29.900000
  8
2
 62
7
  6
CONTINUOUS
  0
VERTEX
 10
53.600000
 20
29.900000
  8
2
 62
7
  6
CONTINUOUS
  0
VERTEX
 10
54.300000
 20
28.000000
  8
2
 62
7
  6
CONTINUOUS
  0
VERTEX
 10
54.300000
 20
21.300000
  8
2
 62
7
  6
CONTINUOUS
  0
VERTEX
 10
50.700000
 20
21.300000
  8
2
 62
7
  6
CONTINUOUS
  0
VERTEX
 10
50.700000
 20
28.000000
  8
2
 62
7
  6
CONTINUOUS
  0
SEQEND
  0
POLYLINE
  8
2
 62
7
  6
CONTINUOUS
 70
1
 66
1
  0
VERTEX
 10
51.500000
 20
28.900000
  8
2
 62
7
  6
CONTINUOUS
  0
VERTEX
 10
53.400000
 20
28.900000
  8
2
 62
7
  6
CONTINUOUS
  0
VERTEX
 10
54.100000
 20
27.100000
  8
2
 62
7
  6
CONTINUOUS
  0
VERTEX
 10
54.100000
 20
20.900000
  8
2
 62
7
  6
CONTINUOUS
  0
VERTEX
 10
50.900000
 20
20.900000
  8
2
 62
7
  6
CONTINUOUS
  0
VERTEX
 10
50.900000
 20
27.100000
  8
2
 62
7
  6
CONTINUOUS
  0
SEQEND
  0
CIRCLE
  8
2
 62
7
  6
CONTINUOUS
 10
52.500000
 20
27.900000
 30
0.0
 40
0.400000
  0
POLYLINE
  8
2
 62
7
  6
CONTINUOUS
 70
1
 66
1
  0
VERTEX
 10
53.700000
 20
22.200000
 30
0.000000
  8
2
 62
7
  6
CONTINUOUS
  0
VERTEX
 10
53.700000
 20
26.800000
 30
0.000000
  8
2
 62
7
  6
CONTINUOUS
  0
VERTEX
 10
51.300000
 20
26.800000
 30
0.000000
  8
2
 62
7
  6
CONTINUOUS
  0
VERTEX
 10
51.300000
 20
22.200000
 30
0.000000
  8
2
 62
7
  6
CONTINUOUS
  0
SEQEND
  0
CIRCLE
  8
2
 62
7
  6
CONTINUOUS
 10
52.500000
 20
21.300000
 30
0.0
 40
0.400000
  0
SOLID
  8
2
 62
1
  6
CONTINUOUS
 10
54.900000
 20
69.600000
 11
54.900000
 21
70.500000
 12
50.100000
 22
69.600000
 13
50.100000
 23
70.500000
  0
POLYLINE
  8
2
 62
7
  6
CONTINUOUS
 70
1
 66
1
  0
VERTEX
 10
54.900000
 20
69.600000
 30
0.000000
  8
2
 62
7
  6
CONTINUOUS
  0
VERTEX
 10
54.900000
 20
70.500000
 30
0.000000
  8
2
 62
7
  6
CONTINUOUS
  0
VERTEX
 10
50.100000
 20
70.500000
 30
0.000000
  8
2
 62
7
  6
CONTINUOUS
  0
VERTEX
 10
50.100000
 20
69.600000
 30
0.000000
  8
2
 62
7
  6
CONTINUOUS
  0
SEQEND
  0
SOLID
  8
2
 62
254
  6
CONTINUOUS
 10
50.600000
 20
26.200000
 11
50.600000
 21
64.900000
 12
50.200000
 22
26.200000
 13
50.200000
 23
64.900000
  0
POLYLINE
  8
2
 62
7
  6
CONTINUOUS
 70
1
 66
1
  0
VERTEX
 10
50.600000
 20
26.200000
 30
0.000000
  8
2
 62
7
  6
CONTINUOUS
  0
VERTEX
 10
50.600000
 20
64.900000
 30
0.000000
  8
2
 62
7
  6
CONTINUOUS
  0
VERTEX
 10
50.200000
 20
64.900000
 30
0.000000
  8
2
 62
7
  6
CONTINUOUS
  0
VERTEX
 10
50.200000
 20
26.200000
 30
0.000000
  8
2
 62
7
  6
CONTINUOUS
  0
SEQEND
  0
POLYLINE
  8
2
 62
7
  6
CONTINUOUS
 70
1
 66
1
  0
VERTEX
 10
50.600000
 20
18.200000
 30
0.000000
  8
2
 62
7
  6
CONTINUOUS
  0
VERTEX
 10
50.600000
 20
21.300000
 30
0.000000
  8
2
 62
7
  6
CONTINUOUS
  0
VERTEX
 10
50.200000
 20
21.300000
 30
0.000000
  8
2
 62
7
  6
CONTINUOUS
  0
VERTEX
 10
50.200000
 20
18.200000
 30
0.000000
  8
2
 62
7
  6
CONTINUOUS
  0
SEQEND
  0
POLYLINE
  8
2
 62
7
  6
CONTINUOUS
 70
1
 66
1
  0
VERTEX
 10
50.600000
 20
55.200000
 30
0.000000
  8
2
 62
7
  6
CONTINUOUS
  0
VERTEX
 10
50.600000
 20
58.300000
 30
0.000000
  8
2
 62
7
  6
CONTINUOUS
  0
VERTEX
 10
50.200000
 20
58.300000
 30
0.000000
  8
2
 62
7
  6
CONTINUOUS
  0
VERTEX
 10
50.200000
 20
55.200000
 30
0.000000
  8
2
 62
7
  6
CONTINUOUS
  0
SEQEND
  0
POLYLINE
  8
2
 62
7
  6
CONTINUOUS
 70
1
 66
1
  0
VERTEX
 10
54.800000
 20
55.200000
 30
0.000000
  8
2
 62
7
  6
CONTINUOUS
  0
VERTEX
 10
54.800000
 20
58.300000
 30
0.000000
  8
2
 62
7
  6
CONTINUOUS
  0
VERTEX
 10
54.400000
 20
58.300000
 30
0.000000
  8
2
 62
7
  6
CONTINUOUS
  0
VERTEX
 10
54.400000
 20
55.200000
 30
0.000000
  8
2
 62
7
  6
CONTINUOUS
  0
SEQEND
  0
POLYLINE
  8
2
 62
7
  6
CONTINUOUS
 70
1
 66
1
  0
VERTEX
 10
54.800000
 20
18.200000
 30
0.000000
  8
2
 62
7
  6
CONTINUOUS
  0
VERTEX
 10
54.800000
 20
21.300000
 30
0.000000
  8
2
 62
7
  6
CONTINUOUS
  0
VERTEX
 10
54.400000
 20
21.300000
 30
0.000000
  8
2
 62
7
  6
CONTINUOUS
  0
VERTEX
 10
54.400000
 20
18.200000
 30
0.000000
  8
2
 62
7
  6
CONTINUOUS
  0
SEQEND
  0
SOLID
  8
2
 62
254
  6
CONTINUOUS
 10
54.800000
 20
26.200000
 11
54.800000
 21
64.900000
 12
54.400000
 22
26.200000
 13
54.400000
 23
64.900000
  0
POLYLINE
  8
2
 62
7
  6
CONTINUOUS
 70
1
 66
1
  0
VERTEX
 10
54.800000
 20
26.200000
 30
0.000000
  8
2
 62
7
  6
CONTINUOUS
  0
VERTEX
 10
54.800000
 20
64.900000
 30
0.000000
  8
2
 62
7
  6
CONTINUOUS
  0
VERTEX
 10
54.400000
 20
64.900000
 30
0.000000
  8
2
 62
7
  6
CONTINUOUS
  0
VERTEX
 10
54.400000
 20
26.200000
 30
0.000000
  8
2
 62
7
  6
CONTINUOUS
  0
SEQEND
  0
POLYLINE
  8
2
 62
7
  6
CONTINUOUS
 70
1
 66
1
  0
VERTEX
 10
51.300000
 20
50.200000
  8
2
 62
7
  6
CONTINUOUS
  0
VERTEX
 10
53.700000
 20
50.200000
  8
2
 62
7
  6
CONTINUOUS
  0
VERTEX
 10
54.800000
 20
49.500000
  8
2
 62
7
  6
CONTINUOUS
  0
VERTEX
 10
54.800000
 20
39.800000
  8
2
 62
7
  6
CONTINUOUS
  0
VERTEX
 10
54.400000
 20
39.800000
  8
2
 62
7
  6
CONTINUOUS
  0
VERTEX
 10
54.400000
 20
47.900000
  8
2
 62
7
  6
CONTINUOUS
  0
VERTEX
 10
53.700000
 20
48.700000
  8
2
 62
7
  6
CONTINUOUS
  0
VERTEX
 10
51.300000
 20
48.700000
  8
2
 62
7
  6
CONTINUOUS
  0
VERTEX
 10
50.600000
 20
47.900000
  8
2
 62
7
  6
CONTINUOUS
  0
VERTEX
 10
50.600000
 20
39.800000
  8
2
 62
7
  6
CONTINUOUS
  0
VERTEX
 10
50.200000
 20
39.800000
  8
2
 62
7
  6
CONTINUOUS
  0
VERTEX
 10
50.200000
 20
49.400000
  8
2
 62
7
  6
CONTINUOUS
  0
SEQEND
  0
SOLID
  8
2
 62
255
  6
CONTINUOUS
 10
59.900000
 20
6.600000
 11
59.900000
 21
71.600000
 12
55.100000
 22
6.600000
 13
55.100000
 23
71.600000
  0
POLYLINE
  8
2
 62
7
  6
CONTINUOUS
 70
1
 66
1
  0
VERTEX
 10
59.900000
 20
6.600000
 30
0.000000
  8
2
 62
7
  6
CONTINUOUS
  0
VERTEX
 10
59.900000
 20
71.600000
 30
0.000000
  8
2
 62
7
  6
CONTINUOUS
  0
VERTEX
 10
55.100000
 20
71.600000
 30
0.000000
  8
2
 62
7
  6
CONTINUOUS
  0
VERTEX
 10
55.100000
 20
6.600000
 30
0.000000
  8
2
 62
7
  6
CONTINUOUS
  0
SEQEND
  0
POLYLINE
  8
2
 62
7
  6
L000000000000000000
 70
0
 66
1
  0
VERTEX
 10
57.500000
 20
71.600000
  8
2
 62
7
  6
L000000000000000000
  0
VERTEX
 10
57.500000
 20
67.200000
  8
2
 62
7
  6
L000000000000000000
  0
SEQEND
  0
POLYLINE
  8
2
 62
7
  6
L000000000000000000
 70
0
 66
1
  0
VERTEX
 10
57.500000
 20
57.500000
  8
2
 62
7
  6
L000000000000000000
  0
VERTEX
 10
57.500000
 20
50.200000
  8
2
 62
7
  6
L000000000000000000
  0
SEQEND
  0
POLYLINE
  8
2
 62
7
  6
L000000000000000000
 70
0
 66
1
  0
VERTEX
 10
57.500000
 20
39.000000
  8
2
 62
7
  6
L000000000000000000
  0
VERTEX
 10
57.500000
 20
30.200000
  8
2
 62
7
  6
L000000000000000000
  0
SEQEND
  0
POLYLINE
  8
2
 62
7
  6
L000000000000000000
 70
0
 66
1
  0
VERTEX
 10
57.500000
 20
20.500000
  8
2
 62
7
  6
L000000000000000000
  0
VERTEX
 10
57.500000
 20
15.000000
  8
2
 62
7
  6
L000000000000000000
  0
SEQEND
  0
POLYLINE
  8
2
 62
7
  6
CONTINUOUS
 70
0
 66
1
  0
VERTEX
 10
55.100000
 20
14.300000
  8
2
 62
7
  6
CONTINUOUS
  0
VERTEX
 10
55.900000
 20
14.300000
  8
2
 62
7
  6
CONTINUOUS
  0
VERTEX
 10
55.900000
 20
15.000000
  8
2
 62
7
  6
CONTINUOUS
  0
VERTEX
 10
59.100000
 20
15.000000
  8
2
 62
7
  6
CONTINUOUS
  0
VERTEX
 10
59.100000
 20
14.300000
  8
2
 62
7
  6
CONTINUOUS
  0
VERTEX
 10
59.900000
 20
14.300000
  8
2
 62
7
  6
CONTINUOUS
  0
SEQEND
  0
POLYLINE
  8
2
 62
7
  6
CONTINUOUS
 70
1
 66
1
  0
VERTEX
 10
59.300000
 20
7.100000
 30
0.000000
  8
2
 62
7
  6
CONTINUOUS
  0
VERTEX
 10
59.300000
 20
11.400000
 30
0.000000
  8
2
 62
7
  6
CONTINUOUS
  0
VERTEX
 10
55.800000
 20
11.400000
 30
0.000000
  8
2
 62
7
  6
CONTINUOUS
  0
VERTEX
 10
55.800000
 20
7.100000
 30
0.000000
  8
2
 62
7
  6
CONTINUOUS
  0
SEQEND
  0
POLYLINE
  8
2
 62
7
  6
CONTINUOUS
 70
1
 66
1
  0
VERTEX
 10
58.900000
 20
7.500000
 30
0.000000
  8
2
 62
7
  6
CONTINUOUS
  0
VERTEX
 10
58.900000
 20
10.800000
 30
0.000000
  8
2
 62
7
  6
CONTINUOUS
  0
VERTEX
 10
56.200000
 20
10.800000
 30
0.000000
  8
2
 62
7
  6
CONTINUOUS
  0
VERTEX
 10
56.200000
 20
7.500000
 30
0.000000
  8
2
 62
7
  6
CONTINUOUS
  0
SEQEND
  0
POLYLINE
  8
2
 62
7
  6
CONTINUOUS
 70
0
 66
1
  0
VERTEX
 10
55.800000
 20
11.400000
  8
2
 62
7
  6
CONTINUOUS
  0
VERTEX
 10
56.200000
 20
10.800000
  8
2
 62
7
  6
CONTINUOUS
  0
SEQEND
  0
POLYLINE
  8
2
 62
7
  6
CONTINUOUS
 70
0
 66
1
  0
VERTEX
 10
59.300000
 20
11.400000
  8
2
 62
7
  6
CONTINUOUS
  0
VERTEX
 10
58.900000
 20
10.800000
  8
2
 62
7
  6
CONTINUOUS
  0
SEQEND
  0
POLYLINE
  8
2
 62
7
  6
CONTINUOUS
 70
1
 66
1
  0
VERTEX
 10
58.800000
 20
9.600000
 30
0.000000
  8
2
 62
7
  6
CONTINUOUS
  0
VERTEX
 10
58.800000
 20
10.100000
 30
0.000000
  8
2
 62
7
  6
CONTINUOUS
  0
VERTEX
 10
56.300000
 20
10.100000
 30
0.000000
  8
2
 62
7
  6
CONTINUOUS
  0
VERTEX
 10
56.300000
 20
9.600000
 30
0.000000
  8
2
 62
7
  6
CONTINUOUS
  0
SEQEND
  0
POLYLINE
  8
2
 62
7
  6
CONTINUOUS
 70
1
 66
1
  0
VERTEX
 10
58.800000
 20
8.800000
 30
0.000000
  8
2
 62
7
  6
CONTINUOUS
  0
VERTEX
 10
58.800000
 20
9.300000
 30
0.000000
  8
2
 62
7
  6
CONTINUOUS
  0
VERTEX
 10
56.300000
 20
9.300000
 30
0.000000
  8
2
 62
7
  6
CONTINUOUS
  0
VERTEX
 10
56.300000
 20
8.800000
 30
0.000000
  8
2
 62
7
  6
CONTINUOUS
  0
SEQEND
  0
POLYLINE
  8
2
 62
7
  6
CONTINUOUS
 70
1
 66
1
  0
VERTEX
 10
58.800000
 20
8.000000
 30
0.000000
  8
2
 62
7
  6
CONTINUOUS
  0
VERTEX
 10
58.800000
 20
8.500000
 30
0.000000
  8
2
 62
7
  6
CONTINUOUS
  0
VERTEX
 10
56.300000
 20
8.500000
 30
0.000000
  8
2
 62
7
  6
CONTINUOUS
  0
VERTEX
 10
56.300000
 20
8.000000
 30
0.000000
  8
2
 62
7
  6
CONTINUOUS
  0
SEQEND
  0
SOLID
  8
2
 62
1
  6
CONTINUOUS
 10
59.300000
 20
13.400000
 11
59.300000
 21
13.900000
 12
55.700000
 22
13.400000
 13
55.700000
 23
13.900000
  0
POLYLINE
  8
2
 62
7
  6
CONTINUOUS
 70
1
 66
1
  0
VERTEX
 10
59.300000
 20
13.400000
 30
0.000000
  8
2
 62
7
  6
CONTINUOUS
  0
VERTEX
 10
59.300000
 20
13.900000
 30
0.000000
  8
2
 62
7
  6
CONTINUOUS
  0
VERTEX
 10
55.700000
 20
13.900000
 30
0.000000
  8
2
 62
7
  6
CONTINUOUS
  0
VERTEX
 10
55.700000
 20
13.400000
 30
0.000000
  8
2
 62
7
  6
CONTINUOUS
  0
SEQEND
  0
POLYLINE
  8
2
 62
7
  6
CONTINUOUS
 70
1
 66
1
  0
VERTEX
 10
55.600000
 20
66.400000
  8
2
 62
7
  6
CONTINUOUS
  0
VERTEX
 10
56.300000
 20
67.200000
  8
2
 62
7
  6
CONTINUOUS
  0
VERTEX
 10
58.700000
 20
67.200000
  8
2
 62
7
  6
CONTINUOUS
  0
VERTEX
 10
59.400000
 20
66.400000
  8
2
 62
7
  6
CONTINUOUS
  0
VERTEX
 10
59.400000
 20
58.300000
  8
2
 62
7
  6
CONTINUOUS
  0
VERTEX
 10
59.200000
 20
57.800000
  8
2
 62
7
  6
CONTINUOUS
  0
VERTEX
 10
59.000000
 20
57.500000
  8
2
 62
7
  6
CONTINUOUS
  0
VERTEX
 10
56.000000
 20
57.500000
  8
2
 62
7
  6
CONTINUOUS
  0
VERTEX
 10
55.800000
 20
57.800000
  8
2
 62
7
  6
CONTINUOUS
  0
VERTEX
 10
55.600000
 20
58.300000
  8
2
 62
7
  6
CONTINUOUS
  0
SEQEND
  0
POLYLINE
  8
2
 62
7
  6
CONTINUOUS
 70
0
 66
1
  0
VERTEX
 10
55.600000
 20
58.300000
  8
2
 62
7
  6
CONTINUOUS
  0
VERTEX
 10
55.200000
 20
58.300000
  8
2
 62
7
  6
CONTINUOUS
  0
SEQEND
  0
POLYLINE
  8
2
 62
7
  6
CONTINUOUS
 70
0
 66
1
  0
VERTEX
 10
59.400000
 20
58.300000
  8
2
 62
7
  6
CONTINUOUS
  0
VERTEX
 10
59.800000
 20
58.300000
  8
2
 62
7
  6
CONTINUOUS
  0
SEQEND
  0
POLYLINE
  8
2
 62
7
  6
CONTINUOUS
 70
1
 66
1
  0
VERTEX
 10
56.300000
 20
66.900000
  8
2
 62
7
  6
CONTINUOUS
  0
VERTEX
 10
58.600000
 20
66.900000
  8
2
 62
7
  6
CONTINUOUS
  0
VERTEX
 10
59.300000
 20
65.000000
  8
2
 62
7
  6
CONTINUOUS
  0
VERTEX
 10
59.300000
 20
58.300000
  8
2
 62
7
  6
CONTINUOUS
  0
VERTEX
 10
55.700000
 20
58.300000
  8
2
 62
7
  6
CONTINUOUS
  0
VERTEX
 10
55.700000
 20
65.000000
  8
2
 62
7
  6
CONTINUOUS
  0
SEQEND
  0
POLYLINE
  8
2
 62
7
  6
CONTINUOUS
 70
1
 66
1
  0
VERTEX
 10
56.500000
 20
65.900000
  8
2
 62
7
  6
CONTINUOUS
  0
VERTEX
 10
58.400000
 20
65.900000
  8
2
 62
7
  6
CONTINUOUS
  0
VERTEX
 10
59.100000
 20
64.100000
  8
2
 62
7
  6
CONTINUOUS
  0
VERTEX
 10
59.100000
 20
57.900000
  8
2
 62
7
  6
CONTINUOUS
  0
VERTEX
 10
55.900000
 20
57.900000
  8
2
 62
7
  6
CONTINUOUS
  0
VERTEX
 10
55.900000
 20
64.100000
  8
2
 62
7
  6
CONTINUOUS
  0
SEQEND
  0
CIRCLE
  8
2
 62
7
  6
CONTINUOUS
 10
57.500000
 20
64.900000
 30
0.0
 40
0.400000
  0
POLYLINE
  8
2
 62
7
  6
CONTINUOUS
 70
1
 66
1
  0
VERTEX
 10
58.700000
 20
59.200000
 30
0.000000
  8
2
 62
7
  6
CONTINUOUS
  0
VERTEX
 10
58.700000
 20
63.800000
 30
0.000000
  8
2
 62
7
  6
CONTINUOUS
  0
VERTEX
 10
56.300000
 20
63.800000
 30
0.000000
  8
2
 62
7
  6
CONTINUOUS
  0
VERTEX
 10
56.300000
 20
59.200000
 30
0.000000
  8
2
 62
7
  6
CONTINUOUS
  0
SEQEND
  0
CIRCLE
  8
2
 62
7
  6
CONTINUOUS
 10
57.500000
 20
58.300000
 30
0.0
 40
0.400000
  0
POLYLINE
  8
2
 62
7
  6
CONTINUOUS
 70
1
 66
1
  0
VERTEX
 10
55.200000
 20
49.400000
  8
2
 62
7
  6
CONTINUOUS
  0
VERTEX
 10
56.300000
 20
50.200000
  8
2
 62
7
  6
CONTINUOUS
  0
VERTEX
 10
58.700000
 20
50.200000
  8
2
 62
7
  6
CONTINUOUS
  0
VERTEX
 10
59.800000
 20
49.500000
  8
2
 62
7
  6
CONTINUOUS
  0
VERTEX
 10
59.800000
 20
36.700000
  8
2
 62
7
  6
CONTINUOUS
  0
VERTEX
 10
59.400000
 20
36.700000
  8
2
 62
7
  6
CONTINUOUS
  0
VERTEX
 10
59.400000
 20
39.800000
  8
2
 62
7
  6
CONTINUOUS
  0
VERTEX
 10
55.600000
 20
39.800000
  8
2
 62
7
  6
CONTINUOUS
  0
VERTEX
 10
55.600000
 20
36.700000
  8
2
 62
7
  6
CONTINUOUS
  0
VERTEX
 10
55.200000
 20
36.700000
  8
2
 62
7
  6
CONTINUOUS
  0
SEQEND
  0
POLYLINE
  8
2
 62
7
  6
CONTINUOUS
 70
1
 66
1
  0
VERTEX
 10
55.600000
 20
47.900000
  8
2
 62
7
  6
CONTINUOUS
  0
VERTEX
 10
56.300000
 20
48.700000
  8
2
 62
7
  6
CONTINUOUS
  0
VERTEX
 10
58.700000
 20
48.700000
  8
2
 62
7
  6
CONTINUOUS
  0
VERTEX
 10
59.400000
 20
47.900000
  8
2
 62
7
  6
CONTINUOUS
  0
VERTEX
 10
59.400000
 20
39.800000
  8
2
 62
7
  6
CONTINUOUS
  0
VERTEX
 10
59.200000
 20
39.300000
  8
2
 62
7
  6
CONTINUOUS
  0
VERTEX
 10
59.000000
 20
39.000000
  8
2
 62
7
  6
CONTINUOUS
  0
VERTEX
 10
56.000000
 20
39.000000
  8
2
 62
7
  6
CONTINUOUS
  0
VERTEX
 10
55.800000
 20
39.300000
  8
2
 62
7
  6
CONTINUOUS
  0
VERTEX
 10
55.600000
 20
39.800000
  8
2
 62
7
  6
CONTINUOUS
  0
SEQEND
  0
POLYLINE
  8
2
 62
7
  6
CONTINUOUS
 70
0
 66
1
  0
VERTEX
 10
55.600000
 20
39.800000
  8
2
 62
7
  6
CONTINUOUS
  0
VERTEX
 10
55.200000
 20
39.800000
  8
2
 62
7
  6
CONTINUOUS
  0
SEQEND
  0
POLYLINE
  8
2
 62
7
  6
CONTINUOUS
 70
0
 66
1
  0
VERTEX
 10
59.400000
 20
39.800000
  8
2
 62
7
  6
CONTINUOUS
  0
VERTEX
 10
59.800000
 20
39.800000
  8
2
 62
7
  6
CONTINUOUS
  0
SEQEND
  0
POLYLINE
  8
2
 62
7
  6
CONTINUOUS
 70
1
 66
1
  0
VERTEX
 10
56.300000
 20
48.400000
  8
2
 62
7
  6
CONTINUOUS
  0
VERTEX
 10
58.600000
 20
48.400000
  8
2
 62
7
  6
CONTINUOUS
  0
VERTEX
 10
59.300000
 20
46.500000
  8
2
 62
7
  6
CONTINUOUS
  0
VERTEX
 10
59.300000
 20
39.800000
  8
2
 62
7
  6
CONTINUOUS
  0
VERTEX
 10
55.700000
 20
39.800000
  8
2
 62
7
  6
CONTINUOUS
  0
VERTEX
 10
55.700000
 20
46.500000
  8
2
 62
7
  6
CONTINUOUS
  0
SEQEND
  0
POLYLINE
  8
2
 62
7
  6
CONTINUOUS
 70
1
 66
1
  0
VERTEX
 10
56.500000
 20
47.400000
  8
2
 62
7
  6
CONTINUOUS
  0
VERTEX
 10
58.400000
 20
47.400000
  8
2
 62
7
  6
CONTINUOUS
  0
VERTEX
 10
59.100000
 20
45.600000
  8
2
 62
7
  6
CONTINUOUS
  0
VERTEX
 10
59.100000
 20
39.400000
  8
2
 62
7
  6
CONTINUOUS
  0
VERTEX
 10
55.900000
 20
39.400000
  8
2
 62
7
  6
CONTINUOUS
  0
VERTEX
 10
55.900000
 20
45.600000
  8
2
 62
7
  6
CONTINUOUS
  0
SEQEND
  0
CIRCLE
  8
2
 62
7
  6
CONTINUOUS
 10
57.500000
 20
46.400000
 30
0.0
 40
0.400000
  0
POLYLINE
  8
2
 62
7
  6
CONTINUOUS
 70
1
 66
1
  0
VERTEX
 10
58.700000
 20
40.700000
 30
0.000000
  8
2
 62
7
  6
CONTINUOUS
  0
VERTEX
 10
58.700000
 20
45.300000
 30
0.000000
  8
2
 62
7
  6
CONTINUOUS
  0
VERTEX
 10
56.300000
 20
45.300000
 30
0.000000
  8
2
 62
7
  6
CONTINUOUS
  0
VERTEX
 10
56.300000
 20
40.700000
 30
0.000000
  8
2
 62
7
  6
CONTINUOUS
  0
SEQEND
  0
CIRCLE
  8
2
 62
7
  6
CONTINUOUS
 10
57.500000
 20
39.800000
 30
0.0
 40
0.400000
  0
POLYLINE
  8
2
 62
7
  6
CONTINUOUS
 70
1
 66
1
  0
VERTEX
 10
55.600000
 20
29.400000
  8
2
 62
7
  6
CONTINUOUS
  0
VERTEX
 10
56.300000
 20
30.200000
  8
2
 62
7
  6
CONTINUOUS
  0
VERTEX
 10
58.700000
 20
30.200000
  8
2
 62
7
  6
CONTINUOUS
  0
VERTEX
 10
59.400000
 20
29.400000
  8
2
 62
7
  6
CONTINUOUS
  0
VERTEX
 10
59.400000
 20
21.300000
  8
2
 62
7
  6
CONTINUOUS
  0
VERTEX
 10
59.200000
 20
20.800000
  8
2
 62
7
  6
CONTINUOUS
  0
VERTEX
 10
59.000000
 20
20.500000
  8
2
 62
7
  6
CONTINUOUS
  0
VERTEX
 10
56.000000
 20
20.500000
  8
2
 62
7
  6
CONTINUOUS
  0
VERTEX
 10
55.800000
 20
20.800000
  8
2
 62
7
  6
CONTINUOUS
  0
VERTEX
 10
55.600000
 20
21.300000
  8
2
 62
7
  6
CONTINUOUS
  0
SEQEND
  0
POLYLINE
  8
2
 62
7
  6
CONTINUOUS
 70
0
 66
1
  0
VERTEX
 10
55.600000
 20
21.300000
  8
2
 62
7
  6
CONTINUOUS
  0
VERTEX
 10
55.200000
 20
21.300000
  8
2
 62
7
  6
CONTINUOUS
  0
SEQEND
  0
POLYLINE
  8
2
 62
7
  6
CONTINUOUS
 70
0
 66
1
  0
VERTEX
 10
59.400000
 20
21.300000
  8
2
 62
7
  6
CONTINUOUS
  0
VERTEX
 10
59.800000
 20
21.300000
  8
2
 62
7
  6
CONTINUOUS
  0
SEQEND
  0
POLYLINE
  8
2
 62
7
  6
CONTINUOUS
 70
1
 66
1
  0
VERTEX
 10
56.300000
 20
29.900000
  8
2
 62
7
  6
CONTINUOUS
  0
VERTEX
 10
58.600000
 20
29.900000
  8
2
 62
7
  6
CONTINUOUS
  0
VERTEX
 10
59.300000
 20
28.000000
  8
2
 62
7
  6
CONTINUOUS
  0
VERTEX
 10
59.300000
 20
21.300000
  8
2
 62
7
  6
CONTINUOUS
  0
VERTEX
 10
55.700000
 20
21.300000
  8
2
 62
7
  6
CONTINUOUS
  0
VERTEX
 10
55.700000
 20
28.000000
  8
2
 62
7
  6
CONTINUOUS
  0
SEQEND
  0
POLYLINE
  8
2
 62
7
  6
CONTINUOUS
 70
1
 66
1
  0
VERTEX
 10
56.500000
 20
28.900000
  8
2
 62
7
  6
CONTINUOUS
  0
VERTEX
 10
58.400000
 20
28.900000
  8
2
 62
7
  6
CONTINUOUS
  0
VERTEX
 10
59.100000
 20
27.100000
  8
2
 62
7
  6
CONTINUOUS
  0
VERTEX
 10
59.100000
 20
20.900000
  8
2
 62
7
  6
CONTINUOUS
  0
VERTEX
 10
55.900000
 20
20.900000
  8
2
 62
7
  6
CONTINUOUS
  0
VERTEX
 10
55.900000
 20
27.100000
  8
2
 62
7
  6
CONTINUOUS
  0
SEQEND
  0
CIRCLE
  8
2
 62
7
  6
CONTINUOUS
 10
57.500000
 20
27.900000
 30
0.0
 40
0.400000
  0
POLYLINE
  8
2
 62
7
  6
CONTINUOUS
 70
1
 66
1
  0
VERTEX
 10
58.700000
 20
22.200000
 30
0.000000
  8
2
 62
7
  6
CONTINUOUS
  0
VERTEX
 10
58.700000
 20
26.800000
 30
0.000000
  8
2
 62
7
  6
CONTINUOUS
  0
VERTEX
 10
56.300000
 20
26.800000
 30
0.000000
  8
2
 62
7
  6
CONTINUOUS
  0
VERTEX
 10
56.300000
 20
22.200000
 30
0.000000
  8
2
 62
7
  6
CONTINUOUS
  0
SEQEND
  0
CIRCLE
  8
2
 62
7
  6
CONTINUOUS
 10
57.500000
 20
21.300000
 30
0.0
 40
0.400000
  0
SOLID
  8
2
 62
1
  6
CONTINUOUS
 10
59.900000
 20
69.600000
 11
59.900000
 21
70.500000
 12
55.100000
 22
69.600000
 13
55.100000
 23
70.500000
  0
POLYLINE
  8
2
 62
7
  6
CONTINUOUS
 70
1
 66
1
  0
VERTEX
 10
59.900000
 20
69.600000
 30
0.000000
  8
2
 62
7
  6
CONTINUOUS
  0
VERTEX
 10
59.900000
 20
70.500000
 30
0.000000
  8
2
 62
7
  6
CONTINUOUS
  0
VERTEX
 10
55.100000
 20
70.500000
 30
0.000000
  8
2
 62
7
  6
CONTINUOUS
  0
VERTEX
 10
55.100000
 20
69.600000
 30
0.000000
  8
2
 62
7
  6
CONTINUOUS
  0
SEQEND
  0
SOLID
  8
2
 62
254
  6
CONTINUOUS
 10
55.600000
 20
26.200000
 11
55.600000
 21
64.900000
 12
55.200000
 22
26.200000
 13
55.200000
 23
64.900000
  0
POLYLINE
  8
2
 62
7
  6
CONTINUOUS
 70
1
 66
1
  0
VERTEX
 10
55.600000
 20
26.200000
 30
0.000000
  8
2
 62
7
  6
CONTINUOUS
  0
VERTEX
 10
55.600000
 20
64.900000
 30
0.000000
  8
2
 62
7
  6
CONTINUOUS
  0
VERTEX
 10
55.200000
 20
64.900000
 30
0.000000
  8
2
 62
7
  6
CONTINUOUS
  0
VERTEX
 10
55.200000
 20
26.200000
 30
0.000000
  8
2
 62
7
  6
CONTINUOUS
  0
SEQEND
  0
POLYLINE
  8
2
 62
7
  6
CONTINUOUS
 70
1
 66
1
  0
VERTEX
 10
55.600000
 20
18.200000
 30
0.000000
  8
2
 62
7
  6
CONTINUOUS
  0
VERTEX
 10
55.600000
 20
21.300000
 30
0.000000
  8
2
 62
7
  6
CONTINUOUS
  0
VERTEX
 10
55.200000
 20
21.300000
 30
0.000000
  8
2
 62
7
  6
CONTINUOUS
  0
VERTEX
 10
55.200000
 20
18.200000
 30
0.000000
  8
2
 62
7
  6
CONTINUOUS
  0
SEQEND
  0
POLYLINE
  8
2
 62
7
  6
CONTINUOUS
 70
1
 66
1
  0
VERTEX
 10
55.600000
 20
55.200000
 30
0.000000
  8
2
 62
7
  6
CONTINUOUS
  0
VERTEX
 10
55.600000
 20
58.300000
 30
0.000000
  8
2
 62
7
  6
CONTINUOUS
  0
VERTEX
 10
55.200000
 20
58.300000
 30
0.000000
  8
2
 62
7
  6
CONTINUOUS
  0
VERTEX
 10
55.200000
 20
55.200000
 30
0.000000
  8
2
 62
7
  6
CONTINUOUS
  0
SEQEND
  0
POLYLINE
  8
2
 62
7
  6
CONTINUOUS
 70
1
 66
1
  0
VERTEX
 10
59.800000
 20
55.200000
 30
0.000000
  8
2
 62
7
  6
CONTINUOUS
  0
VERTEX
 10
59.800000
 20
58.300000
 30
0.000000
  8
2
 62
7
  6
CONTINUOUS
  0
VERTEX
 10
59.400000
 20
58.300000
 30
0.000000
  8
2
 62
7
  6
CONTINUOUS
  0
VERTEX
 10
59.400000
 20
55.200000
 30
0.000000
  8
2
 62
7
  6
CONTINUOUS
  0
SEQEND
  0
POLYLINE
  8
2
 62
7
  6
CONTINUOUS
 70
1
 66
1
  0
VERTEX
 10
59.800000
 20
18.200000
 30
0.000000
  8
2
 62
7
  6
CONTINUOUS
  0
VERTEX
 10
59.800000
 20
21.300000
 30
0.000000
  8
2
 62
7
  6
CONTINUOUS
  0
VERTEX
 10
59.400000
 20
21.300000
 30
0.000000
  8
2
 62
7
  6
CONTINUOUS
  0
VERTEX
 10
59.400000
 20
18.200000
 30
0.000000
  8
2
 62
7
  6
CONTINUOUS
  0
SEQEND
  0
SOLID
  8
2
 62
254
  6
CONTINUOUS
 10
59.800000
 20
26.200000
 11
59.800000
 21
64.900000
 12
59.400000
 22
26.200000
 13
59.400000
 23
64.900000
  0
POLYLINE
  8
2
 62
7
  6
CONTINUOUS
 70
1
 66
1
  0
VERTEX
 10
59.800000
 20
26.200000
 30
0.000000
  8
2
 62
7
  6
CONTINUOUS
  0
VERTEX
 10
59.800000
 20
64.900000
 30
0.000000
  8
2
 62
7
  6
CONTINUOUS
  0
VERTEX
 10
59.400000
 20
64.900000
 30
0.000000
  8
2
 62
7
  6
CONTINUOUS
  0
VERTEX
 10
59.400000
 20
26.200000
 30
0.000000
  8
2
 62
7
  6
CONTINUOUS
  0
SEQEND
  0
POLYLINE
  8
2
 62
7
  6
CONTINUOUS
 70
1
 66
1
  0
VERTEX
 10
56.300000
 20
50.200000
  8
2
 62
7
  6
CONTINUOUS
  0
VERTEX
 10
58.700000
 20
50.200000
  8
2
 62
7
  6
CONTINUOUS
  0
VERTEX
 10
59.800000
 20
49.500000
  8
2
 62
7
  6
CONTINUOUS
  0
VERTEX
 10
59.800000
 20
39.800000
  8
2
 62
7
  6
CONTINUOUS
  0
VERTEX
 10
59.400000
 20
39.800000
  8
2
 62
7
  6
CONTINUOUS
  0
VERTEX
 10
59.400000
 20
47.900000
  8
2
 62
7
  6
CONTINUOUS
  0
VERTEX
 10
58.700000
 20
48.700000
  8
2
 62
7
  6
CONTINUOUS
  0
VERTEX
 10
56.300000
 20
48.700000
  8
2
 62
7
  6
CONTINUOUS
  0
VERTEX
 10
55.600000
 20
47.900000
  8
2
 62
7
  6
CONTINUOUS
  0
VERTEX
 10
55.600000
 20
39.800000
  8
2
 62
7
  6
CONTINUOUS
  0
VERTEX
 10
55.200000
 20
39.800000
  8
2
 62
7
  6
CONTINUOUS
  0
VERTEX
 10
55.200000
 20
49.400000
  8
2
 62
7
  6
CONTINUOUS
  0
SEQEND
  0
SOLID
  8
2
 62
255
  6
CONTINUOUS
 10
64.900000
 20
6.600000
 11
64.900000
 21
71.600000
 12
60.100000
 22
6.600000
 13
60.100000
 23
71.600000
  0
POLYLINE
  8
2
 62
7
  6
CONTINUOUS
 70
1
 66
1
  0
VERTEX
 10
64.900000
 20
6.600000
 30
0.000000
  8
2
 62
7
  6
CONTINUOUS
  0
VERTEX
 10
64.900000
 20
71.600000
 30
0.000000
  8
2
 62
7
  6
CONTINUOUS
  0
VERTEX
 10
60.100000
 20
71.600000
 30
0.000000
  8
2
 62
7
  6
CONTINUOUS
  0
VERTEX
 10
60.100000
 20
6.600000
 30
0.000000
  8
2
 62
7
  6
CONTINUOUS
  0
SEQEND
  0
POLYLINE
  8
2
 62
7
  6
L000000000000000000
 70
0
 66
1
  0
VERTEX
 10
62.500000
 20
71.600000
  8
2
 62
7
  6
L000000000000000000
  0
VERTEX
 10
62.500000
 20
67.200000
  8
2
 62
7
  6
L000000000000000000
  0
SEQEND
  0
POLYLINE
  8
2
 62
7
  6
L000000000000000000
 70
0
 66
1
  0
VERTEX
 10
62.500000
 20
57.500000
  8
2
 62
7
  6
L000000000000000000
  0
VERTEX
 10
62.500000
 20
50.200000
  8
2
 62
7
  6
L000000000000000000
  0
SEQEND
  0
POLYLINE
  8
2
 62
7
  6
L000000000000000000
 70
0
 66
1
  0
VERTEX
 10
62.500000
 20
39.000000
  8
2
 62
7
  6
L000000000000000000
  0
VERTEX
 10
62.500000
 20
30.200000
  8
2
 62
7
  6
L000000000000000000
  0
SEQEND
  0
POLYLINE
  8
2
 62
7
  6
L000000000000000000
 70
0
 66
1
  0
VERTEX
 10
62.500000
 20
20.500000
  8
2
 62
7
  6
L000000000000000000
  0
VERTEX
 10
62.500000
 20
15.000000
  8
2
 62
7
  6
L000000000000000000
  0
SEQEND
  0
POLYLINE
  8
2
 62
7
  6
CONTINUOUS
 70
0
 66
1
  0
VERTEX
 10
60.100000
 20
14.300000
  8
2
 62
7
  6
CONTINUOUS
  0
VERTEX
 10
60.900000
 20
14.300000
  8
2
 62
7
  6
CONTINUOUS
  0
VERTEX
 10
60.900000
 20
15.000000
  8
2
 62
7
  6
CONTINUOUS
  0
VERTEX
 10
64.100000
 20
15.000000
  8
2
 62
7
  6
CONTINUOUS
  0
VERTEX
 10
64.100000
 20
14.300000
  8
2
 62
7
  6
CONTINUOUS
  0
VERTEX
 10
64.900000
 20
14.300000
  8
2
 62
7
  6
CONTINUOUS
  0
SEQEND
  0
POLYLINE
  8
2
 62
7
  6
CONTINUOUS
 70
1
 66
1
  0
VERTEX
 10
64.300000
 20
7.100000
 30
0.000000
  8
2
 62
7
  6
CONTINUOUS
  0
VERTEX
 10
64.300000
 20
11.400000
 30
0.000000
  8
2
 62
7
  6
CONTINUOUS
  0
VERTEX
 10
60.800000
 20
11.400000
 30
0.000000
  8
2
 62
7
  6
CONTINUOUS
  0
VERTEX
 10
60.800000
 20
7.100000
 30
0.000000
  8
2
 62
7
  6
CONTINUOUS
  0
SEQEND
  0
POLYLINE
  8
2
 62
7
  6
CONTINUOUS
 70
1
 66
1
  0
VERTEX
 10
63.900000
 20
7.500000
 30
0.000000
  8
2
 62
7
  6
CONTINUOUS
  0
VERTEX
 10
63.900000
 20
10.800000
 30
0.000000
  8
2
 62
7
  6
CONTINUOUS
  0
VERTEX
 10
61.200000
 20
10.800000
 30
0.000000
  8
2
 62
7
  6
CONTINUOUS
  0
VERTEX
 10
61.200000
 20
7.500000
 30
0.000000
  8
2
 62
7
  6
CONTINUOUS
  0
SEQEND
  0
POLYLINE
  8
2
 62
7
  6
CONTINUOUS
 70
0
 66
1
  0
VERTEX
 10
60.800000
 20
11.400000
  8
2
 62
7
  6
CONTINUOUS
  0
VERTEX
 10
61.200000
 20
10.800000
  8
2
 62
7
  6
CONTINUOUS
  0
SEQEND
  0
POLYLINE
  8
2
 62
7
  6
CONTINUOUS
 70
0
 66
1
  0
VERTEX
 10
64.300000
 20
11.400000
  8
2
 62
7
  6
CONTINUOUS
  0
VERTEX
 10
63.900000
 20
10.800000
  8
2
 62
7
  6
CONTINUOUS
  0
SEQEND
  0
POLYLINE
  8
2
 62
7
  6
CONTINUOUS
 70
1
 66
1
  0
VERTEX
 10
63.800000
 20
9.600000
 30
0.000000
  8
2
 62
7
  6
CONTINUOUS
  0
VERTEX
 10
63.800000
 20
10.100000
 30
0.000000
  8
2
 62
7
  6
CONTINUOUS
  0
VERTEX
 10
61.300000
 20
10.100000
 30
0.000000
  8
2
 62
7
  6
CONTINUOUS
  0
VERTEX
 10
61.300000
 20
9.600000
 30
0.000000
  8
2
 62
7
  6
CONTINUOUS
  0
SEQEND
  0
POLYLINE
  8
2
 62
7
  6
CONTINUOUS
 70
1
 66
1
  0
VERTEX
 10
63.800000
 20
8.800000
 30
0.000000
  8
2
 62
7
  6
CONTINUOUS
  0
VERTEX
 10
63.800000
 20
9.300000
 30
0.000000
  8
2
 62
7
  6
CONTINUOUS
  0
VERTEX
 10
61.300000
 20
9.300000
 30
0.000000
  8
2
 62
7
  6
CONTINUOUS
  0
VERTEX
 10
61.300000
 20
8.800000
 30
0.000000
  8
2
 62
7
  6
CONTINUOUS
  0
SEQEND
  0
POLYLINE
  8
2
 62
7
  6
CONTINUOUS
 70
1
 66
1
  0
VERTEX
 10
63.800000
 20
8.000000
 30
0.000000
  8
2
 62
7
  6
CONTINUOUS
  0
VERTEX
 10
63.800000
 20
8.500000
 30
0.000000
  8
2
 62
7
  6
CONTINUOUS
  0
VERTEX
 10
61.300000
 20
8.500000
 30
0.000000
  8
2
 62
7
  6
CONTINUOUS
  0
VERTEX
 10
61.300000
 20
8.000000
 30
0.000000
  8
2
 62
7
  6
CONTINUOUS
  0
SEQEND
  0
SOLID
  8
2
 62
1
  6
CONTINUOUS
 10
64.300000
 20
13.400000
 11
64.300000
 21
13.900000
 12
60.700000
 22
13.400000
 13
60.700000
 23
13.900000
  0
POLYLINE
  8
2
 62
7
  6
CONTINUOUS
 70
1
 66
1
  0
VERTEX
 10
64.300000
 20
13.400000
 30
0.000000
  8
2
 62
7
  6
CONTINUOUS
  0
VERTEX
 10
64.300000
 20
13.900000
 30
0.000000
  8
2
 62
7
  6
CONTINUOUS
  0
VERTEX
 10
60.700000
 20
13.900000
 30
0.000000
  8
2
 62
7
  6
CONTINUOUS
  0
VERTEX
 10
60.700000
 20
13.400000
 30
0.000000
  8
2
 62
7
  6
CONTINUOUS
  0
SEQEND
  0
POLYLINE
  8
2
 62
7
  6
CONTINUOUS
 70
1
 66
1
  0
VERTEX
 10
60.600000
 20
66.400000
  8
2
 62
7
  6
CONTINUOUS
  0
VERTEX
 10
61.300000
 20
67.200000
  8
2
 62
7
  6
CONTINUOUS
  0
VERTEX
 10
63.700000
 20
67.200000
  8
2
 62
7
  6
CONTINUOUS
  0
VERTEX
 10
64.400000
 20
66.400000
  8
2
 62
7
  6
CONTINUOUS
  0
VERTEX
 10
64.400000
 20
58.300000
  8
2
 62
7
  6
CONTINUOUS
  0
VERTEX
 10
64.200000
 20
57.800000
  8
2
 62
7
  6
CONTINUOUS
  0
VERTEX
 10
64.000000
 20
57.500000
  8
2
 62
7
  6
CONTINUOUS
  0
VERTEX
 10
61.000000
 20
57.500000
  8
2
 62
7
  6
CONTINUOUS
  0
VERTEX
 10
60.800000
 20
57.800000
  8
2
 62
7
  6
CONTINUOUS
  0
VERTEX
 10
60.600000
 20
58.300000
  8
2
 62
7
  6
CONTINUOUS
  0
SEQEND
  0
POLYLINE
  8
2
 62
7
  6
CONTINUOUS
 70
0
 66
1
  0
VERTEX
 10
60.600000
 20
58.300000
  8
2
 62
7
  6
CONTINUOUS
  0
VERTEX
 10
60.200000
 20
58.300000
  8
2
 62
7
  6
CONTINUOUS
  0
SEQEND
  0
POLYLINE
  8
2
 62
7
  6
CONTINUOUS
 70
0
 66
1
  0
VERTEX
 10
64.400000
 20
58.300000
  8
2
 62
7
  6
CONTINUOUS
  0
VERTEX
 10
64.800000
 20
58.300000
  8
2
 62
7
  6
CONTINUOUS
  0
SEQEND
  0
POLYLINE
  8
2
 62
7
  6
CONTINUOUS
 70
1
 66
1
  0
VERTEX
 10
61.300000
 20
66.900000
  8
2
 62
7
  6
CONTINUOUS
  0
VERTEX
 10
63.600000
 20
66.900000
  8
2
 62
7
  6
CONTINUOUS
  0
VERTEX
 10
64.300000
 20
65.000000
  8
2
 62
7
  6
CONTINUOUS
  0
VERTEX
 10
64.300000
 20
58.300000
  8
2
 62
7
  6
CONTINUOUS
  0
VERTEX
 10
60.700000
 20
58.300000
  8
2
 62
7
  6
CONTINUOUS
  0
VERTEX
 10
60.700000
 20
65.000000
  8
2
 62
7
  6
CONTINUOUS
  0
SEQEND
  0
POLYLINE
  8
2
 62
7
  6
CONTINUOUS
 70
1
 66
1
  0
VERTEX
 10
61.500000
 20
65.900000
  8
2
 62
7
  6
CONTINUOUS
  0
VERTEX
 10
63.400000
 20
65.900000
  8
2
 62
7
  6
CONTINUOUS
  0
VERTEX
 10
64.100000
 20
64.100000
  8
2
 62
7
  6
CONTINUOUS
  0
VERTEX
 10
64.100000
 20
57.900000
  8
2
 62
7
  6
CONTINUOUS
  0
VERTEX
 10
60.900000
 20
57.900000
  8
2
 62
7
  6
CONTINUOUS
  0
VERTEX
 10
60.900000
 20
64.100000
  8
2
 62
7
  6
CONTINUOUS
  0
SEQEND
  0
CIRCLE
  8
2
 62
7
  6
CONTINUOUS
 10
62.500000
 20
64.900000
 30
0.0
 40
0.400000
  0
POLYLINE
  8
2
 62
7
  6
CONTINUOUS
 70
1
 66
1
  0
VERTEX
 10
63.700000
 20
59.200000
 30
0.000000
  8
2
 62
7
  6
CONTINUOUS
  0
VERTEX
 10
63.700000
 20
63.800000
 30
0.000000
  8
2
 62
7
  6
CONTINUOUS
  0
VERTEX
 10
61.300000
 20
63.800000
 30
0.000000
  8
2
 62
7
  6
CONTINUOUS
  0
VERTEX
 10
61.300000
 20
59.200000
 30
0.000000
  8
2
 62
7
  6
CONTINUOUS
  0
SEQEND
  0
CIRCLE
  8
2
 62
7
  6
CONTINUOUS
 10
62.500000
 20
58.300000
 30
0.0
 40
0.400000
  0
POLYLINE
  8
2
 62
7
  6
CONTINUOUS
 70
1
 66
1
  0
VERTEX
 10
60.200000
 20
49.400000
  8
2
 62
7
  6
CONTINUOUS
  0
VERTEX
 10
61.300000
 20
50.200000
  8
2
 62
7
  6
CONTINUOUS
  0
VERTEX
 10
63.700000
 20
50.200000
  8
2
 62
7
  6
CONTINUOUS
  0
VERTEX
 10
64.800000
 20
49.500000
  8
2
 62
7
  6
CONTINUOUS
  0
VERTEX
 10
64.800000
 20
36.700000
  8
2
 62
7
  6
CONTINUOUS
  0
VERTEX
 10
64.400000
 20
36.700000
  8
2
 62
7
  6
CONTINUOUS
  0
VERTEX
 10
64.400000
 20
39.800000
  8
2
 62
7
  6
CONTINUOUS
  0
VERTEX
 10
60.600000
 20
39.800000
  8
2
 62
7
  6
CONTINUOUS
  0
VERTEX
 10
60.600000
 20
36.700000
  8
2
 62
7
  6
CONTINUOUS
  0
VERTEX
 10
60.200000
 20
36.700000
  8
2
 62
7
  6
CONTINUOUS
  0
SEQEND
  0
POLYLINE
  8
2
 62
7
  6
CONTINUOUS
 70
1
 66
1
  0
VERTEX
 10
60.600000
 20
47.900000
  8
2
 62
7
  6
CONTINUOUS
  0
VERTEX
 10
61.300000
 20
48.700000
  8
2
 62
7
  6
CONTINUOUS
  0
VERTEX
 10
63.700000
 20
48.700000
  8
2
 62
7
  6
CONTINUOUS
  0
VERTEX
 10
64.400000
 20
47.900000
  8
2
 62
7
  6
CONTINUOUS
  0
VERTEX
 10
64.400000
 20
39.800000
  8
2
 62
7
  6
CONTINUOUS
  0
VERTEX
 10
64.200000
 20
39.300000
  8
2
 62
7
  6
CONTINUOUS
  0
VERTEX
 10
64.000000
 20
39.000000
  8
2
 62
7
  6
CONTINUOUS
  0
VERTEX
 10
61.000000
 20
39.000000
  8
2
 62
7
  6
CONTINUOUS
  0
VERTEX
 10
60.800000
 20
39.300000
  8
2
 62
7
  6
CONTINUOUS
  0
VERTEX
 10
60.600000
 20
39.800000
  8
2
 62
7
  6
CONTINUOUS
  0
SEQEND
  0
POLYLINE
  8
2
 62
7
  6
CONTINUOUS
 70
0
 66
1
  0
VERTEX
 10
60.600000
 20
39.800000
  8
2
 62
7
  6
CONTINUOUS
  0
VERTEX
 10
60.200000
 20
39.800000
  8
2
 62
7
  6
CONTINUOUS
  0
SEQEND
  0
POLYLINE
  8
2
 62
7
  6
CONTINUOUS
 70
0
 66
1
  0
VERTEX
 10
64.400000
 20
39.800000
  8
2
 62
7
  6
CONTINUOUS
  0
VERTEX
 10
64.800000
 20
39.800000
  8
2
 62
7
  6
CONTINUOUS
  0
SEQEND
  0
POLYLINE
  8
2
 62
7
  6
CONTINUOUS
 70
1
 66
1
  0
VERTEX
 10
61.300000
 20
48.400000
  8
2
 62
7
  6
CONTINUOUS
  0
VERTEX
 10
63.600000
 20
48.400000
  8
2
 62
7
  6
CONTINUOUS
  0
VERTEX
 10
64.300000
 20
46.500000
  8
2
 62
7
  6
CONTINUOUS
  0
VERTEX
 10
64.300000
 20
39.800000
  8
2
 62
7
  6
CONTINUOUS
  0
VERTEX
 10
60.700000
 20
39.800000
  8
2
 62
7
  6
CONTINUOUS
  0
VERTEX
 10
60.700000
 20
46.500000
  8
2
 62
7
  6
CONTINUOUS
  0
SEQEND
  0
POLYLINE
  8
2
 62
7
  6
CONTINUOUS
 70
1
 66
1
  0
VERTEX
 10
61.500000
 20
47.400000
  8
2
 62
7
  6
CONTINUOUS
  0
VERTEX
 10
63.400000
 20
47.400000
  8
2
 62
7
  6
CONTINUOUS
  0
VERTEX
 10
64.100000
 20
45.600000
  8
2
 62
7
  6
CONTINUOUS
  0
VERTEX
 10
64.100000
 20
39.400000
  8
2
 62
7
  6
CONTINUOUS
  0
VERTEX
 10
60.900000
 20
39.400000
  8
2
 62
7
  6
CONTINUOUS
  0
VERTEX
 10
60.900000
 20
45.600000
  8
2
 62
7
  6
CONTINUOUS
  0
SEQEND
  0
CIRCLE
  8
2
 62
7
  6
CONTINUOUS
 10
62.500000
 20
46.400000
 30
0.0
 40
0.400000
  0
POLYLINE
  8
2
 62
7
  6
CONTINUOUS
 70
1
 66
1
  0
VERTEX
 10
63.700000
 20
40.700000
 30
0.000000
  8
2
 62
7
  6
CONTINUOUS
  0
VERTEX
 10
63.700000
 20
45.300000
 30
0.000000
  8
2
 62
7
  6
CONTINUOUS
  0
VERTEX
 10
61.300000
 20
45.300000
 30
0.000000
  8
2
 62
7
  6
CONTINUOUS
  0
VERTEX
 10
61.300000
 20
40.700000
 30
0.000000
  8
2
 62
7
  6
CONTINUOUS
  0
SEQEND
  0
CIRCLE
  8
2
 62
7
  6
CONTINUOUS
 10
62.500000
 20
39.800000
 30
0.0
 40
0.400000
  0
POLYLINE
  8
2
 62
7
  6
CONTINUOUS
 70
1
 66
1
  0
VERTEX
 10
60.600000
 20
29.400000
  8
2
 62
7
  6
CONTINUOUS
  0
VERTEX
 10
61.300000
 20
30.200000
  8
2
 62
7
  6
CONTINUOUS
  0
VERTEX
 10
63.700000
 20
30.200000
  8
2
 62
7
  6
CONTINUOUS
  0
VERTEX
 10
64.400000
 20
29.400000
  8
2
 62
7
  6
CONTINUOUS
  0
VERTEX
 10
64.400000
 20
21.300000
  8
2
 62
7
  6
CONTINUOUS
  0
VERTEX
 10
64.200000
 20
20.800000
  8
2
 62
7
  6
CONTINUOUS
  0
VERTEX
 10
64.000000
 20
20.500000
  8
2
 62
7
  6
CONTINUOUS
  0
VERTEX
 10
61.000000
 20
20.500000
  8
2
 62
7
  6
CONTINUOUS
  0
VERTEX
 10
60.800000
 20
20.800000
  8
2
 62
7
  6
CONTINUOUS
  0
VERTEX
 10
60.600000
 20
21.300000
  8
2
 62
7
  6
CONTINUOUS
  0
SEQEND
  0
POLYLINE
  8
2
 62
7
  6
CONTINUOUS
 70
0
 66
1
  0
VERTEX
 10
60.600000
 20
21.300000
  8
2
 62
7
  6
CONTINUOUS
  0
VERTEX
 10
60.200000
 20
21.300000
  8
2
 62
7
  6
CONTINUOUS
  0
SEQEND
  0
POLYLINE
  8
2
 62
7
  6
CONTINUOUS
 70
0
 66
1
  0
VERTEX
 10
64.400000
 20
21.300000
  8
2
 62
7
  6
CONTINUOUS
  0
VERTEX
 10
64.800000
 20
21.300000
  8
2
 62
7
  6
CONTINUOUS
  0
SEQEND
  0
POLYLINE
  8
2
 62
7
  6
CONTINUOUS
 70
1
 66
1
  0
VERTEX
 10
61.300000
 20
29.900000
  8
2
 62
7
  6
CONTINUOUS
  0
VERTEX
 10
63.600000
 20
29.900000
  8
2
 62
7
  6
CONTINUOUS
  0
VERTEX
 10
64.300000
 20
28.000000
  8
2
 62
7
  6
CONTINUOUS
  0
VERTEX
 10
64.300000
 20
21.300000
  8
2
 62
7
  6
CONTINUOUS
  0
VERTEX
 10
60.700000
 20
21.300000
  8
2
 62
7
  6
CONTINUOUS
  0
VERTEX
 10
60.700000
 20
28.000000
  8
2
 62
7
  6
CONTINUOUS
  0
SEQEND
  0
POLYLINE
  8
2
 62
7
  6
CONTINUOUS
 70
1
 66
1
  0
VERTEX
 10
61.500000
 20
28.900000
  8
2
 62
7
  6
CONTINUOUS
  0
VERTEX
 10
63.400000
 20
28.900000
  8
2
 62
7
  6
CONTINUOUS
  0
VERTEX
 10
64.100000
 20
27.100000
  8
2
 62
7
  6
CONTINUOUS
  0
VERTEX
 10
64.100000
 20
20.900000
  8
2
 62
7
  6
CONTINUOUS
  0
VERTEX
 10
60.900000
 20
20.900000
  8
2
 62
7
  6
CONTINUOUS
  0
VERTEX
 10
60.900000
 20
27.100000
  8
2
 62
7
  6
CONTINUOUS
  0
SEQEND
  0
CIRCLE
  8
2
 62
7
  6
CONTINUOUS
 10
62.500000
 20
27.900000
 30
0.0
 40
0.400000
  0
POLYLINE
  8
2
 62
7
  6
CONTINUOUS
 70
1
 66
1
  0
VERTEX
 10
63.700000
 20
22.200000
 30
0.000000
  8
2
 62
7
  6
CONTINUOUS
  0
VERTEX
 10
63.700000
 20
26.800000
 30
0.000000
  8
2
 62
7
  6
CONTINUOUS
  0
VERTEX
 10
61.300000
 20
26.800000
 30
0.000000
  8
2
 62
7
  6
CONTINUOUS
  0
VERTEX
 10
61.300000
 20
22.200000
 30
0.000000
  8
2
 62
7
  6
CONTINUOUS
  0
SEQEND
  0
CIRCLE
  8
2
 62
7
  6
CONTINUOUS
 10
62.500000
 20
21.300000
 30
0.0
 40
0.400000
  0
SOLID
  8
2
 62
1
  6
CONTINUOUS
 10
64.900000
 20
69.600000
 11
64.900000
 21
70.500000
 12
60.100000
 22
69.600000
 13
60.100000
 23
70.500000
  0
POLYLINE
  8
2
 62
7
  6
CONTINUOUS
 70
1
 66
1
  0
VERTEX
 10
64.900000
 20
69.600000
 30
0.000000
  8
2
 62
7
  6
CONTINUOUS
  0
VERTEX
 10
64.900000
 20
70.500000
 30
0.000000
  8
2
 62
7
  6
CONTINUOUS
  0
VERTEX
 10
60.100000
 20
70.500000
 30
0.000000
  8
2
 62
7
  6
CONTINUOUS
  0
VERTEX
 10
60.100000
 20
69.600000
 30
0.000000
  8
2
 62
7
  6
CONTINUOUS
  0
SEQEND
  0
SOLID
  8
2
 62
254
  6
CONTINUOUS
 10
60.600000
 20
26.200000
 11
60.600000
 21
64.900000
 12
60.200000
 22
26.200000
 13
60.200000
 23
64.900000
  0
POLYLINE
  8
2
 62
7
  6
CONTINUOUS
 70
1
 66
1
  0
VERTEX
 10
60.600000
 20
26.200000
 30
0.000000
  8
2
 62
7
  6
CONTINUOUS
  0
VERTEX
 10
60.600000
 20
64.900000
 30
0.000000
  8
2
 62
7
  6
CONTINUOUS
  0
VERTEX
 10
60.200000
 20
64.900000
 30
0.000000
  8
2
 62
7
  6
CONTINUOUS
  0
VERTEX
 10
60.200000
 20
26.200000
 30
0.000000
  8
2
 62
7
  6
CONTINUOUS
  0
SEQEND
  0
POLYLINE
  8
2
 62
7
  6
CONTINUOUS
 70
1
 66
1
  0
VERTEX
 10
60.600000
 20
18.200000
 30
0.000000
  8
2
 62
7
  6
CONTINUOUS
  0
VERTEX
 10
60.600000
 20
21.300000
 30
0.000000
  8
2
 62
7
  6
CONTINUOUS
  0
VERTEX
 10
60.200000
 20
21.300000
 30
0.000000
  8
2
 62
7
  6
CONTINUOUS
  0
VERTEX
 10
60.200000
 20
18.200000
 30
0.000000
  8
2
 62
7
  6
CONTINUOUS
  0
SEQEND
  0
POLYLINE
  8
2
 62
7
  6
CONTINUOUS
 70
1
 66
1
  0
VERTEX
 10
60.600000
 20
55.200000
 30
0.000000
  8
2
 62
7
  6
CONTINUOUS
  0
VERTEX
 10
60.600000
 20
58.300000
 30
0.000000
  8
2
 62
7
  6
CONTINUOUS
  0
VERTEX
 10
60.200000
 20
58.300000
 30
0.000000
  8
2
 62
7
  6
CONTINUOUS
  0
VERTEX
 10
60.200000
 20
55.200000
 30
0.000000
  8
2
 62
7
  6
CONTINUOUS
  0
SEQEND
  0
POLYLINE
  8
2
 62
7
  6
CONTINUOUS
 70
1
 66
1
  0
VERTEX
 10
64.800000
 20
55.200000
 30
0.000000
  8
2
 62
7
  6
CONTINUOUS
  0
VERTEX
 10
64.800000
 20
58.300000
 30
0.000000
  8
2
 62
7
  6
CONTINUOUS
  0
VERTEX
 10
64.400000
 20
58.300000
 30
0.000000
  8
2
 62
7
  6
CONTINUOUS
  0
VERTEX
 10
64.400000
 20
55.200000
 30
0.000000
  8
2
 62
7
  6
CONTINUOUS
  0
SEQEND
  0
POLYLINE
  8
2
 62
7
  6
CONTINUOUS
 70
1
 66
1
  0
VERTEX
 10
64.800000
 20
18.200000
 30
0.000000
  8
2
 62
7
  6
CONTINUOUS
  0
VERTEX
 10
64.800000
 20
21.300000
 30
0.000000
  8
2
 62
7
  6
CONTINUOUS
  0
VERTEX
 10
64.400000
 20
21.300000
 30
0.000000
  8
2
 62
7
  6
CONTINUOUS
  0
VERTEX
 10
64.400000
 20
18.200000
 30
0.000000
  8
2
 62
7
  6
CONTINUOUS
  0
SEQEND
  0
SOLID
  8
2
 62
254
  6
CONTINUOUS
 10
64.800000
 20
26.200000
 11
64.800000
 21
64.900000
 12
64.400000
 22
26.200000
 13
64.400000
 23
64.900000
  0
POLYLINE
  8
2
 62
7
  6
CONTINUOUS
 70
1
 66
1
  0
VERTEX
 10
64.800000
 20
26.200000
 30
0.000000
  8
2
 62
7
  6
CONTINUOUS
  0
VERTEX
 10
64.800000
 20
64.900000
 30
0.000000
  8
2
 62
7
  6
CONTINUOUS
  0
VERTEX
 10
64.400000
 20
64.900000
 30
0.000000
  8
2
 62
7
  6
CONTINUOUS
  0
VERTEX
 10
64.400000
 20
26.200000
 30
0.000000
  8
2
 62
7
  6
CONTINUOUS
  0
SEQEND
  0
POLYLINE
  8
2
 62
7
  6
CONTINUOUS
 70
1
 66
1
  0
VERTEX
 10
61.300000
 20
50.200000
  8
2
 62
7
  6
CONTINUOUS
  0
VERTEX
 10
63.700000
 20
50.200000
  8
2
 62
7
  6
CONTINUOUS
  0
VERTEX
 10
64.800000
 20
49.500000
  8
2
 62
7
  6
CONTINUOUS
  0
VERTEX
 10
64.800000
 20
39.800000
  8
2
 62
7
  6
CONTINUOUS
  0
VERTEX
 10
64.400000
 20
39.800000
  8
2
 62
7
  6
CONTINUOUS
  0
VERTEX
 10
64.400000
 20
47.900000
  8
2
 62
7
  6
CONTINUOUS
  0
VERTEX
 10
63.700000
 20
48.700000
  8
2
 62
7
  6
CONTINUOUS
  0
VERTEX
 10
61.300000
 20
48.700000
  8
2
 62
7
  6
CONTINUOUS
  0
VERTEX
 10
60.600000
 20
47.900000
  8
2
 62
7
  6
CONTINUOUS
  0
VERTEX
 10
60.600000
 20
39.800000
  8
2
 62
7
  6
CONTINUOUS
  0
VERTEX
 10
60.200000
 20
39.800000
  8
2
 62
7
  6
CONTINUOUS
  0
VERTEX
 10
60.200000
 20
49.400000
  8
2
 62
7
  6
CONTINUOUS
  0
SEQEND
  0
SOLID
  8
2
 62
255
  6
CONTINUOUS
 10
69.900000
 20
6.600000
 11
69.900000
 21
71.600000
 12
65.100000
 22
6.600000
 13
65.100000
 23
71.600000
  0
POLYLINE
  8
2
 62
7
  6
CONTINUOUS
 70
1
 66
1
  0
VERTEX
 10
69.900000
 20
6.600000
 30
0.000000
  8
2
 62
7
  6
CONTINUOUS
  0
VERTEX
 10
69.900000
 20
71.600000
 30
0.000000
  8
2
 62
7
  6
CONTINUOUS
  0
VERTEX
 10
65.100000
 20
71.600000
 30
0.000000
  8
2
 62
7
  6
CONTINUOUS
  0
VERTEX
 10
65.100000
 20
6.600000
 30
0.000000
  8
2
 62
7
  6
CONTINUOUS
  0
SEQEND
  0
POLYLINE
  8
2
 62
7
  6
L000000000000000000
 70
0
 66
1
  0
VERTEX
 10
67.500000
 20
71.600000
  8
2
 62
7
  6
L000000000000000000
  0
VERTEX
 10
67.500000
 20
67.200000
  8
2
 62
7
  6
L000000000000000000
  0
SEQEND
  0
POLYLINE
  8
2
 62
7
  6
L000000000000000000
 70
0
 66
1
  0
VERTEX
 10
67.500000
 20
57.500000
  8
2
 62
7
  6
L000000000000000000
  0
VERTEX
 10
67.500000
 20
50.200000
  8
2
 62
7
  6
L000000000000000000
  0
SEQEND
  0
POLYLINE
  8
2
 62
7
  6
L000000000000000000
 70
0
 66
1
  0
VERTEX
 10
67.500000
 20
39.000000
  8
2
 62
7
  6
L000000000000000000
  0
VERTEX
 10
67.500000
 20
30.200000
  8
2
 62
7
  6
L000000000000000000
  0
SEQEND
  0
POLYLINE
  8
2
 62
7
  6
L000000000000000000
 70
0
 66
1
  0
VERTEX
 10
67.500000
 20
20.500000
  8
2
 62
7
  6
L000000000000000000
  0
VERTEX
 10
67.500000
 20
15.000000
  8
2
 62
7
  6
L000000000000000000
  0
SEQEND
  0
POLYLINE
  8
2
 62
7
  6
CONTINUOUS
 70
0
 66
1
  0
VERTEX
 10
65.100000
 20
14.300000
  8
2
 62
7
  6
CONTINUOUS
  0
VERTEX
 10
65.900000
 20
14.300000
  8
2
 62
7
  6
CONTINUOUS
  0
VERTEX
 10
65.900000
 20
15.000000
  8
2
 62
7
  6
CONTINUOUS
  0
VERTEX
 10
69.100000
 20
15.000000
  8
2
 62
7
  6
CONTINUOUS
  0
VERTEX
 10
69.100000
 20
14.300000
  8
2
 62
7
  6
CONTINUOUS
  0
VERTEX
 10
69.900000
 20
14.300000
  8
2
 62
7
  6
CONTINUOUS
  0
SEQEND
  0
POLYLINE
  8
2
 62
7
  6
CONTINUOUS
 70
1
 66
1
  0
VERTEX
 10
69.300000
 20
7.100000
 30
0.000000
  8
2
 62
7
  6
CONTINUOUS
  0
VERTEX
 10
69.300000
 20
11.400000
 30
0.000000
  8
2
 62
7
  6
CONTINUOUS
  0
VERTEX
 10
65.800000
 20
11.400000
 30
0.000000
  8
2
 62
7
  6
CONTINUOUS
  0
VERTEX
 10
65.800000
 20
7.100000
 30
0.000000
  8
2
 62
7
  6
CONTINUOUS
  0
SEQEND
  0
POLYLINE
  8
2
 62
7
  6
CONTINUOUS
 70
1
 66
1
  0
VERTEX
 10
68.900000
 20
7.500000
 30
0.000000
  8
2
 62
7
  6
CONTINUOUS
  0
VERTEX
 10
68.900000
 20
10.800000
 30
0.000000
  8
2
 62
7
  6
CONTINUOUS
  0
VERTEX
 10
66.200000
 20
10.800000
 30
0.000000
  8
2
 62
7
  6
CONTINUOUS
  0
VERTEX
 10
66.200000
 20
7.500000
 30
0.000000
  8
2
 62
7
  6
CONTINUOUS
  0
SEQEND
  0
POLYLINE
  8
2
 62
7
  6
CONTINUOUS
 70
0
 66
1
  0
VERTEX
 10
65.800000
 20
11.400000
  8
2
 62
7
  6
CONTINUOUS
  0
VERTEX
 10
66.200000
 20
10.800000
  8
2
 62
7
  6
CONTINUOUS
  0
SEQEND
  0
POLYLINE
  8
2
 62
7
  6
CONTINUOUS
 70
0
 66
1
  0
VERTEX
 10
69.300000
 20
11.400000
  8
2
 62
7
  6
CONTINUOUS
  0
VERTEX
 10
68.900000
 20
10.800000
  8
2
 62
7
  6
CONTINUOUS
  0
SEQEND
  0
POLYLINE
  8
2
 62
7
  6
CONTINUOUS
 70
1
 66
1
  0
VERTEX
 10
68.800000
 20
9.600000
 30
0.000000
  8
2
 62
7
  6
CONTINUOUS
  0
VERTEX
 10
68.800000
 20
10.100000
 30
0.000000
  8
2
 62
7
  6
CONTINUOUS
  0
VERTEX
 10
66.300000
 20
10.100000
 30
0.000000
  8
2
 62
7
  6
CONTINUOUS
  0
VERTEX
 10
66.300000
 20
9.600000
 30
0.000000
  8
2
 62
7
  6
CONTINUOUS
  0
SEQEND
  0
POLYLINE
  8
2
 62
7
  6
CONTINUOUS
 70
1
 66
1
  0
VERTEX
 10
68.800000
 20
8.800000
 30
0.000000
  8
2
 62
7
  6
CONTINUOUS
  0
VERTEX
 10
68.800000
 20
9.300000
 30
0.000000
  8
2
 62
7
  6
CONTINUOUS
  0
VERTEX
 10
66.300000
 20
9.300000
 30
0.000000
  8
2
 62
7
  6
CONTINUOUS
  0
VERTEX
 10
66.300000
 20
8.800000
 30
0.000000
  8
2
 62
7
  6
CONTINUOUS
  0
SEQEND
  0
POLYLINE
  8
2
 62
7
  6
CONTINUOUS
 70
1
 66
1
  0
VERTEX
 10
68.800000
 20
8.000000
 30
0.000000
  8
2
 62
7
  6
CONTINUOUS
  0
VERTEX
 10
68.800000
 20
8.500000
 30
0.000000
  8
2
 62
7
  6
CONTINUOUS
  0
VERTEX
 10
66.300000
 20
8.500000
 30
0.000000
  8
2
 62
7
  6
CONTINUOUS
  0
VERTEX
 10
66.300000
 20
8.000000
 30
0.000000
  8
2
 62
7
  6
CONTINUOUS
  0
SEQEND
  0
SOLID
  8
2
 62
1
  6
CONTINUOUS
 10
69.300000
 20
13.400000
 11
69.300000
 21
13.900000
 12
65.700000
 22
13.400000
 13
65.700000
 23
13.900000
  0
POLYLINE
  8
2
 62
7
  6
CONTINUOUS
 70
1
 66
1
  0
VERTEX
 10
69.300000
 20
13.400000
 30
0.000000
  8
2
 62
7
  6
CONTINUOUS
  0
VERTEX
 10
69.300000
 20
13.900000
 30
0.000000
  8
2
 62
7
  6
CONTINUOUS
  0
VERTEX
 10
65.700000
 20
13.900000
 30
0.000000
  8
2
 62
7
  6
CONTINUOUS
  0
VERTEX
 10
65.700000
 20
13.400000
 30
0.000000
  8
2
 62
7
  6
CONTINUOUS
  0
SEQEND
  0
POLYLINE
  8
2
 62
7
  6
CONTINUOUS
 70
1
 66
1
  0
VERTEX
 10
65.600000
 20
66.400000
  8
2
 62
7
  6
CONTINUOUS
  0
VERTEX
 10
66.300000
 20
67.200000
  8
2
 62
7
  6
CONTINUOUS
  0
VERTEX
 10
68.700000
 20
67.200000
  8
2
 62
7
  6
CONTINUOUS
  0
VERTEX
 10
69.400000
 20
66.400000
  8
2
 62
7
  6
CONTINUOUS
  0
VERTEX
 10
69.400000
 20
58.300000
  8
2
 62
7
  6
CONTINUOUS
  0
VERTEX
 10
69.200000
 20
57.800000
  8
2
 62
7
  6
CONTINUOUS
  0
VERTEX
 10
69.000000
 20
57.500000
  8
2
 62
7
  6
CONTINUOUS
  0
VERTEX
 10
66.000000
 20
57.500000
  8
2
 62
7
  6
CONTINUOUS
  0
VERTEX
 10
65.800000
 20
57.800000
  8
2
 62
7
  6
CONTINUOUS
  0
VERTEX
 10
65.600000
 20
58.300000
  8
2
 62
7
  6
CONTINUOUS
  0
SEQEND
  0
POLYLINE
  8
2
 62
7
  6
CONTINUOUS
 70
0
 66
1
  0
VERTEX
 10
65.600000
 20
58.300000
  8
2
 62
7
  6
CONTINUOUS
  0
VERTEX
 10
65.200000
 20
58.300000
  8
2
 62
7
  6
CONTINUOUS
  0
SEQEND
  0
POLYLINE
  8
2
 62
7
  6
CONTINUOUS
 70
0
 66
1
  0
VERTEX
 10
69.400000
 20
58.300000
  8
2
 62
7
  6
CONTINUOUS
  0
VERTEX
 10
69.800000
 20
58.300000
  8
2
 62
7
  6
CONTINUOUS
  0
SEQEND
  0
POLYLINE
  8
2
 62
7
  6
CONTINUOUS
 70
1
 66
1
  0
VERTEX
 10
66.300000
 20
66.900000
  8
2
 62
7
  6
CONTINUOUS
  0
VERTEX
 10
68.600000
 20
66.900000
  8
2
 62
7
  6
CONTINUOUS
  0
VERTEX
 10
69.300000
 20
65.000000
  8
2
 62
7
  6
CONTINUOUS
  0
VERTEX
 10
69.300000
 20
58.300000
  8
2
 62
7
  6
CONTINUOUS
  0
VERTEX
 10
65.700000
 20
58.300000
  8
2
 62
7
  6
CONTINUOUS
  0
VERTEX
 10
65.700000
 20
65.000000
  8
2
 62
7
  6
CONTINUOUS
  0
SEQEND
  0
POLYLINE
  8
2
 62
7
  6
CONTINUOUS
 70
1
 66
1
  0
VERTEX
 10
66.500000
 20
65.900000
  8
2
 62
7
  6
CONTINUOUS
  0
VERTEX
 10
68.400000
 20
65.900000
  8
2
 62
7
  6
CONTINUOUS
  0
VERTEX
 10
69.100000
 20
64.100000
  8
2
 62
7
  6
CONTINUOUS
  0
VERTEX
 10
69.100000
 20
57.900000
  8
2
 62
7
  6
CONTINUOUS
  0
VERTEX
 10
65.900000
 20
57.900000
  8
2
 62
7
  6
CONTINUOUS
  0
VERTEX
 10
65.900000
 20
64.100000
  8
2
 62
7
  6
CONTINUOUS
  0
SEQEND
  0
CIRCLE
  8
2
 62
7
  6
CONTINUOUS
 10
67.500000
 20
64.900000
 30
0.0
 40
0.400000
  0
POLYLINE
  8
2
 62
7
  6
CONTINUOUS
 70
1
 66
1
  0
VERTEX
 10
68.700000
 20
59.200000
 30
0.000000
  8
2
 62
7
  6
CONTINUOUS
  0
VERTEX
 10
68.700000
 20
63.800000
 30
0.000000
  8
2
 62
7
  6
CONTINUOUS
  0
VERTEX
 10
66.300000
 20
63.800000
 30
0.000000
  8
2
 62
7
  6
CONTINUOUS
  0
VERTEX
 10
66.300000
 20
59.200000
 30
0.000000
  8
2
 62
7
  6
CONTINUOUS
  0
SEQEND
  0
CIRCLE
  8
2
 62
7
  6
CONTINUOUS
 10
67.500000
 20
58.300000
 30
0.0
 40
0.400000
  0
POLYLINE
  8
2
 62
7
  6
CONTINUOUS
 70
1
 66
1
  0
VERTEX
 10
65.200000
 20
49.400000
  8
2
 62
7
  6
CONTINUOUS
  0
VERTEX
 10
66.300000
 20
50.200000
  8
2
 62
7
  6
CONTINUOUS
  0
VERTEX
 10
68.700000
 20
50.200000
  8
2
 62
7
  6
CONTINUOUS
  0
VERTEX
 10
69.800000
 20
49.500000
  8
2
 62
7
  6
CONTINUOUS
  0
VERTEX
 10
69.800000
 20
36.700000
  8
2
 62
7
  6
CONTINUOUS
  0
VERTEX
 10
69.400000
 20
36.700000
  8
2
 62
7
  6
CONTINUOUS
  0
VERTEX
 10
69.400000
 20
39.800000
  8
2
 62
7
  6
CONTINUOUS
  0
VERTEX
 10
65.600000
 20
39.800000
  8
2
 62
7
  6
CONTINUOUS
  0
VERTEX
 10
65.600000
 20
36.700000
  8
2
 62
7
  6
CONTINUOUS
  0
VERTEX
 10
65.200000
 20
36.700000
  8
2
 62
7
  6
CONTINUOUS
  0
SEQEND
  0
POLYLINE
  8
2
 62
7
  6
CONTINUOUS
 70
1
 66
1
  0
VERTEX
 10
65.600000
 20
47.900000
  8
2
 62
7
  6
CONTINUOUS
  0
VERTEX
 10
66.300000
 20
48.700000
  8
2
 62
7
  6
CONTINUOUS
  0
VERTEX
 10
68.700000
 20
48.700000
  8
2
 62
7
  6
CONTINUOUS
  0
VERTEX
 10
69.400000
 20
47.900000
  8
2
 62
7
  6
CONTINUOUS
  0
VERTEX
 10
69.400000
 20
39.800000
  8
2
 62
7
  6
CONTINUOUS
  0
VERTEX
 10
69.200000
 20
39.300000
  8
2
 62
7
  6
CONTINUOUS
  0
VERTEX
 10
69.000000
 20
39.000000
  8
2
 62
7
  6
CONTINUOUS
  0
VERTEX
 10
66.000000
 20
39.000000
  8
2
 62
7
  6
CONTINUOUS
  0
VERTEX
 10
65.800000
 20
39.300000
  8
2
 62
7
  6
CONTINUOUS
  0
VERTEX
 10
65.600000
 20
39.800000
  8
2
 62
7
  6
CONTINUOUS
  0
SEQEND
  0
POLYLINE
  8
2
 62
7
  6
CONTINUOUS
 70
0
 66
1
  0
VERTEX
 10
65.600000
 20
39.800000
  8
2
 62
7
  6
CONTINUOUS
  0
VERTEX
 10
65.200000
 20
39.800000
  8
2
 62
7
  6
CONTINUOUS
  0
SEQEND
  0
POLYLINE
  8
2
 62
7
  6
CONTINUOUS
 70
0
 66
1
  0
VERTEX
 10
69.400000
 20
39.800000
  8
2
 62
7
  6
CONTINUOUS
  0
VERTEX
 10
69.800000
 20
39.800000
  8
2
 62
7
  6
CONTINUOUS
  0
SEQEND
  0
POLYLINE
  8
2
 62
7
  6
CONTINUOUS
 70
1
 66
1
  0
VERTEX
 10
66.300000
 20
48.400000
  8
2
 62
7
  6
CONTINUOUS
  0
VERTEX
 10
68.600000
 20
48.400000
  8
2
 62
7
  6
CONTINUOUS
  0
VERTEX
 10
69.300000
 20
46.500000
  8
2
 62
7
  6
CONTINUOUS
  0
VERTEX
 10
69.300000
 20
39.800000
  8
2
 62
7
  6
CONTINUOUS
  0
VERTEX
 10
65.700000
 20
39.800000
  8
2
 62
7
  6
CONTINUOUS
  0
VERTEX
 10
65.700000
 20
46.500000
  8
2
 62
7
  6
CONTINUOUS
  0
SEQEND
  0
POLYLINE
  8
2
 62
7
  6
CONTINUOUS
 70
1
 66
1
  0
VERTEX
 10
66.500000
 20
47.400000
  8
2
 62
7
  6
CONTINUOUS
  0
VERTEX
 10
68.400000
 20
47.400000
  8
2
 62
7
  6
CONTINUOUS
  0
VERTEX
 10
69.100000
 20
45.600000
  8
2
 62
7
  6
CONTINUOUS
  0
VERTEX
 10
69.100000
 20
39.400000
  8
2
 62
7
  6
CONTINUOUS
  0
VERTEX
 10
65.900000
 20
39.400000
  8
2
 62
7
  6
CONTINUOUS
  0
VERTEX
 10
65.900000
 20
45.600000
  8
2
 62
7
  6
CONTINUOUS
  0
SEQEND
  0
CIRCLE
  8
2
 62
7
  6
CONTINUOUS
 10
67.500000
 20
46.400000
 30
0.0
 40
0.400000
  0
POLYLINE
  8
2
 62
7
  6
CONTINUOUS
 70
1
 66
1
  0
VERTEX
 10
68.700000
 20
40.700000
 30
0.000000
  8
2
 62
7
  6
CONTINUOUS
  0
VERTEX
 10
68.700000
 20
45.300000
 30
0.000000
  8
2
 62
7
  6
CONTINUOUS
  0
VERTEX
 10
66.300000
 20
45.300000
 30
0.000000
  8
2
 62
7
  6
CONTINUOUS
  0
VERTEX
 10
66.300000
 20
40.700000
 30
0.000000
  8
2
 62
7
  6
CONTINUOUS
  0
SEQEND
  0
CIRCLE
  8
2
 62
7
  6
CONTINUOUS
 10
67.500000
 20
39.800000
 30
0.0
 40
0.400000
  0
POLYLINE
  8
2
 62
7
  6
CONTINUOUS
 70
1
 66
1
  0
VERTEX
 10
65.600000
 20
29.400000
  8
2
 62
7
  6
CONTINUOUS
  0
VERTEX
 10
66.300000
 20
30.200000
  8
2
 62
7
  6
CONTINUOUS
  0
VERTEX
 10
68.700000
 20
30.200000
  8
2
 62
7
  6
CONTINUOUS
  0
VERTEX
 10
69.400000
 20
29.400000
  8
2
 62
7
  6
CONTINUOUS
  0
VERTEX
 10
69.400000
 20
21.300000
  8
2
 62
7
  6
CONTINUOUS
  0
VERTEX
 10
69.200000
 20
20.800000
  8
2
 62
7
  6
CONTINUOUS
  0
VERTEX
 10
69.000000
 20
20.500000
  8
2
 62
7
  6
CONTINUOUS
  0
VERTEX
 10
66.000000
 20
20.500000
  8
2
 62
7
  6
CONTINUOUS
  0
VERTEX
 10
65.800000
 20
20.800000
  8
2
 62
7
  6
CONTINUOUS
  0
VERTEX
 10
65.600000
 20
21.300000
  8
2
 62
7
  6
CONTINUOUS
  0
SEQEND
  0
POLYLINE
  8
2
 62
7
  6
CONTINUOUS
 70
0
 66
1
  0
VERTEX
 10
65.600000
 20
21.300000
  8
2
 62
7
  6
CONTINUOUS
  0
VERTEX
 10
65.200000
 20
21.300000
  8
2
 62
7
  6
CONTINUOUS
  0
SEQEND
  0
POLYLINE
  8
2
 62
7
  6
CONTINUOUS
 70
0
 66
1
  0
VERTEX
 10
69.400000
 20
21.300000
  8
2
 62
7
  6
CONTINUOUS
  0
VERTEX
 10
69.800000
 20
21.300000
  8
2
 62
7
  6
CONTINUOUS
  0
SEQEND
  0
POLYLINE
  8
2
 62
7
  6
CONTINUOUS
 70
1
 66
1
  0
VERTEX
 10
66.300000
 20
29.900000
  8
2
 62
7
  6
CONTINUOUS
  0
VERTEX
 10
68.600000
 20
29.900000
  8
2
 62
7
  6
CONTINUOUS
  0
VERTEX
 10
69.300000
 20
28.000000
  8
2
 62
7
  6
CONTINUOUS
  0
VERTEX
 10
69.300000
 20
21.300000
  8
2
 62
7
  6
CONTINUOUS
  0
VERTEX
 10
65.700000
 20
21.300000
  8
2
 62
7
  6
CONTINUOUS
  0
VERTEX
 10
65.700000
 20
28.000000
  8
2
 62
7
  6
CONTINUOUS
  0
SEQEND
  0
POLYLINE
  8
2
 62
7
  6
CONTINUOUS
 70
1
 66
1
  0
VERTEX
 10
66.500000
 20
28.900000
  8
2
 62
7
  6
CONTINUOUS
  0
VERTEX
 10
68.400000
 20
28.900000
  8
2
 62
7
  6
CONTINUOUS
  0
VERTEX
 10
69.100000
 20
27.100000
  8
2
 62
7
  6
CONTINUOUS
  0
VERTEX
 10
69.100000
 20
20.900000
  8
2
 62
7
  6
CONTINUOUS
  0
VERTEX
 10
65.900000
 20
20.900000
  8
2
 62
7
  6
CONTINUOUS
  0
VERTEX
 10
65.900000
 20
27.100000
  8
2
 62
7
  6
CONTINUOUS
  0
SEQEND
  0
CIRCLE
  8
2
 62
7
  6
CONTINUOUS
 10
67.500000
 20
27.900000
 30
0.0
 40
0.400000
  0
POLYLINE
  8
2
 62
7
  6
CONTINUOUS
 70
1
 66
1
  0
VERTEX
 10
68.700000
 20
22.200000
 30
0.000000
  8
2
 62
7
  6
CONTINUOUS
  0
VERTEX
 10
68.700000
 20
26.800000
 30
0.000000
  8
2
 62
7
  6
CONTINUOUS
  0
VERTEX
 10
66.300000
 20
26.800000
 30
0.000000
  8
2
 62
7
  6
CONTINUOUS
  0
VERTEX
 10
66.300000
 20
22.200000
 30
0.000000
  8
2
 62
7
  6
CONTINUOUS
  0
SEQEND
  0
CIRCLE
  8
2
 62
7
  6
CONTINUOUS
 10
67.500000
 20
21.300000
 30
0.0
 40
0.400000
  0
SOLID
  8
2
 62
1
  6
CONTINUOUS
 10
69.900000
 20
69.600000
 11
69.900000
 21
70.500000
 12
65.100000
 22
69.600000
 13
65.100000
 23
70.500000
  0
POLYLINE
  8
2
 62
7
  6
CONTINUOUS
 70
1
 66
1
  0
VERTEX
 10
69.900000
 20
69.600000
 30
0.000000
  8
2
 62
7
  6
CONTINUOUS
  0
VERTEX
 10
69.900000
 20
70.500000
 30
0.000000
  8
2
 62
7
  6
CONTINUOUS
  0
VERTEX
 10
65.100000
 20
70.500000
 30
0.000000
  8
2
 62
7
  6
CONTINUOUS
  0
VERTEX
 10
65.100000
 20
69.600000
 30
0.000000
  8
2
 62
7
  6
CONTINUOUS
  0
SEQEND
  0
SOLID
  8
2
 62
254
  6
CONTINUOUS
 10
65.600000
 20
26.200000
 11
65.600000
 21
64.900000
 12
65.200000
 22
26.200000
 13
65.200000
 23
64.900000
  0
POLYLINE
  8
2
 62
7
  6
CONTINUOUS
 70
1
 66
1
  0
VERTEX
 10
65.600000
 20
26.200000
 30
0.000000
  8
2
 62
7
  6
CONTINUOUS
  0
VERTEX
 10
65.600000
 20
64.900000
 30
0.000000
  8
2
 62
7
  6
CONTINUOUS
  0
VERTEX
 10
65.200000
 20
64.900000
 30
0.000000
  8
2
 62
7
  6
CONTINUOUS
  0
VERTEX
 10
65.200000
 20
26.200000
 30
0.000000
  8
2
 62
7
  6
CONTINUOUS
  0
SEQEND
  0
POLYLINE
  8
2
 62
7
  6
CONTINUOUS
 70
1
 66
1
  0
VERTEX
 10
65.600000
 20
18.200000
 30
0.000000
  8
2
 62
7
  6
CONTINUOUS
  0
VERTEX
 10
65.600000
 20
21.300000
 30
0.000000
  8
2
 62
7
  6
CONTINUOUS
  0
VERTEX
 10
65.200000
 20
21.300000
 30
0.000000
  8
2
 62
7
  6
CONTINUOUS
  0
VERTEX
 10
65.200000
 20
18.200000
 30
0.000000
  8
2
 62
7
  6
CONTINUOUS
  0
SEQEND
  0
POLYLINE
  8
2
 62
7
  6
CONTINUOUS
 70
1
 66
1
  0
VERTEX
 10
65.600000
 20
55.200000
 30
0.000000
  8
2
 62
7
  6
CONTINUOUS
  0
VERTEX
 10
65.600000
 20
58.300000
 30
0.000000
  8
2
 62
7
  6
CONTINUOUS
  0
VERTEX
 10
65.200000
 20
58.300000
 30
0.000000
  8
2
 62
7
  6
CONTINUOUS
  0
VERTEX
 10
65.200000
 20
55.200000
 30
0.000000
  8
2
 62
7
  6
CONTINUOUS
  0
SEQEND
  0
POLYLINE
  8
2
 62
7
  6
CONTINUOUS
 70
1
 66
1
  0
VERTEX
 10
69.800000
 20
55.200000
 30
0.000000
  8
2
 62
7
  6
CONTINUOUS
  0
VERTEX
 10
69.800000
 20
58.300000
 30
0.000000
  8
2
 62
7
  6
CONTINUOUS
  0
VERTEX
 10
69.400000
 20
58.300000
 30
0.000000
  8
2
 62
7
  6
CONTINUOUS
  0
VERTEX
 10
69.400000
 20
55.200000
 30
0.000000
  8
2
 62
7
  6
CONTINUOUS
  0
SEQEND
  0
POLYLINE
  8
2
 62
7
  6
CONTINUOUS
 70
1
 66
1
  0
VERTEX
 10
69.800000
 20
18.200000
 30
0.000000
  8
2
 62
7
  6
CONTINUOUS
  0
VERTEX
 10
69.800000
 20
21.300000
 30
0.000000
  8
2
 62
7
  6
CONTINUOUS
  0
VERTEX
 10
69.400000
 20
21.300000
 30
0.000000
  8
2
 62
7
  6
CONTINUOUS
  0
VERTEX
 10
69.400000
 20
18.200000
 30
0.000000
  8
2
 62
7
  6
CONTINUOUS
  0
SEQEND
  0
SOLID
  8
2
 62
254
  6
CONTINUOUS
 10
69.800000
 20
26.200000
 11
69.800000
 21
64.900000
 12
69.400000
 22
26.200000
 13
69.400000
 23
64.900000
  0
POLYLINE
  8
2
 62
7
  6
CONTINUOUS
 70
1
 66
1
  0
VERTEX
 10
69.800000
 20
26.200000
 30
0.000000
  8
2
 62
7
  6
CONTINUOUS
  0
VERTEX
 10
69.800000
 20
64.900000
 30
0.000000
  8
2
 62
7
  6
CONTINUOUS
  0
VERTEX
 10
69.400000
 20
64.900000
 30
0.000000
  8
2
 62
7
  6
CONTINUOUS
  0
VERTEX
 10
69.400000
 20
26.200000
 30
0.000000
  8
2
 62
7
  6
CONTINUOUS
  0
SEQEND
  0
POLYLINE
  8
2
 62
7
  6
CONTINUOUS
 70
1
 66
1
  0
VERTEX
 10
66.300000
 20
50.200000
  8
2
 62
7
  6
CONTINUOUS
  0
VERTEX
 10
68.700000
 20
50.200000
  8
2
 62
7
  6
CONTINUOUS
  0
VERTEX
 10
69.800000
 20
49.500000
  8
2
 62
7
  6
CONTINUOUS
  0
VERTEX
 10
69.800000
 20
39.800000
  8
2
 62
7
  6
CONTINUOUS
  0
VERTEX
 10
69.400000
 20
39.800000
  8
2
 62
7
  6
CONTINUOUS
  0
VERTEX
 10
69.400000
 20
47.900000
  8
2
 62
7
  6
CONTINUOUS
  0
VERTEX
 10
68.700000
 20
48.700000
  8
2
 62
7
  6
CONTINUOUS
  0
VERTEX
 10
66.300000
 20
48.700000
  8
2
 62
7
  6
CONTINUOUS
  0
VERTEX
 10
65.600000
 20
47.900000
  8
2
 62
7
  6
CONTINUOUS
  0
VERTEX
 10
65.600000
 20
39.800000
  8
2
 62
7
  6
CONTINUOUS
  0
VERTEX
 10
65.200000
 20
39.800000
  8
2
 62
7
  6
CONTINUOUS
  0
VERTEX
 10
65.200000
 20
49.400000
  8
2
 62
7
  6
CONTINUOUS
  0
SEQEND
  0
ENDBLK
  0
ENDSEC
  0
SECTION
  2
ENTITIES
  0
INSERT
  8
0
 2
md300b
 10
0.000000
 20
0.000000
 30
0.0
 50
0.0
  0
ENDSEC
  0
EOF
