  0
SECTION
  2
HEADER
  9
$ACADVER
  1
AC1009
  9
$INSBASE
 10
0.0
 20
0.0
 30
0.0
  9
$EXTMIN
 10
0.0
 20
0.0
 30
0.0
  9
$EXTMAX
 10
0.000000
 20
0.000000
 30
0.0
  9
$LIMMIN
 10
0.0
 20
0.0
  9
$LIMMAX
 10
0.000000
 20
0.000000
  0
ENDSEC
  0
SECTION
  2
TABLES
  0
TABLE
  2
LTYPE
 70
2
  0
LTYPE
  2
L000000020000008000
 70
64
  3
Solid line
 72
65
 73
0
 40
0.000000
  0
LTYPE
  2
CONTINUOUS
 70
64
  3
Solid line
 72
65
 73
0
 40
0.000000
  0
ENDTAB
  0
TABLE
  2
LAYER
 70
8
  0
LAYER
  2
0
 70
64
 62
7
  6
CONTINUOUS
  0
LAYER
  2
1
 70
64
 62
7
  6
CONTINUOUS
  0
LAYER
  2
2
 70
64
 62
7
  6
CONTINUOUS
  0
LAYER
  2
3
 70
64
 62
-7
  6
CONTINUOUS
  0
LAYER
  2
4
 70
64
 62
7
  6
CONTINUOUS
  0
LAYER
  2
5
 70
64
 62
7
  6
CONTINUOUS
  0
LAYER
  2
6
 70
64
 62
7
  6
CONTINUOUS
  0
LAYER
  2
7
 70
64
 62
-7
  6
CONTINUOUS
  0
LAYER
  2
8
 70
64
 62
7
  6
CONTINUOUS
  0
LAYER
  2
9
 70
64
 62
7
  6
CONTINUOUS
  0
LAYER
  2
10
 70
64
 62
-7
  6
CONTINUOUS
  0
LAYER
  2
11
 70
64
 62
-7
  6
CONTINUOUS
  0
LAYER
  2
12
 70
64
 62
7
  6
CONTINUOUS
  0
LAYER
  2
13
 70
64
 62
7
  6
CONTINUOUS
  0
LAYER
  2
14
 70
64
 62
7
  6
CONTINUOUS
  0
LAYER
  2
15
 70
64
 62
7
  6
CONTINUOUS
  0
LAYER
  2
16
 70
64
 62
7
  6
CONTINUOUS
  0
LAYER
  2
17
 70
64
 62
7
  6
CONTINUOUS
  0
LAYER
  2
18
 70
64
 62
7
  6
CONTINUOUS
  0
LAYER
  2
19
 70
64
 62
7
  6
CONTINUOUS
  0
ENDTAB
  0
ENDSEC
  0
SECTION
  2
BLOCKS
  0
BLOCK
  8
0
  2
mbc103vs
 70
 0
 10
0.0
 20
0.0
 30
0.0
  0
SOLID
  8
1
 62
255
  6
CONTINUOUS
 10
24.800000
 20
44.800000
 11
24.800000
 21
0.200000
 12
0.200000
 22
44.800000
 13
0.200000
 23
0.200000
  0
POLYLINE
  8
1
 62
7
  6
CONTINUOUS
 70
1
 66
1
  0
VERTEX
 10
24.800000
 20
44.800000
 30
0.000000
  8
1
 62
7
  6
CONTINUOUS
  0
VERTEX
 10
24.800000
 20
0.200000
 30
0.000000
  8
1
 62
7
  6
CONTINUOUS
  0
VERTEX
 10
0.200000
 20
0.200000
 30
0.000000
  8
1
 62
7
  6
CONTINUOUS
  0
VERTEX
 10
0.200000
 20
44.800000
 30
0.000000
  8
1
 62
7
  6
CONTINUOUS
  0
SEQEND
  0
LINE
  8
1
 62
7
  6
CONTINUOUS
 10
1.000000
 20
42.900000
 11
1.000000
 21
42.400000
  0
LINE
  8
1
 62
7
  6
CONTINUOUS
 10
1.000000
 20
39.500000
 11
1.000000
 21
40.000000
  0
LINE
  8
1
 62
7
  6
CONTINUOUS
 10
1.400000
 20
41.200000
 11
0.500000
 21
41.200000
  0
CIRCLE
  8
1
 62
7
  6
CONTINUOUS
 10
1.000000
 20
41.200000
 30
0.0
 40
0.700000
  0
LINE
  8
1
 62
7
  6
CONTINUOUS
 10
24.000000
 20
42.900000
 11
24.000000
 21
42.400000
  0
LINE
  8
1
 62
7
  6
CONTINUOUS
 10
24.000000
 20
39.500000
 11
24.000000
 21
40.000000
  0
LINE
  8
1
 62
7
  6
CONTINUOUS
 10
23.600000
 20
41.200000
 11
24.500000
 21
41.200000
  0
CIRCLE
  8
1
 62
7
  6
CONTINUOUS
 10
24.000000
 20
41.200000
 30
0.0
 40
0.700000
  0
LINE
  8
1
 62
7
  6
CONTINUOUS
 10
24.000000
 20
2.100000
 11
24.000000
 21
2.600000
  0
LINE
  8
1
 62
7
  6
CONTINUOUS
 10
24.000000
 20
5.500000
 11
24.000000
 21
5.000000
  0
LINE
  8
1
 62
7
  6
CONTINUOUS
 10
23.600000
 20
3.800000
 11
24.500000
 21
3.800000
  0
CIRCLE
  8
1
 62
7
  6
CONTINUOUS
 10
24.000000
 20
3.800000
 30
0.0
 40
0.700000
  0
LINE
  8
1
 62
7
  6
CONTINUOUS
 10
1.000000
 20
2.100000
 11
1.000000
 21
2.600000
  0
LINE
  8
1
 62
7
  6
CONTINUOUS
 10
1.000000
 20
5.500000
 11
1.000000
 21
5.000000
  0
LINE
  8
1
 62
7
  6
CONTINUOUS
 10
1.400000
 20
3.800000
 11
0.500000
 21
3.800000
  0
CIRCLE
  8
1
 62
7
  6
CONTINUOUS
 10
1.000000
 20
3.800000
 30
0.0
 40
0.700000
  0
POLYLINE
  8
1
 62
7
  6
CONTINUOUS
 70
1
 66
1
  0
VERTEX
 10
10.200000
 20
42.300000
 30
0.000000
  8
1
 62
7
  6
CONTINUOUS
  0
VERTEX
 10
10.200000
 20
2.700000
 30
0.000000
  8
1
 62
7
  6
CONTINUOUS
  0
VERTEX
 10
5.600000
 20
2.700000
 30
0.000000
  8
1
 62
7
  6
CONTINUOUS
  0
VERTEX
 10
5.600000
 20
42.300000
 30
0.000000
  8
1
 62
7
  6
CONTINUOUS
  0
SEQEND
  0
POLYLINE
  8
1
 62
7
  6
CONTINUOUS
 70
0
 66
1
  0
VERTEX
 10
5.600000
 20
8.100000
  8
1
 62
7
  6
CONTINUOUS
  0
VERTEX
 10
6.700000
 20
8.100000
  8
1
 62
7
  6
CONTINUOUS
  0
SEQEND
  0
POLYLINE
  8
1
 62
7
  6
CONTINUOUS
 70
0
 66
1
  0
VERTEX
 10
5.600000
 20
9.900000
  8
1
 62
7
  6
CONTINUOUS
  0
VERTEX
 10
6.700000
 20
9.900000
  8
1
 62
7
  6
CONTINUOUS
  0
SEQEND
  0
POLYLINE
  8
1
 62
7
  6
CONTINUOUS
 70
0
 66
1
  0
VERTEX
 10
5.600000
 20
11.700000
  8
1
 62
7
  6
CONTINUOUS
  0
VERTEX
 10
6.700000
 20
11.700000
  8
1
 62
7
  6
CONTINUOUS
  0
SEQEND
  0
POLYLINE
  8
1
 62
7
  6
CONTINUOUS
 70
0
 66
1
  0
VERTEX
 10
5.600000
 20
13.500000
  8
1
 62
7
  6
CONTINUOUS
  0
VERTEX
 10
6.700000
 20
13.500000
  8
1
 62
7
  6
CONTINUOUS
  0
SEQEND
  0
POLYLINE
  8
1
 62
7
  6
CONTINUOUS
 70
0
 66
1
  0
VERTEX
 10
5.600000
 20
15.300000
  8
1
 62
7
  6
CONTINUOUS
  0
VERTEX
 10
6.700000
 20
15.300000
  8
1
 62
7
  6
CONTINUOUS
  0
SEQEND
  0
POLYLINE
  8
1
 62
7
  6
CONTINUOUS
 70
0
 66
1
  0
VERTEX
 10
5.600000
 20
17.100000
  8
1
 62
7
  6
CONTINUOUS
  0
VERTEX
 10
6.700000
 20
17.100000
  8
1
 62
7
  6
CONTINUOUS
  0
SEQEND
  0
POLYLINE
  8
1
 62
7
  6
CONTINUOUS
 70
0
 66
1
  0
VERTEX
 10
5.600000
 20
18.900000
  8
1
 62
7
  6
CONTINUOUS
  0
VERTEX
 10
6.700000
 20
18.900000
  8
1
 62
7
  6
CONTINUOUS
  0
SEQEND
  0
POLYLINE
  8
1
 62
7
  6
CONTINUOUS
 70
0
 66
1
  0
VERTEX
 10
5.600000
 20
24.300000
  8
1
 62
7
  6
CONTINUOUS
  0
VERTEX
 10
6.700000
 20
24.300000
  8
1
 62
7
  6
CONTINUOUS
  0
SEQEND
  0
POLYLINE
  8
1
 62
7
  6
CONTINUOUS
 70
0
 66
1
  0
VERTEX
 10
5.600000
 20
29.700000
  8
1
 62
7
  6
CONTINUOUS
  0
VERTEX
 10
6.700000
 20
29.700000
  8
1
 62
7
  6
CONTINUOUS
  0
SEQEND
  0
POLYLINE
  8
1
 62
7
  6
CONTINUOUS
 70
0
 66
1
  0
VERTEX
 10
5.600000
 20
31.500000
  8
1
 62
7
  6
CONTINUOUS
  0
VERTEX
 10
6.700000
 20
31.500000
  8
1
 62
7
  6
CONTINUOUS
  0
SEQEND
  0
POLYLINE
  8
1
 62
7
  6
CONTINUOUS
 70
0
 66
1
  0
VERTEX
 10
5.600000
 20
33.300000
  8
1
 62
7
  6
CONTINUOUS
  0
VERTEX
 10
6.700000
 20
33.300000
  8
1
 62
7
  6
CONTINUOUS
  0
SEQEND
  0
POLYLINE
  8
1
 62
7
  6
CONTINUOUS
 70
0
 66
1
  0
VERTEX
 10
5.600000
 20
35.100000
  8
1
 62
7
  6
CONTINUOUS
  0
VERTEX
 10
6.700000
 20
35.100000
  8
1
 62
7
  6
CONTINUOUS
  0
SEQEND
  0
POLYLINE
  8
1
 62
7
  6
CONTINUOUS
 70
0
 66
1
  0
VERTEX
 10
5.600000
 20
36.900000
  8
1
 62
7
  6
CONTINUOUS
  0
VERTEX
 10
6.700000
 20
36.900000
  8
1
 62
7
  6
CONTINUOUS
  0
SEQEND
  0
POLYLINE
  8
1
 62
7
  6
CONTINUOUS
 70
0
 66
1
  0
VERTEX
 10
5.600000
 20
38.700000
  8
1
 62
7
  6
CONTINUOUS
  0
VERTEX
 10
6.700000
 20
38.700000
  8
1
 62
7
  6
CONTINUOUS
  0
SEQEND
  0
POLYLINE
  8
1
 62
7
  6
CONTINUOUS
 70
0
 66
1
  0
VERTEX
 10
5.600000
 20
40.500000
  8
1
 62
7
  6
CONTINUOUS
  0
VERTEX
 10
6.700000
 20
40.500000
  8
1
 62
7
  6
CONTINUOUS
  0
SEQEND
  0
POLYLINE
  8
1
 62
7
  6
CONTINUOUS
 70
0
 66
1
  0
VERTEX
 10
5.600000
 20
4.500000
  8
1
 62
7
  6
CONTINUOUS
  0
VERTEX
 10
6.700000
 20
4.500000
  8
1
 62
7
  6
CONTINUOUS
  0
SEQEND
  0
POLYLINE
  8
1
 62
7
  6
CONTINUOUS
 70
0
 66
1
  0
VERTEX
 10
5.600000
 20
6.300000
  8
1
 62
7
  6
CONTINUOUS
  0
VERTEX
 10
6.700000
 20
6.300000
  8
1
 62
7
  6
CONTINUOUS
  0
SEQEND
  0
POLYLINE
  8
1
 62
7
  6
CONTINUOUS
 70
0
 66
1
  0
VERTEX
 10
5.600000
 20
20.700000
  8
1
 62
7
  6
CONTINUOUS
  0
VERTEX
 10
6.700000
 20
20.700000
  8
1
 62
7
  6
CONTINUOUS
  0
SEQEND
  0
POLYLINE
  8
1
 62
7
  6
CONTINUOUS
 70
0
 66
1
  0
VERTEX
 10
5.600000
 20
22.500000
  8
1
 62
7
  6
CONTINUOUS
  0
VERTEX
 10
6.700000
 20
22.500000
  8
1
 62
7
  6
CONTINUOUS
  0
SEQEND
  0
POLYLINE
  8
1
 62
7
  6
CONTINUOUS
 70
0
 66
1
  0
VERTEX
 10
5.600000
 20
26.100000
  8
1
 62
7
  6
CONTINUOUS
  0
VERTEX
 10
6.700000
 20
26.100000
  8
1
 62
7
  6
CONTINUOUS
  0
SEQEND
  0
POLYLINE
  8
1
 62
7
  6
CONTINUOUS
 70
0
 66
1
  0
VERTEX
 10
5.600000
 20
27.900000
  8
1
 62
7
  6
CONTINUOUS
  0
VERTEX
 10
6.700000
 20
27.900000
  8
1
 62
7
  6
CONTINUOUS
  0
SEQEND
  0
SOLID
  8
10
 62
255
  6
CONTINUOUS
 10
24.800000
 20
44.800000
 11
24.800000
 21
0.200000
 12
0.200000
 22
44.800000
 13
0.200000
 23
0.200000
  0
POLYLINE
  8
10
 62
7
  6
CONTINUOUS
 70
1
 66
1
  0
VERTEX
 10
24.800000
 20
44.800000
 30
0.000000
  8
10
 62
7
  6
CONTINUOUS
  0
VERTEX
 10
24.800000
 20
0.200000
 30
0.000000
  8
10
 62
7
  6
CONTINUOUS
  0
VERTEX
 10
0.200000
 20
0.200000
 30
0.000000
  8
10
 62
7
  6
CONTINUOUS
  0
VERTEX
 10
0.200000
 20
44.800000
 30
0.000000
  8
10
 62
7
  6
CONTINUOUS
  0
SEQEND
  0
POLYLINE
  8
10
 62
7
  6
CONTINUOUS
 70
1
 66
1
  0
VERTEX
 10
10.200000
 20
42.300000
 30
0.000000
  8
10
 62
7
  6
CONTINUOUS
  0
VERTEX
 10
10.200000
 20
2.700000
 30
0.000000
  8
10
 62
7
  6
CONTINUOUS
  0
VERTEX
 10
5.600000
 20
2.700000
 30
0.000000
  8
10
 62
7
  6
CONTINUOUS
  0
VERTEX
 10
5.600000
 20
42.300000
 30
0.000000
  8
10
 62
7
  6
CONTINUOUS
  0
SEQEND
  0
POLYLINE
  8
10
 62
7
  6
CONTINUOUS
 70
0
 66
1
  0
VERTEX
 10
5.600000
 20
8.100000
  8
10
 62
7
  6
CONTINUOUS
  0
VERTEX
 10
6.700000
 20
8.100000
  8
10
 62
7
  6
CONTINUOUS
  0
SEQEND
  0
POLYLINE
  8
10
 62
7
  6
CONTINUOUS
 70
0
 66
1
  0
VERTEX
 10
5.600000
 20
9.900000
  8
10
 62
7
  6
CONTINUOUS
  0
VERTEX
 10
6.700000
 20
9.900000
  8
10
 62
7
  6
CONTINUOUS
  0
SEQEND
  0
POLYLINE
  8
10
 62
7
  6
CONTINUOUS
 70
0
 66
1
  0
VERTEX
 10
5.600000
 20
11.700000
  8
10
 62
7
  6
CONTINUOUS
  0
VERTEX
 10
6.700000
 20
11.700000
  8
10
 62
7
  6
CONTINUOUS
  0
SEQEND
  0
POLYLINE
  8
10
 62
7
  6
CONTINUOUS
 70
0
 66
1
  0
VERTEX
 10
5.600000
 20
13.500000
  8
10
 62
7
  6
CONTINUOUS
  0
VERTEX
 10
6.700000
 20
13.500000
  8
10
 62
7
  6
CONTINUOUS
  0
SEQEND
  0
POLYLINE
  8
10
 62
7
  6
CONTINUOUS
 70
0
 66
1
  0
VERTEX
 10
5.600000
 20
15.300000
  8
10
 62
7
  6
CONTINUOUS
  0
VERTEX
 10
6.700000
 20
15.300000
  8
10
 62
7
  6
CONTINUOUS
  0
SEQEND
  0
POLYLINE
  8
10
 62
7
  6
CONTINUOUS
 70
0
 66
1
  0
VERTEX
 10
5.600000
 20
17.100000
  8
10
 62
7
  6
CONTINUOUS
  0
VERTEX
 10
6.700000
 20
17.100000
  8
10
 62
7
  6
CONTINUOUS
  0
SEQEND
  0
POLYLINE
  8
10
 62
7
  6
CONTINUOUS
 70
0
 66
1
  0
VERTEX
 10
5.600000
 20
18.900000
  8
10
 62
7
  6
CONTINUOUS
  0
VERTEX
 10
6.700000
 20
18.900000
  8
10
 62
7
  6
CONTINUOUS
  0
SEQEND
  0
POLYLINE
  8
10
 62
7
  6
CONTINUOUS
 70
0
 66
1
  0
VERTEX
 10
5.600000
 20
24.300000
  8
10
 62
7
  6
CONTINUOUS
  0
VERTEX
 10
6.700000
 20
24.300000
  8
10
 62
7
  6
CONTINUOUS
  0
SEQEND
  0
POLYLINE
  8
10
 62
7
  6
CONTINUOUS
 70
0
 66
1
  0
VERTEX
 10
5.600000
 20
29.700000
  8
10
 62
7
  6
CONTINUOUS
  0
VERTEX
 10
6.700000
 20
29.700000
  8
10
 62
7
  6
CONTINUOUS
  0
SEQEND
  0
POLYLINE
  8
10
 62
7
  6
CONTINUOUS
 70
0
 66
1
  0
VERTEX
 10
5.600000
 20
31.500000
  8
10
 62
7
  6
CONTINUOUS
  0
VERTEX
 10
6.700000
 20
31.500000
  8
10
 62
7
  6
CONTINUOUS
  0
SEQEND
  0
POLYLINE
  8
10
 62
7
  6
CONTINUOUS
 70
0
 66
1
  0
VERTEX
 10
5.600000
 20
33.300000
  8
10
 62
7
  6
CONTINUOUS
  0
VERTEX
 10
6.700000
 20
33.300000
  8
10
 62
7
  6
CONTINUOUS
  0
SEQEND
  0
POLYLINE
  8
10
 62
7
  6
CONTINUOUS
 70
0
 66
1
  0
VERTEX
 10
5.600000
 20
35.100000
  8
10
 62
7
  6
CONTINUOUS
  0
VERTEX
 10
6.700000
 20
35.100000
  8
10
 62
7
  6
CONTINUOUS
  0
SEQEND
  0
POLYLINE
  8
10
 62
7
  6
CONTINUOUS
 70
0
 66
1
  0
VERTEX
 10
5.600000
 20
36.900000
  8
10
 62
7
  6
CONTINUOUS
  0
VERTEX
 10
6.700000
 20
36.900000
  8
10
 62
7
  6
CONTINUOUS
  0
SEQEND
  0
POLYLINE
  8
10
 62
7
  6
CONTINUOUS
 70
0
 66
1
  0
VERTEX
 10
5.600000
 20
38.700000
  8
10
 62
7
  6
CONTINUOUS
  0
VERTEX
 10
6.700000
 20
38.700000
  8
10
 62
7
  6
CONTINUOUS
  0
SEQEND
  0
POLYLINE
  8
10
 62
7
  6
CONTINUOUS
 70
0
 66
1
  0
VERTEX
 10
5.600000
 20
40.500000
  8
10
 62
7
  6
CONTINUOUS
  0
VERTEX
 10
6.700000
 20
40.500000
  8
10
 62
7
  6
CONTINUOUS
  0
SEQEND
  0
POLYLINE
  8
10
 62
7
  6
CONTINUOUS
 70
0
 66
1
  0
VERTEX
 10
5.600000
 20
4.500000
  8
10
 62
7
  6
CONTINUOUS
  0
VERTEX
 10
6.700000
 20
4.500000
  8
10
 62
7
  6
CONTINUOUS
  0
SEQEND
  0
POLYLINE
  8
10
 62
7
  6
CONTINUOUS
 70
0
 66
1
  0
VERTEX
 10
5.600000
 20
6.300000
  8
10
 62
7
  6
CONTINUOUS
  0
VERTEX
 10
6.700000
 20
6.300000
  8
10
 62
7
  6
CONTINUOUS
  0
SEQEND
  0
POLYLINE
  8
10
 62
7
  6
CONTINUOUS
 70
0
 66
1
  0
VERTEX
 10
5.600000
 20
20.700000
  8
10
 62
7
  6
CONTINUOUS
  0
VERTEX
 10
6.700000
 20
20.700000
  8
10
 62
7
  6
CONTINUOUS
  0
SEQEND
  0
POLYLINE
  8
10
 62
7
  6
CONTINUOUS
 70
0
 66
1
  0
VERTEX
 10
5.600000
 20
22.500000
  8
10
 62
7
  6
CONTINUOUS
  0
VERTEX
 10
6.700000
 20
22.500000
  8
10
 62
7
  6
CONTINUOUS
  0
SEQEND
  0
POLYLINE
  8
10
 62
7
  6
CONTINUOUS
 70
0
 66
1
  0
VERTEX
 10
5.600000
 20
26.100000
  8
10
 62
7
  6
CONTINUOUS
  0
VERTEX
 10
6.700000
 20
26.100000
  8
10
 62
7
  6
CONTINUOUS
  0
SEQEND
  0
POLYLINE
  8
10
 62
7
  6
CONTINUOUS
 70
0
 66
1
  0
VERTEX
 10
5.600000
 20
27.900000
  8
10
 62
7
  6
CONTINUOUS
  0
VERTEX
 10
6.700000
 20
27.900000
  8
10
 62
7
  6
CONTINUOUS
  0
SEQEND
  0
ENDBLK
  0
ENDSEC
  0
SECTION
  2
ENTITIES
  0
INSERT
  8
0
 2
mbc103vs
 10
0.000000
 20
0.000000
 30
0.0
 50
0.0
  0
ENDSEC
  0
EOF
