  0
SECTION
  2
HEADER
  9
$ACADVER
  1
AC1009
  9
$INSBASE
 10
0.0
 20
0.0
 30
0.0
  9
$EXTMIN
 10
0.0
 20
0.0
 30
0.0
  9
$EXTMAX
 10
0.000000
 20
0.000000
 30
0.0
  9
$LIMMIN
 10
0.0
 20
0.0
  9
$LIMMAX
 10
0.000000
 20
0.000000
  0
ENDSEC
  0
SECTION
  2
TABLES
  0
TABLE
  2
LTYPE
 70
3
  0
LTYPE
  2
L000000020000008000
 70
64
  3
Solid line
 72
65
 73
0
 40
0.000000
  0
LTYPE
  2
CONTINUOUS
 70
64
  3
Solid line
 72
65
 73
0
 40
0.000000
  0
LTYPE
  2
L014100020032000000
 70
64
  3
- - - - - - - -
 72
65
 73
2
 40
0.500000
 49
0.300000
 49
-0.200000
  0
ENDTAB
  0
TABLE
  2
LAYER
 70
8
  0
LAYER
  2
0
 70
64
 62
7
  6
CONTINUOUS
  0
LAYER
  2
1
 70
64
 62
7
  6
CONTINUOUS
  0
LAYER
  2
2
 70
64
 62
7
  6
CONTINUOUS
  0
LAYER
  2
3
 70
64
 62
-7
  6
CONTINUOUS
  0
LAYER
  2
4
 70
64
 62
7
  6
CONTINUOUS
  0
LAYER
  2
5
 70
64
 62
7
  6
CONTINUOUS
  0
LAYER
  2
6
 70
64
 62
7
  6
CONTINUOUS
  0
LAYER
  2
7
 70
64
 62
-7
  6
CONTINUOUS
  0
LAYER
  2
8
 70
64
 62
7
  6
CONTINUOUS
  0
LAYER
  2
9
 70
64
 62
7
  6
CONTINUOUS
  0
LAYER
  2
10
 70
64
 62
-7
  6
CONTINUOUS
  0
LAYER
  2
11
 70
64
 62
-7
  6
CONTINUOUS
  0
LAYER
  2
12
 70
64
 62
7
  6
CONTINUOUS
  0
LAYER
  2
13
 70
64
 62
7
  6
CONTINUOUS
  0
LAYER
  2
14
 70
64
 62
7
  6
CONTINUOUS
  0
LAYER
  2
15
 70
64
 62
7
  6
CONTINUOUS
  0
LAYER
  2
16
 70
64
 62
7
  6
CONTINUOUS
  0
LAYER
  2
17
 70
64
 62
7
  6
CONTINUOUS
  0
LAYER
  2
18
 70
64
 62
7
  6
CONTINUOUS
  0
LAYER
  2
19
 70
64
 62
7
  6
CONTINUOUS
  0
ENDTAB
  0
ENDSEC
  0
SECTION
  2
BLOCKS
  0
BLOCK
  8
0
  2
mbh350
 70
 0
 10
0.0
 20
0.0
 30
0.0
  0
SOLID
  8
1
 62
255
  6
CONTINUOUS
 10
74.800000
 20
29.800000
 11
74.800000
 21
0.200000
 12
0.200000
 22
29.800000
 13
0.200000
 23
0.200000
  0
POLYLINE
  8
1
 62
7
  6
CONTINUOUS
 70
1
 66
1
  0
VERTEX
 10
74.800000
 20
29.800000
 30
0.000000
  8
1
 62
7
  6
CONTINUOUS
  0
VERTEX
 10
74.800000
 20
0.200000
 30
0.000000
  8
1
 62
7
  6
CONTINUOUS
  0
VERTEX
 10
0.200000
 20
0.200000
 30
0.000000
  8
1
 62
7
  6
CONTINUOUS
  0
VERTEX
 10
0.200000
 20
29.800000
 30
0.000000
  8
1
 62
7
  6
CONTINUOUS
  0
SEQEND
  0
POLYLINE
  8
1
 62
7
  6
L014100020032000000
 70
1
 66
1
  0
VERTEX
 10
73.600000
 20
10.900000
 30
0.000000
  8
1
 62
7
  6
L014100020032000000
  0
VERTEX
 10
73.600000
 20
12.100000
 30
0.000000
  8
1
 62
7
  6
L014100020032000000
  0
VERTEX
 10
1.500000
 20
12.100000
 30
0.000000
  8
1
 62
7
  6
L014100020032000000
  0
VERTEX
 10
1.500000
 20
10.900000
 30
0.000000
  8
1
 62
7
  6
L014100020032000000
  0
SEQEND
  0
POLYLINE
  8
1
 62
7
  6
L014100020032000000
 70
1
 66
1
  0
VERTEX
 10
73.700000
 20
14.900000
 30
0.000000
  8
1
 62
7
  6
L014100020032000000
  0
VERTEX
 10
73.700000
 20
16.100000
 30
0.000000
  8
1
 62
7
  6
L014100020032000000
  0
VERTEX
 10
1.500000
 20
16.100000
 30
0.000000
  8
1
 62
7
  6
L014100020032000000
  0
VERTEX
 10
1.500000
 20
14.900000
 30
0.000000
  8
1
 62
7
  6
L014100020032000000
  0
SEQEND
  0
POLYLINE
  8
1
 62
7
  6
L014100020032000000
 70
1
 66
1
  0
VERTEX
 10
73.600000
 20
18.900000
 30
0.000000
  8
1
 62
7
  6
L014100020032000000
  0
VERTEX
 10
73.600000
 20
20.100000
 30
0.000000
  8
1
 62
7
  6
L014100020032000000
  0
VERTEX
 10
1.500000
 20
20.100000
 30
0.000000
  8
1
 62
7
  6
L014100020032000000
  0
VERTEX
 10
1.500000
 20
18.900000
 30
0.000000
  8
1
 62
7
  6
L014100020032000000
  0
SEQEND
  0
SOLID
  8
1
 62
255
  6
L014100020032000000
 10
43.700000
 20
6.000000
 11
43.700000
 21
25.000000
 12
42.200000
 22
6.000000
 13
42.200000
 23
25.000000
  0
POLYLINE
  8
1
 62
7
  6
L014100020032000000
 70
1
 66
1
  0
VERTEX
 10
43.700000
 20
6.000000
 30
0.000000
  8
1
 62
7
  6
L014100020032000000
  0
VERTEX
 10
43.700000
 20
25.000000
 30
0.000000
  8
1
 62
7
  6
L014100020032000000
  0
VERTEX
 10
42.200000
 20
25.000000
 30
0.000000
  8
1
 62
7
  6
L014100020032000000
  0
VERTEX
 10
42.200000
 20
6.000000
 30
0.000000
  8
1
 62
7
  6
L014100020032000000
  0
SEQEND
  0
LINE
  8
1
 62
7
  6
CONTINUOUS
 10
1.000000
 20
24.500000
 11
1.000000
 21
25.000000
  0
LINE
  8
1
 62
7
  6
CONTINUOUS
 10
1.400000
 20
26.200000
 11
0.500000
 21
26.200000
  0
CIRCLE
  8
1
 62
7
  6
CONTINUOUS
 10
1.000000
 20
26.200000
 30
0.0
 40
0.700000
  0
LINE
  8
1
 62
7
  6
CONTINUOUS
 10
1.000000
 20
2.100000
 11
1.000000
 21
2.600000
  0
LINE
  8
1
 62
7
  6
CONTINUOUS
 10
1.000000
 20
5.500000
 11
1.000000
 21
5.000000
  0
LINE
  8
1
 62
7
  6
CONTINUOUS
 10
1.400000
 20
3.800000
 11
0.500000
 21
3.800000
  0
CIRCLE
  8
1
 62
7
  6
CONTINUOUS
 10
1.000000
 20
3.800000
 30
0.0
 40
0.700000
  0
POLYLINE
  8
1
 62
7
  6
CONTINUOUS
 70
0
 66
1
  0
VERTEX
 10
14.400000
 20
14.100000
  8
1
 62
7
  6
CONTINUOUS
  0
VERTEX
 10
14.400000
 20
15.200000
  8
1
 62
7
  6
CONTINUOUS
  0
SEQEND
  0
POLYLINE
  8
1
 62
7
  6
CONTINUOUS
 70
0
 66
1
  0
VERTEX
 10
7.200000
 20
14.100000
  8
1
 62
7
  6
CONTINUOUS
  0
VERTEX
 10
7.200000
 20
15.200000
  8
1
 62
7
  6
CONTINUOUS
  0
SEQEND
  0
POLYLINE
  8
1
 62
7
  6
CONTINUOUS
 70
0
 66
1
  0
VERTEX
 10
9.000000
 20
14.100000
  8
1
 62
7
  6
CONTINUOUS
  0
VERTEX
 10
9.000000
 20
15.200000
  8
1
 62
7
  6
CONTINUOUS
  0
SEQEND
  0
POLYLINE
  8
1
 62
7
  6
CONTINUOUS
 70
0
 66
1
  0
VERTEX
 10
10.800000
 20
14.100000
  8
1
 62
7
  6
CONTINUOUS
  0
VERTEX
 10
10.800000
 20
15.200000
  8
1
 62
7
  6
CONTINUOUS
  0
SEQEND
  0
POLYLINE
  8
1
 62
7
  6
CONTINUOUS
 70
0
 66
1
  0
VERTEX
 10
12.600000
 20
14.100000
  8
1
 62
7
  6
CONTINUOUS
  0
VERTEX
 10
12.600000
 20
15.200000
  8
1
 62
7
  6
CONTINUOUS
  0
SEQEND
  0
SOLID
  8
1
 62
255
  6
L014100020032000000
 10
74.600000
 20
6.000000
 11
74.600000
 21
25.000000
 12
73.100000
 22
6.000000
 13
73.100000
 23
25.000000
  0
POLYLINE
  8
1
 62
7
  6
L014100020032000000
 70
1
 66
1
  0
VERTEX
 10
74.600000
 20
6.000000
 30
0.000000
  8
1
 62
7
  6
L014100020032000000
  0
VERTEX
 10
74.600000
 20
25.000000
 30
0.000000
  8
1
 62
7
  6
L014100020032000000
  0
VERTEX
 10
73.100000
 20
25.000000
 30
0.000000
  8
1
 62
7
  6
L014100020032000000
  0
VERTEX
 10
73.100000
 20
6.000000
 30
0.000000
  8
1
 62
7
  6
L014100020032000000
  0
SEQEND
  0
LINE
  8
1
 62
7
  6
CONTINUOUS
 10
74.000000
 20
27.900000
 11
74.000000
 21
27.400000
  0
LINE
  8
1
 62
7
  6
CONTINUOUS
 10
74.000000
 20
24.500000
 11
74.000000
 21
25.000000
  0
LINE
  8
1
 62
7
  6
CONTINUOUS
 10
73.600000
 20
26.200000
 11
74.500000
 21
26.200000
  0
CIRCLE
  8
1
 62
7
  6
CONTINUOUS
 10
74.000000
 20
26.200000
 30
0.0
 40
0.700000
  0
LINE
  8
1
 62
7
  6
CONTINUOUS
 10
74.000000
 20
2.100000
 11
74.000000
 21
2.600000
  0
LINE
  8
1
 62
7
  6
CONTINUOUS
 10
74.000000
 20
5.500000
 11
74.000000
 21
5.000000
  0
LINE
  8
1
 62
7
  6
CONTINUOUS
 10
73.600000
 20
3.800000
 11
74.500000
 21
3.800000
  0
CIRCLE
  8
1
 62
7
  6
CONTINUOUS
 10
74.000000
 20
3.800000
 30
0.0
 40
0.700000
  0
POLYLINE
  8
1
 62
7
  6
CONTINUOUS
 70
1
 66
1
  0
VERTEX
 10
69.600000
 20
14.100000
 30
0.000000
  8
1
 62
7
  6
CONTINUOUS
  0
VERTEX
 10
69.600000
 20
18.700000
 30
0.000000
  8
1
 62
7
  6
CONTINUOUS
  0
VERTEX
 10
48.000000
 20
18.700000
 30
0.000000
  8
1
 62
7
  6
CONTINUOUS
  0
VERTEX
 10
48.000000
 20
14.100000
 30
0.000000
  8
1
 62
7
  6
CONTINUOUS
  0
SEQEND
  0
POLYLINE
  8
1
 62
7
  6
CONTINUOUS
 70
0
 66
1
  0
VERTEX
 10
25.200000
 20
15.200000
  8
1
 62
7
  6
CONTINUOUS
  0
VERTEX
 10
25.200000
 20
14.100000
  8
1
 62
7
  6
CONTINUOUS
  0
SEQEND
  0
POLYLINE
  8
1
 62
7
  6
CONTINUOUS
 70
0
 66
1
  0
VERTEX
 10
16.200000
 20
15.200000
  8
1
 62
7
  6
CONTINUOUS
  0
VERTEX
 10
16.200000
 20
14.100000
  8
1
 62
7
  6
CONTINUOUS
  0
SEQEND
  0
POLYLINE
  8
1
 62
7
  6
CONTINUOUS
 70
0
 66
1
  0
VERTEX
 10
18.000000
 20
15.200000
  8
1
 62
7
  6
CONTINUOUS
  0
VERTEX
 10
18.000000
 20
14.100000
  8
1
 62
7
  6
CONTINUOUS
  0
SEQEND
  0
POLYLINE
  8
1
 62
7
  6
CONTINUOUS
 70
0
 66
1
  0
VERTEX
 10
19.800000
 20
15.200000
  8
1
 62
7
  6
CONTINUOUS
  0
VERTEX
 10
19.800000
 20
14.100000
  8
1
 62
7
  6
CONTINUOUS
  0
SEQEND
  0
POLYLINE
  8
1
 62
7
  6
CONTINUOUS
 70
0
 66
1
  0
VERTEX
 10
21.600000
 20
15.200000
  8
1
 62
7
  6
CONTINUOUS
  0
VERTEX
 10
21.600000
 20
14.100000
  8
1
 62
7
  6
CONTINUOUS
  0
SEQEND
  0
POLYLINE
  8
1
 62
7
  6
CONTINUOUS
 70
0
 66
1
  0
VERTEX
 10
23.400000
 20
15.200000
  8
1
 62
7
  6
CONTINUOUS
  0
VERTEX
 10
23.400000
 20
14.100000
  8
1
 62
7
  6
CONTINUOUS
  0
SEQEND
  0
POLYLINE
  8
1
 62
7
  6
CONTINUOUS
 70
0
 66
1
  0
VERTEX
 10
67.800000
 20
15.200000
  8
1
 62
7
  6
CONTINUOUS
  0
VERTEX
 10
67.800000
 20
14.100000
  8
1
 62
7
  6
CONTINUOUS
  0
SEQEND
  0
POLYLINE
  8
1
 62
7
  6
CONTINUOUS
 70
0
 66
1
  0
VERTEX
 10
49.800000
 20
15.200000
  8
1
 62
7
  6
CONTINUOUS
  0
VERTEX
 10
49.800000
 20
14.100000
  8
1
 62
7
  6
CONTINUOUS
  0
SEQEND
  0
POLYLINE
  8
1
 62
7
  6
CONTINUOUS
 70
0
 66
1
  0
VERTEX
 10
51.600000
 20
15.200000
  8
1
 62
7
  6
CONTINUOUS
  0
VERTEX
 10
51.600000
 20
14.100000
  8
1
 62
7
  6
CONTINUOUS
  0
SEQEND
  0
POLYLINE
  8
1
 62
7
  6
CONTINUOUS
 70
0
 66
1
  0
VERTEX
 10
53.400000
 20
15.200000
  8
1
 62
7
  6
CONTINUOUS
  0
VERTEX
 10
53.400000
 20
14.100000
  8
1
 62
7
  6
CONTINUOUS
  0
SEQEND
  0
POLYLINE
  8
1
 62
7
  6
CONTINUOUS
 70
0
 66
1
  0
VERTEX
 10
55.200000
 20
15.200000
  8
1
 62
7
  6
CONTINUOUS
  0
VERTEX
 10
55.200000
 20
14.100000
  8
1
 62
7
  6
CONTINUOUS
  0
SEQEND
  0
POLYLINE
  8
1
 62
7
  6
CONTINUOUS
 70
0
 66
1
  0
VERTEX
 10
57.000000
 20
15.200000
  8
1
 62
7
  6
CONTINUOUS
  0
VERTEX
 10
57.000000
 20
14.100000
  8
1
 62
7
  6
CONTINUOUS
  0
SEQEND
  0
POLYLINE
  8
1
 62
7
  6
CONTINUOUS
 70
0
 66
1
  0
VERTEX
 10
58.800000
 20
15.200000
  8
1
 62
7
  6
CONTINUOUS
  0
VERTEX
 10
58.800000
 20
14.100000
  8
1
 62
7
  6
CONTINUOUS
  0
SEQEND
  0
POLYLINE
  8
1
 62
7
  6
CONTINUOUS
 70
0
 66
1
  0
VERTEX
 10
60.600000
 20
15.200000
  8
1
 62
7
  6
CONTINUOUS
  0
VERTEX
 10
60.600000
 20
14.100000
  8
1
 62
7
  6
CONTINUOUS
  0
SEQEND
  0
POLYLINE
  8
1
 62
7
  6
CONTINUOUS
 70
0
 66
1
  0
VERTEX
 10
62.400000
 20
15.200000
  8
1
 62
7
  6
CONTINUOUS
  0
VERTEX
 10
62.400000
 20
14.100000
  8
1
 62
7
  6
CONTINUOUS
  0
SEQEND
  0
POLYLINE
  8
1
 62
7
  6
CONTINUOUS
 70
0
 66
1
  0
VERTEX
 10
64.200000
 20
15.200000
  8
1
 62
7
  6
CONTINUOUS
  0
VERTEX
 10
64.200000
 20
14.100000
  8
1
 62
7
  6
CONTINUOUS
  0
SEQEND
  0
POLYLINE
  8
1
 62
7
  6
CONTINUOUS
 70
0
 66
1
  0
VERTEX
 10
66.000000
 20
15.200000
  8
1
 62
7
  6
CONTINUOUS
  0
VERTEX
 10
66.000000
 20
14.100000
  8
1
 62
7
  6
CONTINUOUS
  0
SEQEND
  0
POLYLINE
  8
1
 62
7
  6
CONTINUOUS
 70
0
 66
1
  0
VERTEX
 10
36.000000
 20
15.200000
  8
1
 62
7
  6
CONTINUOUS
  0
VERTEX
 10
36.000000
 20
14.100000
  8
1
 62
7
  6
CONTINUOUS
  0
SEQEND
  0
POLYLINE
  8
1
 62
7
  6
CONTINUOUS
 70
0
 66
1
  0
VERTEX
 10
27.000000
 20
15.200000
  8
1
 62
7
  6
CONTINUOUS
  0
VERTEX
 10
27.000000
 20
14.100000
  8
1
 62
7
  6
CONTINUOUS
  0
SEQEND
  0
POLYLINE
  8
1
 62
7
  6
CONTINUOUS
 70
0
 66
1
  0
VERTEX
 10
28.800000
 20
15.200000
  8
1
 62
7
  6
CONTINUOUS
  0
VERTEX
 10
28.800000
 20
14.100000
  8
1
 62
7
  6
CONTINUOUS
  0
SEQEND
  0
POLYLINE
  8
1
 62
7
  6
CONTINUOUS
 70
0
 66
1
  0
VERTEX
 10
30.600000
 20
15.200000
  8
1
 62
7
  6
CONTINUOUS
  0
VERTEX
 10
30.600000
 20
14.100000
  8
1
 62
7
  6
CONTINUOUS
  0
SEQEND
  0
POLYLINE
  8
1
 62
7
  6
CONTINUOUS
 70
0
 66
1
  0
VERTEX
 10
32.400000
 20
15.200000
  8
1
 62
7
  6
CONTINUOUS
  0
VERTEX
 10
32.400000
 20
14.100000
  8
1
 62
7
  6
CONTINUOUS
  0
SEQEND
  0
POLYLINE
  8
1
 62
7
  6
CONTINUOUS
 70
0
 66
1
  0
VERTEX
 10
34.200000
 20
15.200000
  8
1
 62
7
  6
CONTINUOUS
  0
VERTEX
 10
34.200000
 20
14.100000
  8
1
 62
7
  6
CONTINUOUS
  0
SEQEND
  0
POLYLINE
  8
1
 62
7
  6
CONTINUOUS
 70
1
 66
1
  0
VERTEX
 10
37.800000
 20
14.100000
 30
0.000000
  8
1
 62
7
  6
CONTINUOUS
  0
VERTEX
 10
37.800000
 20
18.700000
 30
0.000000
  8
1
 62
7
  6
CONTINUOUS
  0
VERTEX
 10
5.400000
 20
18.700000
 30
0.000000
  8
1
 62
7
  6
CONTINUOUS
  0
VERTEX
 10
5.400000
 20
14.100000
 30
0.000000
  8
1
 62
7
  6
CONTINUOUS
  0
SEQEND
  0
SOLID
  8
1
 62
255
  6
L014100020032000000
 10
1.900000
 20
6.000000
 11
1.900000
 21
25.000000
 12
0.400000
 22
6.000000
 13
0.400000
 23
25.000000
  0
POLYLINE
  8
1
 62
7
  6
L014100020032000000
 70
1
 66
1
  0
VERTEX
 10
1.900000
 20
6.000000
 30
0.000000
  8
1
 62
7
  6
L014100020032000000
  0
VERTEX
 10
1.900000
 20
25.000000
 30
0.000000
  8
1
 62
7
  6
L014100020032000000
  0
VERTEX
 10
0.400000
 20
25.000000
 30
0.000000
  8
1
 62
7
  6
L014100020032000000
  0
VERTEX
 10
0.400000
 20
6.000000
 30
0.000000
  8
1
 62
7
  6
L014100020032000000
  0
SEQEND
  0
LINE
  8
1
 62
7
  6
CONTINUOUS
 10
1.000000
 20
27.900000
 11
1.000000
 21
27.400000
  0
LINE
  8
1
 62
7
  6
CONTINUOUS
 10
1.000000
 20
25.000000
 11
1.000000
 21
24.500000
  0
SOLID
  8
10
 62
255
  6
CONTINUOUS
 10
74.800000
 20
29.800000
 11
74.800000
 21
0.200000
 12
0.200000
 22
29.800000
 13
0.200000
 23
0.200000
  0
POLYLINE
  8
10
 62
7
  6
CONTINUOUS
 70
1
 66
1
  0
VERTEX
 10
74.800000
 20
29.800000
 30
0.000000
  8
10
 62
7
  6
CONTINUOUS
  0
VERTEX
 10
74.800000
 20
0.200000
 30
0.000000
  8
10
 62
7
  6
CONTINUOUS
  0
VERTEX
 10
0.200000
 20
0.200000
 30
0.000000
  8
10
 62
7
  6
CONTINUOUS
  0
VERTEX
 10
0.200000
 20
29.800000
 30
0.000000
  8
10
 62
7
  6
CONTINUOUS
  0
SEQEND
  0
POLYLINE
  8
10
 62
7
  6
CONTINUOUS
 70
1
 66
1
  0
VERTEX
 10
73.600000
 20
10.900000
 30
0.000000
  8
10
 62
7
  6
CONTINUOUS
  0
VERTEX
 10
73.600000
 20
12.100000
 30
0.000000
  8
10
 62
7
  6
CONTINUOUS
  0
VERTEX
 10
1.500000
 20
12.100000
 30
0.000000
  8
10
 62
7
  6
CONTINUOUS
  0
VERTEX
 10
1.500000
 20
10.900000
 30
0.000000
  8
10
 62
7
  6
CONTINUOUS
  0
SEQEND
  0
POLYLINE
  8
10
 62
7
  6
CONTINUOUS
 70
1
 66
1
  0
VERTEX
 10
73.700000
 20
14.900000
 30
0.000000
  8
10
 62
7
  6
CONTINUOUS
  0
VERTEX
 10
73.700000
 20
16.100000
 30
0.000000
  8
10
 62
7
  6
CONTINUOUS
  0
VERTEX
 10
1.500000
 20
16.100000
 30
0.000000
  8
10
 62
7
  6
CONTINUOUS
  0
VERTEX
 10
1.500000
 20
14.900000
 30
0.000000
  8
10
 62
7
  6
CONTINUOUS
  0
SEQEND
  0
POLYLINE
  8
10
 62
7
  6
CONTINUOUS
 70
1
 66
1
  0
VERTEX
 10
73.600000
 20
18.900000
 30
0.000000
  8
10
 62
7
  6
CONTINUOUS
  0
VERTEX
 10
73.600000
 20
20.100000
 30
0.000000
  8
10
 62
7
  6
CONTINUOUS
  0
VERTEX
 10
1.500000
 20
20.100000
 30
0.000000
  8
10
 62
7
  6
CONTINUOUS
  0
VERTEX
 10
1.500000
 20
18.900000
 30
0.000000
  8
10
 62
7
  6
CONTINUOUS
  0
SEQEND
  0
SOLID
  8
10
 62
255
  6
CONTINUOUS
 10
43.700000
 20
6.000000
 11
43.700000
 21
25.000000
 12
42.200000
 22
6.000000
 13
42.200000
 23
25.000000
  0
POLYLINE
  8
10
 62
7
  6
CONTINUOUS
 70
1
 66
1
  0
VERTEX
 10
43.700000
 20
6.000000
 30
0.000000
  8
10
 62
7
  6
CONTINUOUS
  0
VERTEX
 10
43.700000
 20
25.000000
 30
0.000000
  8
10
 62
7
  6
CONTINUOUS
  0
VERTEX
 10
42.200000
 20
25.000000
 30
0.000000
  8
10
 62
7
  6
CONTINUOUS
  0
VERTEX
 10
42.200000
 20
6.000000
 30
0.000000
  8
10
 62
7
  6
CONTINUOUS
  0
SEQEND
  0
LINE
  8
10
 62
7
  6
CONTINUOUS
 10
1.000000
 20
24.500000
 11
1.000000
 21
25.000000
  0
POLYLINE
  8
10
 62
7
  6
CONTINUOUS
 70
0
 66
1
  0
VERTEX
 10
14.400000
 20
14.100000
  8
10
 62
7
  6
CONTINUOUS
  0
VERTEX
 10
14.400000
 20
15.200000
  8
10
 62
7
  6
CONTINUOUS
  0
SEQEND
  0
POLYLINE
  8
10
 62
7
  6
CONTINUOUS
 70
0
 66
1
  0
VERTEX
 10
7.200000
 20
14.100000
  8
10
 62
7
  6
CONTINUOUS
  0
VERTEX
 10
7.200000
 20
15.200000
  8
10
 62
7
  6
CONTINUOUS
  0
SEQEND
  0
POLYLINE
  8
10
 62
7
  6
CONTINUOUS
 70
0
 66
1
  0
VERTEX
 10
9.000000
 20
14.100000
  8
10
 62
7
  6
CONTINUOUS
  0
VERTEX
 10
9.000000
 20
15.200000
  8
10
 62
7
  6
CONTINUOUS
  0
SEQEND
  0
POLYLINE
  8
10
 62
7
  6
CONTINUOUS
 70
0
 66
1
  0
VERTEX
 10
10.800000
 20
14.100000
  8
10
 62
7
  6
CONTINUOUS
  0
VERTEX
 10
10.800000
 20
15.200000
  8
10
 62
7
  6
CONTINUOUS
  0
SEQEND
  0
POLYLINE
  8
10
 62
7
  6
CONTINUOUS
 70
0
 66
1
  0
VERTEX
 10
12.600000
 20
14.100000
  8
10
 62
7
  6
CONTINUOUS
  0
VERTEX
 10
12.600000
 20
15.200000
  8
10
 62
7
  6
CONTINUOUS
  0
SEQEND
  0
SOLID
  8
10
 62
255
  6
CONTINUOUS
 10
74.600000
 20
6.000000
 11
74.600000
 21
25.000000
 12
73.100000
 22
6.000000
 13
73.100000
 23
25.000000
  0
POLYLINE
  8
10
 62
7
  6
CONTINUOUS
 70
1
 66
1
  0
VERTEX
 10
74.600000
 20
6.000000
 30
0.000000
  8
10
 62
7
  6
CONTINUOUS
  0
VERTEX
 10
74.600000
 20
25.000000
 30
0.000000
  8
10
 62
7
  6
CONTINUOUS
  0
VERTEX
 10
73.100000
 20
25.000000
 30
0.000000
  8
10
 62
7
  6
CONTINUOUS
  0
VERTEX
 10
73.100000
 20
6.000000
 30
0.000000
  8
10
 62
7
  6
CONTINUOUS
  0
SEQEND
  0
POLYLINE
  8
10
 62
7
  6
CONTINUOUS
 70
0
 66
1
  0
VERTEX
 10
25.200000
 20
15.200000
  8
10
 62
7
  6
CONTINUOUS
  0
VERTEX
 10
25.200000
 20
14.100000
  8
10
 62
7
  6
CONTINUOUS
  0
SEQEND
  0
POLYLINE
  8
10
 62
7
  6
CONTINUOUS
 70
0
 66
1
  0
VERTEX
 10
16.200000
 20
15.200000
  8
10
 62
7
  6
CONTINUOUS
  0
VERTEX
 10
16.200000
 20
14.100000
  8
10
 62
7
  6
CONTINUOUS
  0
SEQEND
  0
POLYLINE
  8
10
 62
7
  6
CONTINUOUS
 70
0
 66
1
  0
VERTEX
 10
18.000000
 20
15.200000
  8
10
 62
7
  6
CONTINUOUS
  0
VERTEX
 10
18.000000
 20
14.100000
  8
10
 62
7
  6
CONTINUOUS
  0
SEQEND
  0
POLYLINE
  8
10
 62
7
  6
CONTINUOUS
 70
0
 66
1
  0
VERTEX
 10
19.800000
 20
15.200000
  8
10
 62
7
  6
CONTINUOUS
  0
VERTEX
 10
19.800000
 20
14.100000
  8
10
 62
7
  6
CONTINUOUS
  0
SEQEND
  0
POLYLINE
  8
10
 62
7
  6
CONTINUOUS
 70
0
 66
1
  0
VERTEX
 10
21.600000
 20
15.200000
  8
10
 62
7
  6
CONTINUOUS
  0
VERTEX
 10
21.600000
 20
14.100000
  8
10
 62
7
  6
CONTINUOUS
  0
SEQEND
  0
POLYLINE
  8
10
 62
7
  6
CONTINUOUS
 70
0
 66
1
  0
VERTEX
 10
23.400000
 20
15.200000
  8
10
 62
7
  6
CONTINUOUS
  0
VERTEX
 10
23.400000
 20
14.100000
  8
10
 62
7
  6
CONTINUOUS
  0
SEQEND
  0
POLYLINE
  8
10
 62
7
  6
CONTINUOUS
 70
0
 66
1
  0
VERTEX
 10
67.800000
 20
15.200000
  8
10
 62
7
  6
CONTINUOUS
  0
VERTEX
 10
67.800000
 20
14.100000
  8
10
 62
7
  6
CONTINUOUS
  0
SEQEND
  0
POLYLINE
  8
10
 62
7
  6
CONTINUOUS
 70
0
 66
1
  0
VERTEX
 10
49.800000
 20
15.200000
  8
10
 62
7
  6
CONTINUOUS
  0
VERTEX
 10
49.800000
 20
14.100000
  8
10
 62
7
  6
CONTINUOUS
  0
SEQEND
  0
POLYLINE
  8
10
 62
7
  6
CONTINUOUS
 70
0
 66
1
  0
VERTEX
 10
51.600000
 20
15.200000
  8
10
 62
7
  6
CONTINUOUS
  0
VERTEX
 10
51.600000
 20
14.100000
  8
10
 62
7
  6
CONTINUOUS
  0
SEQEND
  0
POLYLINE
  8
10
 62
7
  6
CONTINUOUS
 70
0
 66
1
  0
VERTEX
 10
53.400000
 20
15.200000
  8
10
 62
7
  6
CONTINUOUS
  0
VERTEX
 10
53.400000
 20
14.100000
  8
10
 62
7
  6
CONTINUOUS
  0
SEQEND
  0
POLYLINE
  8
10
 62
7
  6
CONTINUOUS
 70
0
 66
1
  0
VERTEX
 10
55.200000
 20
15.200000
  8
10
 62
7
  6
CONTINUOUS
  0
VERTEX
 10
55.200000
 20
14.100000
  8
10
 62
7
  6
CONTINUOUS
  0
SEQEND
  0
POLYLINE
  8
10
 62
7
  6
CONTINUOUS
 70
0
 66
1
  0
VERTEX
 10
57.000000
 20
15.200000
  8
10
 62
7
  6
CONTINUOUS
  0
VERTEX
 10
57.000000
 20
14.100000
  8
10
 62
7
  6
CONTINUOUS
  0
SEQEND
  0
POLYLINE
  8
10
 62
7
  6
CONTINUOUS
 70
0
 66
1
  0
VERTEX
 10
58.800000
 20
15.200000
  8
10
 62
7
  6
CONTINUOUS
  0
VERTEX
 10
58.800000
 20
14.100000
  8
10
 62
7
  6
CONTINUOUS
  0
SEQEND
  0
POLYLINE
  8
10
 62
7
  6
CONTINUOUS
 70
0
 66
1
  0
VERTEX
 10
60.600000
 20
15.200000
  8
10
 62
7
  6
CONTINUOUS
  0
VERTEX
 10
60.600000
 20
14.100000
  8
10
 62
7
  6
CONTINUOUS
  0
SEQEND
  0
POLYLINE
  8
10
 62
7
  6
CONTINUOUS
 70
0
 66
1
  0
VERTEX
 10
62.400000
 20
15.200000
  8
10
 62
7
  6
CONTINUOUS
  0
VERTEX
 10
62.400000
 20
14.100000
  8
10
 62
7
  6
CONTINUOUS
  0
SEQEND
  0
POLYLINE
  8
10
 62
7
  6
CONTINUOUS
 70
0
 66
1
  0
VERTEX
 10
64.200000
 20
15.200000
  8
10
 62
7
  6
CONTINUOUS
  0
VERTEX
 10
64.200000
 20
14.100000
  8
10
 62
7
  6
CONTINUOUS
  0
SEQEND
  0
POLYLINE
  8
10
 62
7
  6
CONTINUOUS
 70
0
 66
1
  0
VERTEX
 10
66.000000
 20
15.200000
  8
10
 62
7
  6
CONTINUOUS
  0
VERTEX
 10
66.000000
 20
14.100000
  8
10
 62
7
  6
CONTINUOUS
  0
SEQEND
  0
POLYLINE
  8
10
 62
7
  6
CONTINUOUS
 70
0
 66
1
  0
VERTEX
 10
36.000000
 20
15.200000
  8
10
 62
7
  6
CONTINUOUS
  0
VERTEX
 10
36.000000
 20
14.100000
  8
10
 62
7
  6
CONTINUOUS
  0
SEQEND
  0
POLYLINE
  8
10
 62
7
  6
CONTINUOUS
 70
0
 66
1
  0
VERTEX
 10
27.000000
 20
15.200000
  8
10
 62
7
  6
CONTINUOUS
  0
VERTEX
 10
27.000000
 20
14.100000
  8
10
 62
7
  6
CONTINUOUS
  0
SEQEND
  0
POLYLINE
  8
10
 62
7
  6
CONTINUOUS
 70
0
 66
1
  0
VERTEX
 10
28.800000
 20
15.200000
  8
10
 62
7
  6
CONTINUOUS
  0
VERTEX
 10
28.800000
 20
14.100000
  8
10
 62
7
  6
CONTINUOUS
  0
SEQEND
  0
POLYLINE
  8
10
 62
7
  6
CONTINUOUS
 70
0
 66
1
  0
VERTEX
 10
30.600000
 20
15.200000
  8
10
 62
7
  6
CONTINUOUS
  0
VERTEX
 10
30.600000
 20
14.100000
  8
10
 62
7
  6
CONTINUOUS
  0
SEQEND
  0
POLYLINE
  8
10
 62
7
  6
CONTINUOUS
 70
0
 66
1
  0
VERTEX
 10
32.400000
 20
15.200000
  8
10
 62
7
  6
CONTINUOUS
  0
VERTEX
 10
32.400000
 20
14.100000
  8
10
 62
7
  6
CONTINUOUS
  0
SEQEND
  0
POLYLINE
  8
10
 62
7
  6
CONTINUOUS
 70
0
 66
1
  0
VERTEX
 10
34.200000
 20
15.200000
  8
10
 62
7
  6
CONTINUOUS
  0
VERTEX
 10
34.200000
 20
14.100000
  8
10
 62
7
  6
CONTINUOUS
  0
SEQEND
  0
POLYLINE
  8
10
 62
7
  6
CONTINUOUS
 70
1
 66
1
  0
VERTEX
 10
37.800000
 20
14.100000
 30
0.000000
  8
10
 62
7
  6
CONTINUOUS
  0
VERTEX
 10
37.800000
 20
18.700000
 30
0.000000
  8
10
 62
7
  6
CONTINUOUS
  0
VERTEX
 10
5.400000
 20
18.700000
 30
0.000000
  8
10
 62
7
  6
CONTINUOUS
  0
VERTEX
 10
5.400000
 20
14.100000
 30
0.000000
  8
10
 62
7
  6
CONTINUOUS
  0
SEQEND
  0
SOLID
  8
10
 62
255
  6
CONTINUOUS
 10
1.900000
 20
6.000000
 11
1.900000
 21
25.000000
 12
0.400000
 22
6.000000
 13
0.400000
 23
25.000000
  0
POLYLINE
  8
10
 62
7
  6
CONTINUOUS
 70
1
 66
1
  0
VERTEX
 10
1.900000
 20
6.000000
 30
0.000000
  8
10
 62
7
  6
CONTINUOUS
  0
VERTEX
 10
1.900000
 20
25.000000
 30
0.000000
  8
10
 62
7
  6
CONTINUOUS
  0
VERTEX
 10
0.400000
 20
25.000000
 30
0.000000
  8
10
 62
7
  6
CONTINUOUS
  0
VERTEX
 10
0.400000
 20
6.000000
 30
0.000000
  8
10
 62
7
  6
CONTINUOUS
  0
SEQEND
  0
POLYLINE
  8
10
 62
7
  6
CONTINUOUS
 70
1
 66
1
  0
VERTEX
 10
69.600000
 20
14.100000
 30
0.000000
  8
10
 62
7
  6
CONTINUOUS
  0
VERTEX
 10
69.600000
 20
18.700000
 30
0.000000
  8
10
 62
7
  6
CONTINUOUS
  0
VERTEX
 10
48.000000
 20
18.700000
 30
0.000000
  8
10
 62
7
  6
CONTINUOUS
  0
VERTEX
 10
48.000000
 20
14.100000
 30
0.000000
  8
10
 62
7
  6
CONTINUOUS
  0
SEQEND
  0
ENDBLK
  0
ENDSEC
  0
SECTION
  2
ENTITIES
  0
INSERT
  8
0
 2
mbh350
 10
0.000000
 20
0.000000
 30
0.0
 50
0.0
  0
ENDSEC
  0
EOF
