  0
SECTION
  2
HEADER
  9
$ACADVER
  1
AC1009
  9
$INSBASE
 10
0.0
 20
0.0
 30
0.0
  9
$EXTMIN
 10
0.0
 20
0.0
 30
0.0
  9
$EXTMAX
 10
0.000000
 20
0.000000
 30
0.0
  9
$LIMMIN
 10
0.0
 20
0.0
  9
$LIMMAX
 10
0.000000
 20
0.000000
  0
ENDSEC
  0
SECTION
  2
TABLES
  0
TABLE
  2
LTYPE
 70
2
  0
LTYPE
  2
L0000000200000000FF
 70
64
  3
Solid line
 72
65
 73
0
 40
0.000000
  0
LTYPE
  2
CONTINUOUS
 70
64
  3
Solid line
 72
65
 73
0
 40
0.000000
  0
ENDTAB
  0
TABLE
  2
LAYER
 70
8
  0
LAYER
  2
0
 70
64
 62
7
  6
CONTINUOUS
  0
LAYER
  2
1
 70
64
 62
7
  6
CONTINUOUS
  0
LAYER
  2
2
 70
64
 62
7
  6
CONTINUOUS
  0
LAYER
  2
3
 70
64
 62
-7
  6
CONTINUOUS
  0
LAYER
  2
4
 70
64
 62
7
  6
CONTINUOUS
  0
LAYER
  2
5
 70
64
 62
7
  6
CONTINUOUS
  0
LAYER
  2
6
 70
64
 62
7
  6
CONTINUOUS
  0
LAYER
  2
7
 70
64
 62
-7
  6
CONTINUOUS
  0
LAYER
  2
8
 70
64
 62
7
  6
CONTINUOUS
  0
LAYER
  2
9
 70
64
 62
7
  6
CONTINUOUS
  0
LAYER
  2
10
 70
64
 62
-7
  6
CONTINUOUS
  0
LAYER
  2
11
 70
64
 62
-7
  6
CONTINUOUS
  0
LAYER
  2
12
 70
64
 62
7
  6
CONTINUOUS
  0
LAYER
  2
13
 70
64
 62
7
  6
CONTINUOUS
  0
LAYER
  2
14
 70
64
 62
7
  6
CONTINUOUS
  0
LAYER
  2
15
 70
64
 62
7
  6
CONTINUOUS
  0
LAYER
  2
16
 70
64
 62
7
  6
CONTINUOUS
  0
LAYER
  2
17
 70
64
 62
7
  6
CONTINUOUS
  0
LAYER
  2
18
 70
64
 62
7
  6
CONTINUOUS
  0
LAYER
  2
19
 70
64
 62
7
  6
CONTINUOUS
  0
ENDTAB
  0
ENDSEC
  0
SECTION
  2
BLOCKS
  0
BLOCK
  8
0
  2
wrm48
 70
 0
 10
0.0
 20
0.0
 30
0.0
  0
SOLID
  8
20
 62
1
  6
L0000000200000000FF
 10
95.700000
 20
9.500000
 11
95.700000
 21
11.300000
 12
98.000000
 22
9.500000
 13
98.000000
 23
11.300000
  0
POLYLINE
  8
20
 62
1
  6
L0000000200000000FF
 70
1
 66
1
  0
VERTEX
 10
95.700000
 20
9.500000
 30
0.000000
  8
20
 62
1
  6
L0000000200000000FF
  0
VERTEX
 10
95.700000
 20
11.300000
 30
0.000000
  8
20
 62
1
  6
L0000000200000000FF
  0
VERTEX
 10
98.000000
 20
11.300000
 30
0.000000
  8
20
 62
1
  6
L0000000200000000FF
  0
VERTEX
 10
98.000000
 20
9.500000
 30
0.000000
  8
20
 62
1
  6
L0000000200000000FF
  0
SEQEND
  0
SOLID
  8
20
 62
1
  6
L0000000200000000FF
 10
99.500000
 20
13.300000
 11
99.500000
 21
11.000000
 12
97.700000
 22
13.300000
 13
97.700000
 23
11.000000
  0
POLYLINE
  8
20
 62
1
  6
L0000000200000000FF
 70
1
 66
1
  0
VERTEX
 10
99.500000
 20
13.300000
 30
0.000000
  8
20
 62
1
  6
L0000000200000000FF
  0
VERTEX
 10
99.500000
 20
11.000000
 30
0.000000
  8
20
 62
1
  6
L0000000200000000FF
  0
VERTEX
 10
97.700000
 20
11.000000
 30
0.000000
  8
20
 62
1
  6
L0000000200000000FF
  0
VERTEX
 10
97.700000
 20
13.300000
 30
0.000000
  8
20
 62
1
  6
L0000000200000000FF
  0
SEQEND
  0
SOLID
  8
20
 62
1
  6
L0000000200000000FF
 10
99.500000
 20
166.700000
 11
99.500000
 21
169.000000
 12
97.700000
 22
166.700000
 13
97.700000
 23
169.000000
  0
POLYLINE
  8
20
 62
1
  6
L0000000200000000FF
 70
1
 66
1
  0
VERTEX
 10
99.500000
 20
166.700000
 30
0.000000
  8
20
 62
1
  6
L0000000200000000FF
  0
VERTEX
 10
99.500000
 20
169.000000
 30
0.000000
  8
20
 62
1
  6
L0000000200000000FF
  0
VERTEX
 10
97.700000
 20
169.000000
 30
0.000000
  8
20
 62
1
  6
L0000000200000000FF
  0
VERTEX
 10
97.700000
 20
166.700000
 30
0.000000
  8
20
 62
1
  6
L0000000200000000FF
  0
SEQEND
  0
SOLID
  8
20
 62
1
  6
L0000000200000000FF
 10
95.700000
 20
170.500000
 11
95.700000
 21
168.700000
 12
98.000000
 22
170.500000
 13
98.000000
 23
168.700000
  0
POLYLINE
  8
20
 62
1
  6
L0000000200000000FF
 70
1
 66
1
  0
VERTEX
 10
95.700000
 20
170.500000
 30
0.000000
  8
20
 62
1
  6
L0000000200000000FF
  0
VERTEX
 10
95.700000
 20
168.700000
 30
0.000000
  8
20
 62
1
  6
L0000000200000000FF
  0
VERTEX
 10
98.000000
 20
168.700000
 30
0.000000
  8
20
 62
1
  6
L0000000200000000FF
  0
VERTEX
 10
98.000000
 20
170.500000
 30
0.000000
  8
20
 62
1
  6
L0000000200000000FF
  0
SEQEND
  0
SOLID
  8
20
 62
1
  6
L0000000200000000FF
 10
4.300000
 20
9.500000
 11
4.300000
 21
11.300000
 12
2.000000
 22
9.500000
 13
2.000000
 23
11.300000
  0
POLYLINE
  8
20
 62
1
  6
L0000000200000000FF
 70
1
 66
1
  0
VERTEX
 10
4.300000
 20
9.500000
 30
0.000000
  8
20
 62
1
  6
L0000000200000000FF
  0
VERTEX
 10
4.300000
 20
11.300000
 30
0.000000
  8
20
 62
1
  6
L0000000200000000FF
  0
VERTEX
 10
2.000000
 20
11.300000
 30
0.000000
  8
20
 62
1
  6
L0000000200000000FF
  0
VERTEX
 10
2.000000
 20
9.500000
 30
0.000000
  8
20
 62
1
  6
L0000000200000000FF
  0
SEQEND
  0
SOLID
  8
20
 62
1
  6
L0000000200000000FF
 10
0.500000
 20
13.300000
 11
0.500000
 21
11.000000
 12
2.300000
 22
13.300000
 13
2.300000
 23
11.000000
  0
POLYLINE
  8
20
 62
1
  6
L0000000200000000FF
 70
1
 66
1
  0
VERTEX
 10
0.500000
 20
13.300000
 30
0.000000
  8
20
 62
1
  6
L0000000200000000FF
  0
VERTEX
 10
0.500000
 20
11.000000
 30
0.000000
  8
20
 62
1
  6
L0000000200000000FF
  0
VERTEX
 10
2.300000
 20
11.000000
 30
0.000000
  8
20
 62
1
  6
L0000000200000000FF
  0
VERTEX
 10
2.300000
 20
13.300000
 30
0.000000
  8
20
 62
1
  6
L0000000200000000FF
  0
SEQEND
  0
SOLID
  8
20
 62
1
  6
L0000000200000000FF
 10
0.500000
 20
166.700000
 11
0.500000
 21
169.000000
 12
2.300000
 22
166.700000
 13
2.300000
 23
169.000000
  0
POLYLINE
  8
20
 62
1
  6
L0000000200000000FF
 70
1
 66
1
  0
VERTEX
 10
0.500000
 20
166.700000
 30
0.000000
  8
20
 62
1
  6
L0000000200000000FF
  0
VERTEX
 10
0.500000
 20
169.000000
 30
0.000000
  8
20
 62
1
  6
L0000000200000000FF
  0
VERTEX
 10
2.300000
 20
169.000000
 30
0.000000
  8
20
 62
1
  6
L0000000200000000FF
  0
VERTEX
 10
2.300000
 20
166.700000
 30
0.000000
  8
20
 62
1
  6
L0000000200000000FF
  0
SEQEND
  0
SOLID
  8
20
 62
1
  6
L0000000200000000FF
 10
4.300000
 20
170.500000
 11
4.300000
 21
168.600000
 12
2.000000
 22
170.500000
 13
2.000000
 23
168.600000
  0
POLYLINE
  8
20
 62
1
  6
L0000000200000000FF
 70
1
 66
1
  0
VERTEX
 10
4.300000
 20
170.500000
 30
0.000000
  8
20
 62
1
  6
L0000000200000000FF
  0
VERTEX
 10
4.300000
 20
168.600000
 30
0.000000
  8
20
 62
1
  6
L0000000200000000FF
  0
VERTEX
 10
2.000000
 20
168.600000
 30
0.000000
  8
20
 62
1
  6
L0000000200000000FF
  0
VERTEX
 10
2.000000
 20
170.500000
 30
0.000000
  8
20
 62
1
  6
L0000000200000000FF
  0
SEQEND
  0
SOLID
  8
20
 62
91
  6
CONTINUOUS
 10
2.000000
 20
0.000000
 11
2.000000
 21
180.000000
 12
0.000000
 22
0.000000
 13
0.000000
 23
180.000000
  0
POLYLINE
  8
20
 62
7
  6
CONTINUOUS
 70
1
 66
1
  0
VERTEX
 10
2.000000
 20
0.000000
 30
0.000000
  8
20
 62
7
  6
CONTINUOUS
  0
VERTEX
 10
2.000000
 20
180.000000
 30
0.000000
  8
20
 62
7
  6
CONTINUOUS
  0
VERTEX
 10
0.000000
 20
180.000000
 30
0.000000
  8
20
 62
7
  6
CONTINUOUS
  0
VERTEX
 10
0.000000
 20
0.000000
 30
0.000000
  8
20
 62
7
  6
CONTINUOUS
  0
SEQEND
  0
SOLID
  8
20
 62
255
  6
CONTINUOUS
 10
2.000000
 20
160.000000
 11
2.000000
 21
169.000000
 12
0.000000
 22
160.000000
 13
0.000000
 23
169.000000
  0
POLYLINE
  8
20
 62
7
  6
CONTINUOUS
 70
1
 66
1
  0
VERTEX
 10
2.000000
 20
160.000000
 30
0.000000
  8
20
 62
7
  6
CONTINUOUS
  0
VERTEX
 10
2.000000
 20
169.000000
 30
0.000000
  8
20
 62
7
  6
CONTINUOUS
  0
VERTEX
 10
0.000000
 20
169.000000
 30
0.000000
  8
20
 62
7
  6
CONTINUOUS
  0
VERTEX
 10
0.000000
 20
160.000000
 30
0.000000
  8
20
 62
7
  6
CONTINUOUS
  0
SEQEND
  0
TEXT
  8
20
 62
7
  6
CONTINUOUS
 10
0.533333
 20
168.000000
 40
1.400000
  1
WR48
 50
-90.000000
 51
0.000000
 72
0
 73
0
  0
SOLID
  8
20
 62
9
  6
CONTINUOUS
 10
97.600000
 20
169.000000
 11
97.600000
 21
171.000000
 12
2.400000
 22
169.000000
 13
2.400000
 23
171.000000
  0
POLYLINE
  8
20
 62
7
  6
CONTINUOUS
 70
1
 66
1
  0
VERTEX
 10
97.600000
 20
169.000000
 30
0.000000
  8
20
 62
7
  6
CONTINUOUS
  0
VERTEX
 10
97.600000
 20
171.000000
 30
0.000000
  8
20
 62
7
  6
CONTINUOUS
  0
VERTEX
 10
2.400000
 20
171.000000
 30
0.000000
  8
20
 62
7
  6
CONTINUOUS
  0
VERTEX
 10
2.400000
 20
169.000000
 30
0.000000
  8
20
 62
7
  6
CONTINUOUS
  0
SEQEND
  0
SOLID
  8
20
 62
9
  6
CONTINUOUS
 10
97.600000
 20
9.000000
 11
97.600000
 21
11.000000
 12
2.400000
 22
9.000000
 13
2.400000
 23
11.000000
  0
POLYLINE
  8
20
 62
7
  6
CONTINUOUS
 70
1
 66
1
  0
VERTEX
 10
97.600000
 20
9.000000
 30
0.000000
  8
20
 62
7
  6
CONTINUOUS
  0
VERTEX
 10
97.600000
 20
11.000000
 30
0.000000
  8
20
 62
7
  6
CONTINUOUS
  0
VERTEX
 10
2.400000
 20
11.000000
 30
0.000000
  8
20
 62
7
  6
CONTINUOUS
  0
VERTEX
 10
2.400000
 20
9.000000
 30
0.000000
  8
20
 62
7
  6
CONTINUOUS
  0
SEQEND
  0
SOLID
  8
20
 62
91
  6
CONTINUOUS
 10
100.000000
 20
0.000000
 11
100.000000
 21
180.000000
 12
98.000000
 22
0.000000
 13
98.000000
 23
180.000000
  0
POLYLINE
  8
20
 62
7
  6
CONTINUOUS
 70
1
 66
1
  0
VERTEX
 10
100.000000
 20
0.000000
 30
0.000000
  8
20
 62
7
  6
CONTINUOUS
  0
VERTEX
 10
100.000000
 20
180.000000
 30
0.000000
  8
20
 62
7
  6
CONTINUOUS
  0
VERTEX
 10
98.000000
 20
180.000000
 30
0.000000
  8
20
 62
7
  6
CONTINUOUS
  0
VERTEX
 10
98.000000
 20
0.000000
 30
0.000000
  8
20
 62
7
  6
CONTINUOUS
  0
SEQEND
  0
ENDBLK
  0
ENDSEC
  0
SECTION
  2
ENTITIES
  0
INSERT
  8
0
 2
wrm48
 10
0.000000
 20
0.000000
 30
0.0
 50
0.0
  0
ENDSEC
  0
EOF
