  0
SECTION
  2
HEADER
  9
$ACADVER
  1
AC1009
  9
$INSBASE
 10
0.0
 20
0.0
 30
0.0
  9
$EXTMIN
 10
0.0
 20
0.0
 30
0.0
  9
$EXTMAX
 10
0.000000
 20
0.000000
 30
0.0
  9
$LIMMIN
 10
0.0
 20
0.0
  9
$LIMMAX
 10
0.000000
 20
0.000000
  0
ENDSEC
  0
SECTION
  2
TABLES
  0
TABLE
  2
LTYPE
 70
3
  0
LTYPE
  2
L000000020000008000
 70
64
  3
Solid line
 72
65
 73
0
 40
0.000000
  0
LTYPE
  2
L000000020000FFFFFF
 70
64
  3
Solid line
 72
65
 73
0
 40
0.000000
  0
LTYPE
  2
CONTINUOUS
 70
64
  3
Solid line
 72
65
 73
0
 40
0.000000
  0
ENDTAB
  0
TABLE
  2
LAYER
 70
8
  0
LAYER
  2
0
 70
64
 62
7
  6
CONTINUOUS
  0
LAYER
  2
1
 70
64
 62
7
  6
CONTINUOUS
  0
LAYER
  2
2
 70
64
 62
7
  6
CONTINUOUS
  0
LAYER
  2
3
 70
64
 62
-7
  6
CONTINUOUS
  0
LAYER
  2
4
 70
64
 62
7
  6
CONTINUOUS
  0
LAYER
  2
5
 70
64
 62
7
  6
CONTINUOUS
  0
LAYER
  2
6
 70
64
 62
7
  6
CONTINUOUS
  0
LAYER
  2
7
 70
64
 62
-7
  6
CONTINUOUS
  0
LAYER
  2
8
 70
64
 62
7
  6
CONTINUOUS
  0
LAYER
  2
9
 70
64
 62
7
  6
CONTINUOUS
  0
LAYER
  2
10
 70
64
 62
-7
  6
CONTINUOUS
  0
LAYER
  2
11
 70
64
 62
-7
  6
CONTINUOUS
  0
LAYER
  2
12
 70
64
 62
7
  6
CONTINUOUS
  0
LAYER
  2
13
 70
64
 62
7
  6
CONTINUOUS
  0
LAYER
  2
14
 70
64
 62
7
  6
CONTINUOUS
  0
LAYER
  2
15
 70
64
 62
7
  6
CONTINUOUS
  0
LAYER
  2
16
 70
64
 62
7
  6
CONTINUOUS
  0
LAYER
  2
17
 70
64
 62
7
  6
CONTINUOUS
  0
LAYER
  2
18
 70
64
 62
7
  6
CONTINUOUS
  0
LAYER
  2
19
 70
64
 62
7
  6
CONTINUOUS
  0
ENDTAB
  0
ENDSEC
  0
SECTION
  2
BLOCKS
  0
BLOCK
  8
0
  2
ma400alab
 70
 0
 10
0.0
 20
0.0
 30
0.0
  0
SOLID
  8
1
 62
255
  6
CONTINUOUS
 10
49.800000
 20
44.800000
 11
49.800000
 21
0.200000
 12
0.200000
 22
44.800000
 13
0.200000
 23
0.200000
  0
POLYLINE
  8
1
 62
7
  6
CONTINUOUS
 70
1
 66
1
  0
VERTEX
 10
49.800000
 20
44.800000
 30
0.000000
  8
1
 62
7
  6
CONTINUOUS
  0
VERTEX
 10
49.800000
 20
0.200000
 30
0.000000
  8
1
 62
7
  6
CONTINUOUS
  0
VERTEX
 10
0.200000
 20
0.200000
 30
0.000000
  8
1
 62
7
  6
CONTINUOUS
  0
VERTEX
 10
0.200000
 20
44.800000
 30
0.000000
  8
1
 62
7
  6
CONTINUOUS
  0
SEQEND
  0
LINE
  8
1
 62
7
  6
CONTINUOUS
 10
1.000000
 20
42.900000
 11
1.000000
 21
42.400000
  0
LINE
  8
1
 62
7
  6
CONTINUOUS
 10
1.000000
 20
39.500000
 11
1.000000
 21
40.000000
  0
LINE
  8
1
 62
7
  6
CONTINUOUS
 10
1.400000
 20
41.200000
 11
0.500000
 21
41.200000
  0
CIRCLE
  8
1
 62
7
  6
CONTINUOUS
 10
1.000000
 20
41.200000
 30
0.0
 40
0.700000
  0
LINE
  8
1
 62
7
  6
CONTINUOUS
 10
49.000000
 20
42.900000
 11
49.000000
 21
42.400000
  0
LINE
  8
1
 62
7
  6
CONTINUOUS
 10
49.000000
 20
39.500000
 11
49.000000
 21
40.000000
  0
LINE
  8
1
 62
7
  6
CONTINUOUS
 10
48.600000
 20
41.200000
 11
49.500000
 21
41.200000
  0
CIRCLE
  8
1
 62
7
  6
CONTINUOUS
 10
49.000000
 20
41.200000
 30
0.0
 40
0.700000
  0
LINE
  8
1
 62
7
  6
CONTINUOUS
 10
49.000000
 20
2.100000
 11
49.000000
 21
2.600000
  0
LINE
  8
1
 62
7
  6
CONTINUOUS
 10
49.000000
 20
5.500000
 11
49.000000
 21
5.000000
  0
LINE
  8
1
 62
7
  6
CONTINUOUS
 10
48.600000
 20
3.800000
 11
49.500000
 21
3.800000
  0
CIRCLE
  8
1
 62
7
  6
CONTINUOUS
 10
49.000000
 20
3.800000
 30
0.0
 40
0.700000
  0
LINE
  8
1
 62
7
  6
CONTINUOUS
 10
1.000000
 20
2.100000
 11
1.000000
 21
2.600000
  0
LINE
  8
1
 62
7
  6
CONTINUOUS
 10
1.000000
 20
5.500000
 11
1.000000
 21
5.000000
  0
LINE
  8
1
 62
7
  6
CONTINUOUS
 10
1.400000
 20
3.800000
 11
0.500000
 21
3.800000
  0
CIRCLE
  8
1
 62
7
  6
CONTINUOUS
 10
1.000000
 20
3.800000
 30
0.0
 40
0.700000
  0
CIRCLE
  8
1
 62
7
  6
CONTINUOUS
 10
18.200000
 20
22.500000
 30
0.0
 40
0.400000
  0
CIRCLE
  8
2
 62
7
  6
CONTINUOUS
 10
18.200000
 20
22.500000
 30
0.0
 40
3.500000
  0
CIRCLE
  8
2
 62
7
  6
CONTINUOUS
 10
25.700000
 20
22.500000
 30
0.0
 40
2.000000
  0
SOLID
  8
2
 62
255
  6
L000000020000FFFFFF
 10
24.700000
 20
24.500000
 11
24.700000
 21
20.500000
 12
18.000000
 22
24.500000
 13
18.000000
 23
20.500000
  0
POLYLINE
  8
2
 62
255
  6
L000000020000FFFFFF
 70
1
 66
1
  0
VERTEX
 10
24.700000
 20
24.500000
 30
0.000000
  8
2
 62
255
  6
L000000020000FFFFFF
  0
VERTEX
 10
24.700000
 20
20.500000
 30
0.000000
  8
2
 62
255
  6
L000000020000FFFFFF
  0
VERTEX
 10
18.000000
 20
20.500000
 30
0.000000
  8
2
 62
255
  6
L000000020000FFFFFF
  0
VERTEX
 10
18.000000
 20
24.500000
 30
0.000000
  8
2
 62
255
  6
L000000020000FFFFFF
  0
SEQEND
  0
SOLID
  8
2
 62
255
  6
L000000020000FFFFFF
 10
25.700000
 20
24.500000
 11
25.700000
 21
20.500000
 12
18.000000
 22
24.500000
 13
18.000000
 23
20.500000
  0
POLYLINE
  8
2
 62
255
  6
L000000020000FFFFFF
 70
1
 66
1
  0
VERTEX
 10
25.700000
 20
24.500000
 30
0.000000
  8
2
 62
255
  6
L000000020000FFFFFF
  0
VERTEX
 10
25.700000
 20
20.500000
 30
0.000000
  8
2
 62
255
  6
L000000020000FFFFFF
  0
VERTEX
 10
18.000000
 20
20.500000
 30
0.000000
  8
2
 62
255
  6
L000000020000FFFFFF
  0
VERTEX
 10
18.000000
 20
24.500000
 30
0.000000
  8
2
 62
255
  6
L000000020000FFFFFF
  0
SEQEND
  0
CIRCLE
  8
2
 62
7
  6
CONTINUOUS
 10
18.200000
 20
22.500000
 30
0.0
 40
2.000000
  0
SOLID
  8
2
 62
1
  6
CONTINUOUS
 10
21.300000
 20
22.200000
 11
21.300000
 21
22.800000
 12
16.200000
 22
22.200000
 13
16.200000
 23
22.800000
  0
POLYLINE
  8
2
 62
7
  6
CONTINUOUS
 70
1
 66
1
  0
VERTEX
 10
21.300000
 20
22.200000
 30
0.000000
  8
2
 62
7
  6
CONTINUOUS
  0
VERTEX
 10
21.300000
 20
22.800000
 30
0.000000
  8
2
 62
7
  6
CONTINUOUS
  0
VERTEX
 10
16.200000
 20
22.800000
 30
0.000000
  8
2
 62
7
  6
CONTINUOUS
  0
VERTEX
 10
16.200000
 20
22.200000
 30
0.000000
  8
2
 62
7
  6
CONTINUOUS
  0
SEQEND
  0
POLYLINE
  8
2
 62
7
  6
CONTINUOUS
 70
0
 66
1
  0
VERTEX
 10
18.200000
 20
24.500000
  8
2
 62
7
  6
CONTINUOUS
  0
VERTEX
 10
25.700000
 20
24.500000
  8
2
 62
7
  6
CONTINUOUS
  0
SEQEND
  0
POLYLINE
  8
2
 62
7
  6
CONTINUOUS
 70
0
 66
1
  0
VERTEX
 10
18.200000
 20
20.500000
  8
2
 62
7
  6
CONTINUOUS
  0
VERTEX
 10
25.800000
 20
20.500000
  8
2
 62
7
  6
CONTINUOUS
  0
SEQEND
  0
TEXT
  8
2
 62
7
  6
CONTINUOUS
 10
16.733333
 20
23.000000
 40
1.100000
  1
O
 50
-90.000000
 51
0.000000
 72
0
 73
0
  0
TEXT
  8
2
 62
7
  6
CONTINUOUS
 10
19.900000
 20
24.933333
 40
1.100000
  1
I
 50
0.000000
 51
0.000000
 72
1
 73
0
 11
19.900000
 21
24.933333
  0
SOLID
  8
10
 62
255
  6
CONTINUOUS
 10
49.800000
 20
44.800000
 11
49.800000
 21
0.200000
 12
0.200000
 22
44.800000
 13
0.200000
 23
0.200000
  0
POLYLINE
  8
10
 62
7
  6
CONTINUOUS
 70
1
 66
1
  0
VERTEX
 10
49.800000
 20
44.800000
 30
0.000000
  8
10
 62
7
  6
CONTINUOUS
  0
VERTEX
 10
49.800000
 20
0.200000
 30
0.000000
  8
10
 62
7
  6
CONTINUOUS
  0
VERTEX
 10
0.200000
 20
0.200000
 30
0.000000
  8
10
 62
7
  6
CONTINUOUS
  0
VERTEX
 10
0.200000
 20
44.800000
 30
0.000000
  8
10
 62
7
  6
CONTINUOUS
  0
SEQEND
  0
SOLID
  8
10
 62
255
  6
CONTINUOUS
 10
49.800000
 20
24.500000
 11
49.800000
 21
20.500000
 12
0.200000
 22
24.500000
 13
0.200000
 23
20.500000
  0
POLYLINE
  8
10
 62
7
  6
CONTINUOUS
 70
1
 66
1
  0
VERTEX
 10
49.800000
 20
24.500000
 30
0.000000
  8
10
 62
7
  6
CONTINUOUS
  0
VERTEX
 10
49.800000
 20
20.500000
 30
0.000000
  8
10
 62
7
  6
CONTINUOUS
  0
VERTEX
 10
0.200000
 20
20.500000
 30
0.000000
  8
10
 62
7
  6
CONTINUOUS
  0
VERTEX
 10
0.200000
 20
24.500000
 30
0.000000
  8
10
 62
7
  6
CONTINUOUS
  0
SEQEND
  0
SOLID
  8
10
 62
255
  6
CONTINUOUS
 10
33.400000
 20
31.800000
 11
33.400000
 21
28.500000
 12
30.900000
 22
31.800000
 13
30.900000
 23
28.500000
  0
POLYLINE
  8
10
 62
7
  6
CONTINUOUS
 70
1
 66
1
  0
VERTEX
 10
33.400000
 20
31.800000
 30
0.000000
  8
10
 62
7
  6
CONTINUOUS
  0
VERTEX
 10
33.400000
 20
28.500000
 30
0.000000
  8
10
 62
7
  6
CONTINUOUS
  0
VERTEX
 10
30.900000
 20
28.500000
 30
0.000000
  8
10
 62
7
  6
CONTINUOUS
  0
VERTEX
 10
30.900000
 20
31.800000
 30
0.000000
  8
10
 62
7
  6
CONTINUOUS
  0
SEQEND
  0
SOLID
  8
10
 62
255
  6
CONTINUOUS
 10
34.300000
 20
16.500000
 11
34.300000
 21
28.500000
 12
15.600000
 22
16.500000
 13
15.600000
 23
28.500000
  0
POLYLINE
  8
10
 62
7
  6
CONTINUOUS
 70
1
 66
1
  0
VERTEX
 10
34.300000
 20
16.500000
 30
0.000000
  8
10
 62
7
  6
CONTINUOUS
  0
VERTEX
 10
34.300000
 20
28.500000
 30
0.000000
  8
10
 62
7
  6
CONTINUOUS
  0
VERTEX
 10
15.600000
 20
28.500000
 30
0.000000
  8
10
 62
7
  6
CONTINUOUS
  0
VERTEX
 10
15.600000
 20
16.500000
 30
0.000000
  8
10
 62
7
  6
CONTINUOUS
  0
SEQEND
  0
SOLID
  8
10
 62
255
  6
CONTINUOUS
 10
15.600000
 20
16.500000
 11
15.600000
 21
28.500000
 12
20.800000
 22
16.500000
 13
20.800000
 23
28.500000
  0
POLYLINE
  8
10
 62
7
  6
CONTINUOUS
 70
1
 66
1
  0
VERTEX
 10
15.600000
 20
16.500000
 30
0.000000
  8
10
 62
7
  6
CONTINUOUS
  0
VERTEX
 10
15.600000
 20
28.500000
 30
0.000000
  8
10
 62
7
  6
CONTINUOUS
  0
VERTEX
 10
20.800000
 20
28.500000
 30
0.000000
  8
10
 62
7
  6
CONTINUOUS
  0
VERTEX
 10
20.800000
 20
16.500000
 30
0.000000
  8
10
 62
7
  6
CONTINUOUS
  0
SEQEND
  0
SOLID
  8
10
 62
8
  6
CONTINUOUS
 10
18.900000
 20
21.600000
 11
18.900000
 21
23.400000
 12
17.500000
 22
21.600000
 13
17.500000
 23
23.400000
  0
POLYLINE
  8
10
 62
7
  6
CONTINUOUS
 70
1
 66
1
  0
VERTEX
 10
18.900000
 20
21.600000
 30
0.000000
  8
10
 62
7
  6
CONTINUOUS
  0
VERTEX
 10
18.900000
 20
23.400000
 30
0.000000
  8
10
 62
7
  6
CONTINUOUS
  0
VERTEX
 10
17.500000
 20
23.400000
 30
0.000000
  8
10
 62
7
  6
CONTINUOUS
  0
VERTEX
 10
17.500000
 20
21.600000
 30
0.000000
  8
10
 62
7
  6
CONTINUOUS
  0
SEQEND
  0
CIRCLE
  8
10
 62
7
  6
CONTINUOUS
 10
18.200000
 20
22.500000
 30
0.0
 40
0.400000
  0
TEXT
  8
10
 62
7
  6
CONTINUOUS
 10
19.600000
 20
21.766667
 40
0.400000
  1
O
 50
0.000000
 51
0.000000
 72
1
 73
0
 11
19.600000
 21
21.766667
  0
TEXT
  8
10
 62
7
  6
CONTINUOUS
 10
19.600000
 20
22.966667
 40
0.400000
  1
I
 50
0.000000
 51
0.000000
 72
1
 73
0
 11
19.600000
 21
22.966667
  0
POLYLINE
  8
10
 62
7
  6
CONTINUOUS
 70
1
 66
1
  0
VERTEX
 10
23.600000
 20
20.800000
 30
0.000000
  8
10
 62
7
  6
CONTINUOUS
  0
VERTEX
 10
23.600000
 20
24.200000
 30
0.000000
  8
10
 62
7
  6
CONTINUOUS
  0
VERTEX
 10
21.600000
 20
24.200000
 30
0.000000
  8
10
 62
7
  6
CONTINUOUS
  0
VERTEX
 10
21.600000
 20
20.800000
 30
0.000000
  8
10
 62
7
  6
CONTINUOUS
  0
SEQEND
  0
SOLID
  8
10
 62
255
  6
CONTINUOUS
 10
33.400000
 20
16.500000
 11
33.400000
 21
13.200000
 12
30.900000
 22
16.500000
 13
30.900000
 23
13.200000
  0
POLYLINE
  8
10
 62
7
  6
CONTINUOUS
 70
1
 66
1
  0
VERTEX
 10
33.400000
 20
16.500000
 30
0.000000
  8
10
 62
7
  6
CONTINUOUS
  0
VERTEX
 10
33.400000
 20
13.200000
 30
0.000000
  8
10
 62
7
  6
CONTINUOUS
  0
VERTEX
 10
30.900000
 20
13.200000
 30
0.000000
  8
10
 62
7
  6
CONTINUOUS
  0
VERTEX
 10
30.900000
 20
16.500000
 30
0.000000
  8
10
 62
7
  6
CONTINUOUS
  0
SEQEND
  0
SOLID
  8
10
 62
255
  6
CONTINUOUS
 10
29.900000
 20
16.500000
 11
29.900000
 21
28.500000
 12
34.300000
 22
16.500000
 13
34.300000
 23
28.500000
  0
POLYLINE
  8
10
 62
7
  6
CONTINUOUS
 70
1
 66
1
  0
VERTEX
 10
29.900000
 20
16.500000
 30
0.000000
  8
10
 62
7
  6
CONTINUOUS
  0
VERTEX
 10
29.900000
 20
28.500000
 30
0.000000
  8
10
 62
7
  6
CONTINUOUS
  0
VERTEX
 10
34.300000
 20
28.500000
 30
0.000000
  8
10
 62
7
  6
CONTINUOUS
  0
VERTEX
 10
34.300000
 20
16.500000
 30
0.000000
  8
10
 62
7
  6
CONTINUOUS
  0
SEQEND
  0
CIRCLE
  8
10
 62
7
  6
CONTINUOUS
 10
32.200000
 20
30.300000
 30
0.0
 40
0.500000
  0
CIRCLE
  8
10
 62
7
  6
CONTINUOUS
 10
32.200000
 20
14.700000
 30
0.0
 40
0.500000
  0
POLYLINE
  8
10
 62
7
  6
CONTINUOUS
 70
1
 66
1
  0
VERTEX
 10
33.500000
 20
20.500000
 30
0.000000
  8
10
 62
7
  6
CONTINUOUS
  0
VERTEX
 10
33.500000
 20
24.500000
 30
0.000000
  8
10
 62
7
  6
CONTINUOUS
  0
VERTEX
 10
30.700000
 20
24.500000
 30
0.000000
  8
10
 62
7
  6
CONTINUOUS
  0
VERTEX
 10
30.700000
 20
20.500000
 30
0.000000
  8
10
 62
7
  6
CONTINUOUS
  0
SEQEND
  0
SOLID
  8
10
 62
255
  6
CONTINUOUS
 10
24.400000
 20
31.800000
 11
24.400000
 21
28.500000
 12
21.900000
 22
31.800000
 13
21.900000
 23
28.500000
  0
POLYLINE
  8
10
 62
7
  6
CONTINUOUS
 70
1
 66
1
  0
VERTEX
 10
24.400000
 20
31.800000
 30
0.000000
  8
10
 62
7
  6
CONTINUOUS
  0
VERTEX
 10
24.400000
 20
28.500000
 30
0.000000
  8
10
 62
7
  6
CONTINUOUS
  0
VERTEX
 10
21.900000
 20
28.500000
 30
0.000000
  8
10
 62
7
  6
CONTINUOUS
  0
VERTEX
 10
21.900000
 20
31.800000
 30
0.000000
  8
10
 62
7
  6
CONTINUOUS
  0
SEQEND
  0
SOLID
  8
10
 62
255
  6
CONTINUOUS
 10
20.900000
 20
16.500000
 11
20.900000
 21
28.500000
 12
25.300000
 22
16.500000
 13
25.300000
 23
28.500000
  0
POLYLINE
  8
10
 62
7
  6
CONTINUOUS
 70
1
 66
1
  0
VERTEX
 10
20.900000
 20
16.500000
 30
0.000000
  8
10
 62
7
  6
CONTINUOUS
  0
VERTEX
 10
20.900000
 20
28.500000
 30
0.000000
  8
10
 62
7
  6
CONTINUOUS
  0
VERTEX
 10
25.300000
 20
28.500000
 30
0.000000
  8
10
 62
7
  6
CONTINUOUS
  0
VERTEX
 10
25.300000
 20
16.500000
 30
0.000000
  8
10
 62
7
  6
CONTINUOUS
  0
SEQEND
  0
CIRCLE
  8
10
 62
7
  6
CONTINUOUS
 10
23.200000
 20
30.300000
 30
0.0
 40
0.500000
  0
POLYLINE
  8
10
 62
7
  6
CONTINUOUS
 70
1
 66
1
  0
VERTEX
 10
24.500000
 20
20.500000
 30
0.000000
  8
10
 62
7
  6
CONTINUOUS
  0
VERTEX
 10
24.500000
 20
24.500000
 30
0.000000
  8
10
 62
7
  6
CONTINUOUS
  0
VERTEX
 10
21.700000
 20
24.500000
 30
0.000000
  8
10
 62
7
  6
CONTINUOUS
  0
VERTEX
 10
21.700000
 20
20.500000
 30
0.000000
  8
10
 62
7
  6
CONTINUOUS
  0
SEQEND
  0
SOLID
  8
10
 62
255
  6
CONTINUOUS
 10
24.400000
 20
16.500000
 11
24.400000
 21
13.200000
 12
21.900000
 22
16.500000
 13
21.900000
 23
13.200000
  0
POLYLINE
  8
10
 62
7
  6
CONTINUOUS
 70
1
 66
1
  0
VERTEX
 10
24.400000
 20
16.500000
 30
0.000000
  8
10
 62
7
  6
CONTINUOUS
  0
VERTEX
 10
24.400000
 20
13.200000
 30
0.000000
  8
10
 62
7
  6
CONTINUOUS
  0
VERTEX
 10
21.900000
 20
13.200000
 30
0.000000
  8
10
 62
7
  6
CONTINUOUS
  0
VERTEX
 10
21.900000
 20
16.500000
 30
0.000000
  8
10
 62
7
  6
CONTINUOUS
  0
SEQEND
  0
CIRCLE
  8
10
 62
7
  6
CONTINUOUS
 10
23.200000
 20
14.700000
 30
0.0
 40
0.500000
  0
SOLID
  8
10
 62
255
  6
CONTINUOUS
 10
28.900000
 20
31.800000
 11
28.900000
 21
28.500000
 12
26.400000
 22
31.800000
 13
26.400000
 23
28.500000
  0
POLYLINE
  8
10
 62
7
  6
CONTINUOUS
 70
1
 66
1
  0
VERTEX
 10
28.900000
 20
31.800000
 30
0.000000
  8
10
 62
7
  6
CONTINUOUS
  0
VERTEX
 10
28.900000
 20
28.500000
 30
0.000000
  8
10
 62
7
  6
CONTINUOUS
  0
VERTEX
 10
26.400000
 20
28.500000
 30
0.000000
  8
10
 62
7
  6
CONTINUOUS
  0
VERTEX
 10
26.400000
 20
31.800000
 30
0.000000
  8
10
 62
7
  6
CONTINUOUS
  0
SEQEND
  0
SOLID
  8
10
 62
255
  6
CONTINUOUS
 10
28.900000
 20
16.500000
 11
28.900000
 21
13.200000
 12
26.400000
 22
16.500000
 13
26.400000
 23
13.200000
  0
POLYLINE
  8
10
 62
7
  6
CONTINUOUS
 70
1
 66
1
  0
VERTEX
 10
28.900000
 20
16.500000
 30
0.000000
  8
10
 62
7
  6
CONTINUOUS
  0
VERTEX
 10
28.900000
 20
13.200000
 30
0.000000
  8
10
 62
7
  6
CONTINUOUS
  0
VERTEX
 10
26.400000
 20
13.200000
 30
0.000000
  8
10
 62
7
  6
CONTINUOUS
  0
VERTEX
 10
26.400000
 20
16.500000
 30
0.000000
  8
10
 62
7
  6
CONTINUOUS
  0
SEQEND
  0
SOLID
  8
10
 62
255
  6
CONTINUOUS
 10
25.400000
 20
16.500000
 11
25.400000
 21
28.500000
 12
29.800000
 22
16.500000
 13
29.800000
 23
28.500000
  0
POLYLINE
  8
10
 62
7
  6
CONTINUOUS
 70
1
 66
1
  0
VERTEX
 10
25.400000
 20
16.500000
 30
0.000000
  8
10
 62
7
  6
CONTINUOUS
  0
VERTEX
 10
25.400000
 20
28.500000
 30
0.000000
  8
10
 62
7
  6
CONTINUOUS
  0
VERTEX
 10
29.800000
 20
28.500000
 30
0.000000
  8
10
 62
7
  6
CONTINUOUS
  0
VERTEX
 10
29.800000
 20
16.500000
 30
0.000000
  8
10
 62
7
  6
CONTINUOUS
  0
SEQEND
  0
CIRCLE
  8
10
 62
7
  6
CONTINUOUS
 10
27.700000
 20
30.300000
 30
0.0
 40
0.500000
  0
CIRCLE
  8
10
 62
7
  6
CONTINUOUS
 10
27.700000
 20
14.700000
 30
0.0
 40
0.500000
  0
POLYLINE
  8
10
 62
7
  6
CONTINUOUS
 70
1
 66
1
  0
VERTEX
 10
29.000000
 20
20.500000
 30
0.000000
  8
10
 62
7
  6
CONTINUOUS
  0
VERTEX
 10
29.000000
 20
24.500000
 30
0.000000
  8
10
 62
7
  6
CONTINUOUS
  0
VERTEX
 10
26.200000
 20
24.500000
 30
0.000000
  8
10
 62
7
  6
CONTINUOUS
  0
VERTEX
 10
26.200000
 20
20.500000
 30
0.000000
  8
10
 62
7
  6
CONTINUOUS
  0
SEQEND
  0
POLYLINE
  8
10
 62
7
  6
CONTINUOUS
 70
1
 66
1
  0
VERTEX
 10
34.700000
 20
21.500000
 30
0.000000
  8
10
 62
7
  6
CONTINUOUS
  0
VERTEX
 10
34.700000
 20
23.500000
 30
0.000000
  8
10
 62
7
  6
CONTINUOUS
  0
VERTEX
 10
34.300000
 20
23.500000
 30
0.000000
  8
10
 62
7
  6
CONTINUOUS
  0
VERTEX
 10
34.300000
 20
21.500000
 30
0.000000
  8
10
 62
7
  6
CONTINUOUS
  0
SEQEND
  0
CIRCLE
  8
10
 62
7
  6
CONTINUOUS
 10
18.200000
 20
22.500000
 30
0.0
 40
3.500000
  0
CIRCLE
  8
10
 62
7
  6
CONTINUOUS
 10
25.700000
 20
22.500000
 30
0.0
 40
2.000000
  0
SOLID
  8
10
 62
255
  6
L000000020000FFFFFF
 10
24.700000
 20
24.500000
 11
24.700000
 21
20.500000
 12
18.000000
 22
24.500000
 13
18.000000
 23
20.500000
  0
POLYLINE
  8
10
 62
255
  6
L000000020000FFFFFF
 70
1
 66
1
  0
VERTEX
 10
24.700000
 20
24.500000
 30
0.000000
  8
10
 62
255
  6
L000000020000FFFFFF
  0
VERTEX
 10
24.700000
 20
20.500000
 30
0.000000
  8
10
 62
255
  6
L000000020000FFFFFF
  0
VERTEX
 10
18.000000
 20
20.500000
 30
0.000000
  8
10
 62
255
  6
L000000020000FFFFFF
  0
VERTEX
 10
18.000000
 20
24.500000
 30
0.000000
  8
10
 62
255
  6
L000000020000FFFFFF
  0
SEQEND
  0
SOLID
  8
10
 62
255
  6
L000000020000FFFFFF
 10
25.700000
 20
24.500000
 11
25.700000
 21
20.500000
 12
18.000000
 22
24.500000
 13
18.000000
 23
20.500000
  0
POLYLINE
  8
10
 62
255
  6
L000000020000FFFFFF
 70
1
 66
1
  0
VERTEX
 10
25.700000
 20
24.500000
 30
0.000000
  8
10
 62
255
  6
L000000020000FFFFFF
  0
VERTEX
 10
25.700000
 20
20.500000
 30
0.000000
  8
10
 62
255
  6
L000000020000FFFFFF
  0
VERTEX
 10
18.000000
 20
20.500000
 30
0.000000
  8
10
 62
255
  6
L000000020000FFFFFF
  0
VERTEX
 10
18.000000
 20
24.500000
 30
0.000000
  8
10
 62
255
  6
L000000020000FFFFFF
  0
SEQEND
  0
CIRCLE
  8
10
 62
7
  6
CONTINUOUS
 10
18.200000
 20
22.500000
 30
0.0
 40
2.000000
  0
SOLID
  8
10
 62
1
  6
CONTINUOUS
 10
21.300000
 20
22.200000
 11
21.300000
 21
22.800000
 12
16.200000
 22
22.200000
 13
16.200000
 23
22.800000
  0
POLYLINE
  8
10
 62
7
  6
CONTINUOUS
 70
1
 66
1
  0
VERTEX
 10
21.300000
 20
22.200000
 30
0.000000
  8
10
 62
7
  6
CONTINUOUS
  0
VERTEX
 10
21.300000
 20
22.800000
 30
0.000000
  8
10
 62
7
  6
CONTINUOUS
  0
VERTEX
 10
16.200000
 20
22.800000
 30
0.000000
  8
10
 62
7
  6
CONTINUOUS
  0
VERTEX
 10
16.200000
 20
22.200000
 30
0.000000
  8
10
 62
7
  6
CONTINUOUS
  0
SEQEND
  0
POLYLINE
  8
10
 62
7
  6
CONTINUOUS
 70
0
 66
1
  0
VERTEX
 10
18.200000
 20
24.500000
  8
10
 62
7
  6
CONTINUOUS
  0
VERTEX
 10
25.700000
 20
24.500000
  8
10
 62
7
  6
CONTINUOUS
  0
SEQEND
  0
POLYLINE
  8
10
 62
7
  6
CONTINUOUS
 70
0
 66
1
  0
VERTEX
 10
18.200000
 20
20.500000
  8
10
 62
7
  6
CONTINUOUS
  0
VERTEX
 10
25.800000
 20
20.500000
  8
10
 62
7
  6
CONTINUOUS
  0
SEQEND
  0
TEXT
  8
10
 62
7
  6
CONTINUOUS
 10
16.733333
 20
23.000000
 40
1.100000
  1
O
 50
-90.000000
 51
0.000000
 72
0
 73
0
  0
TEXT
  8
10
 62
7
  6
CONTINUOUS
 10
19.900000
 20
24.933333
 40
1.100000
  1
I
 50
0.000000
 51
0.000000
 72
1
 73
0
 11
19.900000
 21
24.933333
  0
ENDBLK
  0
ENDSEC
  0
SECTION
  2
ENTITIES
  0
INSERT
  8
0
 2
ma400alab
 10
0.000000
 20
0.000000
 30
0.0
 50
0.0
  0
ENDSEC
  0
EOF
