  0
SECTION
  2
HEADER
  9
$ACADVER
  1
AC1009
  9
$INSBASE
 10
0.0
 20
0.0
 30
0.0
  9
$EXTMIN
 10
0.0
 20
0.0
 30
0.0
  9
$EXTMAX
 10
0.000000
 20
0.000000
 30
0.0
  9
$LIMMIN
 10
0.0
 20
0.0
  9
$LIMMAX
 10
0.000000
 20
0.000000
  0
ENDSEC
  0
SECTION
  2
TABLES
  0
TABLE
  2
LTYPE
 70
3
  0
LTYPE
  2
L000000020000008000
 70
64
  3
Solid line
 72
65
 73
0
 40
0.000000
  0
LTYPE
  2
L014100000032000000
 70
64
  3
- - - - - - - -
 72
65
 73
2
 40
0.500000
 49
0.300000
 49
-0.200000
  0
LTYPE
  2
CONTINUOUS
 70
64
  3
Solid line
 72
65
 73
0
 40
0.000000
  0
ENDTAB
  0
TABLE
  2
LAYER
 70
8
  0
LAYER
  2
0
 70
64
 62
7
  6
CONTINUOUS
  0
LAYER
  2
1
 70
64
 62
7
  6
CONTINUOUS
  0
LAYER
  2
2
 70
64
 62
7
  6
CONTINUOUS
  0
LAYER
  2
3
 70
64
 62
-7
  6
CONTINUOUS
  0
LAYER
  2
4
 70
64
 62
7
  6
CONTINUOUS
  0
LAYER
  2
5
 70
64
 62
7
  6
CONTINUOUS
  0
LAYER
  2
6
 70
64
 62
7
  6
CONTINUOUS
  0
LAYER
  2
7
 70
64
 62
-7
  6
CONTINUOUS
  0
LAYER
  2
8
 70
64
 62
7
  6
CONTINUOUS
  0
LAYER
  2
9
 70
64
 62
7
  6
CONTINUOUS
  0
LAYER
  2
10
 70
64
 62
-7
  6
CONTINUOUS
  0
LAYER
  2
11
 70
64
 62
-7
  6
CONTINUOUS
  0
LAYER
  2
12
 70
64
 62
7
  6
CONTINUOUS
  0
LAYER
  2
13
 70
64
 62
7
  6
CONTINUOUS
  0
LAYER
  2
14
 70
64
 62
7
  6
CONTINUOUS
  0
LAYER
  2
15
 70
64
 62
7
  6
CONTINUOUS
  0
LAYER
  2
16
 70
64
 62
7
  6
CONTINUOUS
  0
LAYER
  2
17
 70
64
 62
7
  6
CONTINUOUS
  0
LAYER
  2
18
 70
64
 62
7
  6
CONTINUOUS
  0
LAYER
  2
19
 70
64
 62
7
  6
CONTINUOUS
  0
ENDTAB
  0
ENDSEC
  0
SECTION
  2
BLOCKS
  0
BLOCK
  8
0
  2
ma160alab
 70
 0
 10
0.0
 20
0.0
 30
0.0
  0
SOLID
  8
1
 62
255
  6
CONTINUOUS
 10
24.800000
 20
29.800000
 11
24.800000
 21
0.200000
 12
0.200000
 22
29.800000
 13
0.200000
 23
0.200000
  0
POLYLINE
  8
1
 62
7
  6
CONTINUOUS
 70
1
 66
1
  0
VERTEX
 10
24.800000
 20
29.800000
 30
0.000000
  8
1
 62
7
  6
CONTINUOUS
  0
VERTEX
 10
24.800000
 20
0.200000
 30
0.000000
  8
1
 62
7
  6
CONTINUOUS
  0
VERTEX
 10
0.200000
 20
0.200000
 30
0.000000
  8
1
 62
7
  6
CONTINUOUS
  0
VERTEX
 10
0.200000
 20
29.800000
 30
0.000000
  8
1
 62
7
  6
CONTINUOUS
  0
SEQEND
  0
LINE
  8
1
 62
7
  6
CONTINUOUS
 10
1.000000
 20
27.900000
 11
1.000000
 21
27.400000
  0
LINE
  8
1
 62
7
  6
CONTINUOUS
 10
1.000000
 20
24.500000
 11
1.000000
 21
25.000000
  0
LINE
  8
1
 62
7
  6
CONTINUOUS
 10
1.400000
 20
26.200000
 11
0.500000
 21
26.200000
  0
CIRCLE
  8
1
 62
7
  6
CONTINUOUS
 10
1.000000
 20
26.200000
 30
0.0
 40
0.700000
  0
LINE
  8
1
 62
7
  6
CONTINUOUS
 10
24.000000
 20
27.900000
 11
24.000000
 21
27.400000
  0
LINE
  8
1
 62
7
  6
CONTINUOUS
 10
24.000000
 20
24.500000
 11
24.000000
 21
25.000000
  0
LINE
  8
1
 62
7
  6
CONTINUOUS
 10
23.600000
 20
26.200000
 11
24.500000
 21
26.200000
  0
CIRCLE
  8
1
 62
7
  6
CONTINUOUS
 10
24.000000
 20
26.200000
 30
0.0
 40
0.700000
  0
LINE
  8
1
 62
7
  6
CONTINUOUS
 10
24.000000
 20
2.100000
 11
24.000000
 21
2.600000
  0
LINE
  8
1
 62
7
  6
CONTINUOUS
 10
24.000000
 20
5.500000
 11
24.000000
 21
5.000000
  0
LINE
  8
1
 62
7
  6
CONTINUOUS
 10
23.600000
 20
3.800000
 11
24.500000
 21
3.800000
  0
CIRCLE
  8
1
 62
7
  6
CONTINUOUS
 10
24.000000
 20
3.800000
 30
0.0
 40
0.700000
  0
LINE
  8
1
 62
7
  6
CONTINUOUS
 10
1.000000
 20
2.100000
 11
1.000000
 21
2.600000
  0
LINE
  8
1
 62
7
  6
CONTINUOUS
 10
1.000000
 20
5.500000
 11
1.000000
 21
5.000000
  0
LINE
  8
1
 62
7
  6
CONTINUOUS
 10
1.400000
 20
3.800000
 11
0.500000
 21
3.800000
  0
CIRCLE
  8
1
 62
7
  6
CONTINUOUS
 10
1.000000
 20
3.800000
 30
0.0
 40
0.700000
  0
CIRCLE
  8
1
 62
7
  6
CONTINUOUS
 10
10.000000
 20
15.000000
 30
0.0
 40
0.200000
  0
SOLID
  8
2
 62
255
  6
CONTINUOUS
 10
19.100000
 20
12.800000
 11
19.100000
 21
17.400000
 12
6.500000
 22
12.800000
 13
6.500000
 23
17.400000
  0
POLYLINE
  8
2
 62
7
  6
CONTINUOUS
 70
1
 66
1
  0
VERTEX
 10
19.100000
 20
12.800000
 30
0.000000
  8
2
 62
7
  6
CONTINUOUS
  0
VERTEX
 10
19.100000
 20
17.400000
 30
0.000000
  8
2
 62
7
  6
CONTINUOUS
  0
VERTEX
 10
6.500000
 20
17.400000
 30
0.000000
  8
2
 62
7
  6
CONTINUOUS
  0
VERTEX
 10
6.500000
 20
12.800000
 30
0.000000
  8
2
 62
7
  6
CONTINUOUS
  0
SEQEND
  0
SOLID
  8
2
 62
1
  6
CONTINUOUS
 10
19.000000
 20
16.800000
 11
19.000000
 21
17.300000
 12
6.600000
 22
16.800000
 13
6.600000
 23
17.300000
  0
POLYLINE
  8
2
 62
7
  6
CONTINUOUS
 70
1
 66
1
  0
VERTEX
 10
19.000000
 20
16.800000
 30
0.000000
  8
2
 62
7
  6
CONTINUOUS
  0
VERTEX
 10
19.000000
 20
17.300000
 30
0.000000
  8
2
 62
7
  6
CONTINUOUS
  0
VERTEX
 10
6.600000
 20
17.300000
 30
0.000000
  8
2
 62
7
  6
CONTINUOUS
  0
VERTEX
 10
6.600000
 20
16.800000
 30
0.000000
  8
2
 62
7
  6
CONTINUOUS
  0
SEQEND
  0
POLYLINE
  8
2
 62
7
  6
CONTINUOUS
 70
0
 66
1
  0
VERTEX
 10
12.000000
 20
14.500000
  8
2
 62
7
  6
CONTINUOUS
  0
VERTEX
 10
9.700000
 20
14.500000
  8
2
 62
7
  6
CONTINUOUS
  0
SEQEND
  0
POLYLINE
  8
2
 62
7
  6
CONTINUOUS
 70
0
 66
1
  0
VERTEX
 10
9.700000
 20
15.500000
  8
2
 62
7
  6
CONTINUOUS
  0
VERTEX
 10
12.000000
 20
15.500000
  8
2
 62
7
  6
CONTINUOUS
  0
SEQEND
  0
ARC
  8
2
 62
7
  6
CONTINUOUS
 10
9.750000
 20
15.000000
 30
0.000000
 40
0.500000
 50
94.763642
 51
-95.710593
  0
ARC
  8
2
 62
7
  6
CONTINUOUS
 10
9.950000
 20
15.000000
 30
0.000000
 40
0.450000
 50
95.710593
 51
-97.125016
  0
ARC
  8
2
 62
7
  6
CONTINUOUS
 10
12.000000
 20
15.000000
 30
0.000000
 40
0.500000
 50
-90.000000
 51
90.000000
  0
CIRCLE
  8
2
 62
7
  6
CONTINUOUS
 10
10.000000
 20
15.000000
 30
0.0
 40
0.200000
  0
TEXT
  8
2
 62
7
  6
CONTINUOUS
 10
11.600000
 20
16.066667
 40
0.400000
  1
I
 50
0.000000
 51
0.000000
 72
1
 73
0
 11
11.600000
 21
16.066667
  0
TEXT
  8
2
 62
7
  6
CONTINUOUS
 10
11.600000
 20
15.666667
 40
0.400000
  1
ON
 50
0.000000
 51
0.000000
 72
1
 73
0
 11
11.600000
 21
15.666667
  0
TEXT
  8
2
 62
7
  6
CONTINUOUS
 10
7.400000
 20
15.066667
 40
0.400000
  1
O
 50
0.000000
 51
0.000000
 72
1
 73
0
 11
7.400000
 21
15.066667
  0
TEXT
  8
2
 62
7
  6
CONTINUOUS
 10
7.400000
 20
14.666667
 40
0.400000
  1
OFF
 50
0.000000
 51
0.000000
 72
1
 73
0
 11
7.400000
 21
14.666667
  0
SOLID
  8
10
 62
255
  6
CONTINUOUS
 10
24.800000
 20
29.800000
 11
24.800000
 21
0.200000
 12
0.200000
 22
29.800000
 13
0.200000
 23
0.200000
  0
POLYLINE
  8
10
 62
7
  6
CONTINUOUS
 70
1
 66
1
  0
VERTEX
 10
24.800000
 20
29.800000
 30
0.000000
  8
10
 62
7
  6
CONTINUOUS
  0
VERTEX
 10
24.800000
 20
0.200000
 30
0.000000
  8
10
 62
7
  6
CONTINUOUS
  0
VERTEX
 10
0.200000
 20
0.200000
 30
0.000000
  8
10
 62
7
  6
CONTINUOUS
  0
VERTEX
 10
0.200000
 20
29.800000
 30
0.000000
  8
10
 62
7
  6
CONTINUOUS
  0
SEQEND
  0
SOLID
  8
10
 62
255
  6
CONTINUOUS
 10
24.800000
 20
16.400000
 11
24.800000
 21
13.400000
 12
0.200000
 22
16.400000
 13
0.200000
 23
13.400000
  0
POLYLINE
  8
10
 62
7
  6
CONTINUOUS
 70
1
 66
1
  0
VERTEX
 10
24.800000
 20
16.400000
 30
0.000000
  8
10
 62
7
  6
CONTINUOUS
  0
VERTEX
 10
24.800000
 20
13.400000
 30
0.000000
  8
10
 62
7
  6
CONTINUOUS
  0
VERTEX
 10
0.200000
 20
13.400000
 30
0.000000
  8
10
 62
7
  6
CONTINUOUS
  0
VERTEX
 10
0.200000
 20
16.400000
 30
0.000000
  8
10
 62
7
  6
CONTINUOUS
  0
SEQEND
  0
POLYLINE
  8
10
 62
7
  6
CONTINUOUS
 70
1
 66
1
  0
VERTEX
 10
16.600000
 20
9.600000
  8
10
 62
7
  6
CONTINUOUS
  0
VERTEX
 10
18.900000
 20
9.600000
  8
10
 62
7
  6
CONTINUOUS
  0
VERTEX
 10
18.900000
 20
8.700000
  8
10
 62
7
  6
CONTINUOUS
  0
VERTEX
 10
18.600000
 20
8.700000
  8
10
 62
7
  6
CONTINUOUS
  0
VERTEX
 10
18.600000
 20
9.100000
  8
10
 62
7
  6
CONTINUOUS
  0
VERTEX
 10
16.900000
 20
9.100000
  8
10
 62
7
  6
CONTINUOUS
  0
VERTEX
 10
16.900000
 20
8.700000
  8
10
 62
7
  6
CONTINUOUS
  0
VERTEX
 10
16.600000
 20
8.700000
  8
10
 62
7
  6
CONTINUOUS
  0
SEQEND
  0
POLYLINE
  8
10
 62
7
  6
CONTINUOUS
 70
1
 66
1
  0
VERTEX
 10
13.900000
 20
9.600000
  8
10
 62
7
  6
CONTINUOUS
  0
VERTEX
 10
16.200000
 20
9.600000
  8
10
 62
7
  6
CONTINUOUS
  0
VERTEX
 10
16.200000
 20
8.700000
  8
10
 62
7
  6
CONTINUOUS
  0
VERTEX
 10
15.900000
 20
8.700000
  8
10
 62
7
  6
CONTINUOUS
  0
VERTEX
 10
15.900000
 20
9.100000
  8
10
 62
7
  6
CONTINUOUS
  0
VERTEX
 10
14.200000
 20
9.100000
  8
10
 62
7
  6
CONTINUOUS
  0
VERTEX
 10
14.200000
 20
8.700000
  8
10
 62
7
  6
CONTINUOUS
  0
VERTEX
 10
13.900000
 20
8.700000
  8
10
 62
7
  6
CONTINUOUS
  0
SEQEND
  0
POLYLINE
  8
10
 62
7
  6
CONTINUOUS
 70
1
 66
1
  0
VERTEX
 10
6.700000
 20
9.600000
  8
10
 62
7
  6
CONTINUOUS
  0
VERTEX
 10
9.000000
 20
9.600000
  8
10
 62
7
  6
CONTINUOUS
  0
VERTEX
 10
9.000000
 20
8.700000
  8
10
 62
7
  6
CONTINUOUS
  0
VERTEX
 10
8.700000
 20
8.700000
  8
10
 62
7
  6
CONTINUOUS
  0
VERTEX
 10
8.700000
 20
9.100000
  8
10
 62
7
  6
CONTINUOUS
  0
VERTEX
 10
7.000000
 20
9.100000
  8
10
 62
7
  6
CONTINUOUS
  0
VERTEX
 10
7.000000
 20
8.700000
  8
10
 62
7
  6
CONTINUOUS
  0
VERTEX
 10
6.700000
 20
8.700000
  8
10
 62
7
  6
CONTINUOUS
  0
SEQEND
  0
POLYLINE
  8
10
 62
7
  6
CONTINUOUS
 70
1
 66
1
  0
VERTEX
 10
16.600000
 20
20.600000
  8
10
 62
7
  6
CONTINUOUS
  0
VERTEX
 10
18.900000
 20
20.600000
  8
10
 62
7
  6
CONTINUOUS
  0
VERTEX
 10
18.900000
 20
21.500000
  8
10
 62
7
  6
CONTINUOUS
  0
VERTEX
 10
18.600000
 20
21.500000
  8
10
 62
7
  6
CONTINUOUS
  0
VERTEX
 10
18.600000
 20
21.100000
  8
10
 62
7
  6
CONTINUOUS
  0
VERTEX
 10
16.900000
 20
21.100000
  8
10
 62
7
  6
CONTINUOUS
  0
VERTEX
 10
16.900000
 20
21.500000
  8
10
 62
7
  6
CONTINUOUS
  0
VERTEX
 10
16.600000
 20
21.500000
  8
10
 62
7
  6
CONTINUOUS
  0
SEQEND
  0
POLYLINE
  8
10
 62
7
  6
CONTINUOUS
 70
1
 66
1
  0
VERTEX
 10
13.900000
 20
20.600000
  8
10
 62
7
  6
CONTINUOUS
  0
VERTEX
 10
16.200000
 20
20.600000
  8
10
 62
7
  6
CONTINUOUS
  0
VERTEX
 10
16.200000
 20
21.500000
  8
10
 62
7
  6
CONTINUOUS
  0
VERTEX
 10
15.900000
 20
21.500000
  8
10
 62
7
  6
CONTINUOUS
  0
VERTEX
 10
15.900000
 20
21.100000
  8
10
 62
7
  6
CONTINUOUS
  0
VERTEX
 10
14.200000
 20
21.100000
  8
10
 62
7
  6
CONTINUOUS
  0
VERTEX
 10
14.200000
 20
21.500000
  8
10
 62
7
  6
CONTINUOUS
  0
VERTEX
 10
13.900000
 20
21.500000
  8
10
 62
7
  6
CONTINUOUS
  0
SEQEND
  0
POLYLINE
  8
10
 62
7
  6
CONTINUOUS
 70
1
 66
1
  0
VERTEX
 10
6.700000
 20
20.600000
  8
10
 62
7
  6
CONTINUOUS
  0
VERTEX
 10
9.000000
 20
20.600000
  8
10
 62
7
  6
CONTINUOUS
  0
VERTEX
 10
9.000000
 20
21.500000
  8
10
 62
7
  6
CONTINUOUS
  0
VERTEX
 10
8.700000
 20
21.500000
  8
10
 62
7
  6
CONTINUOUS
  0
VERTEX
 10
8.700000
 20
21.100000
  8
10
 62
7
  6
CONTINUOUS
  0
VERTEX
 10
7.000000
 20
21.100000
  8
10
 62
7
  6
CONTINUOUS
  0
VERTEX
 10
7.000000
 20
21.500000
  8
10
 62
7
  6
CONTINUOUS
  0
VERTEX
 10
6.700000
 20
21.500000
  8
10
 62
7
  6
CONTINUOUS
  0
SEQEND
  0
SOLID
  8
10
 62
255
  6
CONTINUOUS
 10
19.100000
 20
9.600000
 11
19.100000
 21
20.600000
 12
6.500000
 22
9.600000
 13
6.500000
 23
20.600000
  0
POLYLINE
  8
10
 62
7
  6
CONTINUOUS
 70
1
 66
1
  0
VERTEX
 10
19.100000
 20
9.600000
 30
0.000000
  8
10
 62
7
  6
CONTINUOUS
  0
VERTEX
 10
19.100000
 20
20.600000
 30
0.000000
  8
10
 62
7
  6
CONTINUOUS
  0
VERTEX
 10
6.500000
 20
20.600000
 30
0.000000
  8
10
 62
7
  6
CONTINUOUS
  0
VERTEX
 10
6.500000
 20
9.600000
 30
0.000000
  8
10
 62
7
  6
CONTINUOUS
  0
SEQEND
  0
LINE
  8
10
 62
7
  6
L014100000032000000
 10
9.200000
 20
9.600000
 11
9.200000
 21
20.600000
  0
LINE
  8
10
 62
7
  6
L014100000032000000
 10
16.400000
 20
9.600000
 11
16.400000
 21
20.600000
  0
LINE
  8
10
 62
7
  6
L014100000032000000
 10
13.700000
 20
9.600000
 11
13.700000
 21
20.600000
  0
CIRCLE
  8
10
 62
7
  6
CONTINUOUS
 10
10.000000
 20
15.000000
 30
0.0
 40
0.200000
  0
SOLID
  8
10
 62
255
  6
CONTINUOUS
 10
19.100000
 20
12.800000
 11
19.100000
 21
17.400000
 12
6.500000
 22
12.800000
 13
6.500000
 23
17.400000
  0
POLYLINE
  8
10
 62
7
  6
CONTINUOUS
 70
1
 66
1
  0
VERTEX
 10
19.100000
 20
12.800000
 30
0.000000
  8
10
 62
7
  6
CONTINUOUS
  0
VERTEX
 10
19.100000
 20
17.400000
 30
0.000000
  8
10
 62
7
  6
CONTINUOUS
  0
VERTEX
 10
6.500000
 20
17.400000
 30
0.000000
  8
10
 62
7
  6
CONTINUOUS
  0
VERTEX
 10
6.500000
 20
12.800000
 30
0.000000
  8
10
 62
7
  6
CONTINUOUS
  0
SEQEND
  0
SOLID
  8
10
 62
1
  6
CONTINUOUS
 10
19.000000
 20
16.800000
 11
19.000000
 21
17.300000
 12
6.600000
 22
16.800000
 13
6.600000
 23
17.300000
  0
POLYLINE
  8
10
 62
7
  6
CONTINUOUS
 70
1
 66
1
  0
VERTEX
 10
19.000000
 20
16.800000
 30
0.000000
  8
10
 62
7
  6
CONTINUOUS
  0
VERTEX
 10
19.000000
 20
17.300000
 30
0.000000
  8
10
 62
7
  6
CONTINUOUS
  0
VERTEX
 10
6.600000
 20
17.300000
 30
0.000000
  8
10
 62
7
  6
CONTINUOUS
  0
VERTEX
 10
6.600000
 20
16.800000
 30
0.000000
  8
10
 62
7
  6
CONTINUOUS
  0
SEQEND
  0
POLYLINE
  8
10
 62
7
  6
CONTINUOUS
 70
0
 66
1
  0
VERTEX
 10
12.000000
 20
14.500000
  8
10
 62
7
  6
CONTINUOUS
  0
VERTEX
 10
9.700000
 20
14.500000
  8
10
 62
7
  6
CONTINUOUS
  0
SEQEND
  0
POLYLINE
  8
10
 62
7
  6
CONTINUOUS
 70
0
 66
1
  0
VERTEX
 10
9.700000
 20
15.500000
  8
10
 62
7
  6
CONTINUOUS
  0
VERTEX
 10
12.000000
 20
15.500000
  8
10
 62
7
  6
CONTINUOUS
  0
SEQEND
  0
ARC
  8
10
 62
7
  6
CONTINUOUS
 10
9.750000
 20
15.000000
 30
0.000000
 40
0.500000
 50
94.763642
 51
-95.710593
  0
ARC
  8
10
 62
7
  6
CONTINUOUS
 10
9.950000
 20
15.000000
 30
0.000000
 40
0.450000
 50
95.710593
 51
-97.125016
  0
ARC
  8
10
 62
7
  6
CONTINUOUS
 10
12.000000
 20
15.000000
 30
0.000000
 40
0.500000
 50
-90.000000
 51
90.000000
  0
CIRCLE
  8
10
 62
7
  6
CONTINUOUS
 10
10.000000
 20
15.000000
 30
0.0
 40
0.200000
  0
TEXT
  8
10
 62
7
  6
CONTINUOUS
 10
11.600000
 20
16.066667
 40
0.400000
  1
I
 50
0.000000
 51
0.000000
 72
1
 73
0
 11
11.600000
 21
16.066667
  0
TEXT
  8
10
 62
7
  6
CONTINUOUS
 10
11.600000
 20
15.666667
 40
0.400000
  1
ON
 50
0.000000
 51
0.000000
 72
1
 73
0
 11
11.600000
 21
15.666667
  0
TEXT
  8
10
 62
7
  6
CONTINUOUS
 10
7.400000
 20
15.066667
 40
0.400000
  1
O
 50
0.000000
 51
0.000000
 72
1
 73
0
 11
7.400000
 21
15.066667
  0
TEXT
  8
10
 62
7
  6
CONTINUOUS
 10
7.400000
 20
14.666667
 40
0.400000
  1
OFF
 50
0.000000
 51
0.000000
 72
1
 73
0
 11
7.400000
 21
14.666667
  0
ENDBLK
  0
ENDSEC
  0
SECTION
  2
ENTITIES
  0
INSERT
  8
0
 2
ma160alab
 10
0.000000
 20
0.000000
 30
0.0
 50
0.0
  0
ENDSEC
  0
EOF
