  0
SECTION
  2
HEADER
  9
$ACADVER
  1
AC1009
  9
$INSBASE
 10
0.0
 20
0.0
 30
0.0
  9
$EXTMIN
 10
0.0
 20
0.0
 30
0.0
  9
$EXTMAX
 10
0.000000
 20
0.000000
 30
0.0
  9
$LIMMIN
 10
0.0
 20
0.0
  9
$LIMMAX
 10
0.000000
 20
0.000000
  0
ENDSEC
  0
SECTION
  2
TABLES
  0
TABLE
  2
LTYPE
 70
1
  0
LTYPE
  2
CONTINUOUS
 70
64
  3
Solid line
 72
65
 73
0
 40
0.000000
  0
ENDTAB
  0
TABLE
  2
LAYER
 70
8
  0
LAYER
  2
0
 70
64
 62
7
  6
CONTINUOUS
  0
LAYER
  2
1
 70
64
 62
7
  6
CONTINUOUS
  0
LAYER
  2
2
 70
64
 62
7
  6
CONTINUOUS
  0
LAYER
  2
3
 70
64
 62
-7
  6
CONTINUOUS
  0
LAYER
  2
4
 70
64
 62
7
  6
CONTINUOUS
  0
LAYER
  2
5
 70
64
 62
7
  6
CONTINUOUS
  0
LAYER
  2
6
 70
64
 62
7
  6
CONTINUOUS
  0
LAYER
  2
7
 70
64
 62
-7
  6
CONTINUOUS
  0
LAYER
  2
8
 70
64
 62
7
  6
CONTINUOUS
  0
LAYER
  2
9
 70
64
 62
7
  6
CONTINUOUS
  0
LAYER
  2
10
 70
64
 62
-7
  6
CONTINUOUS
  0
LAYER
  2
11
 70
64
 62
-7
  6
CONTINUOUS
  0
LAYER
  2
12
 70
64
 62
7
  6
CONTINUOUS
  0
LAYER
  2
13
 70
64
 62
7
  6
CONTINUOUS
  0
LAYER
  2
14
 70
64
 62
7
  6
CONTINUOUS
  0
LAYER
  2
15
 70
64
 62
7
  6
CONTINUOUS
  0
LAYER
  2
16
 70
64
 62
7
  6
CONTINUOUS
  0
LAYER
  2
17
 70
64
 62
7
  6
CONTINUOUS
  0
LAYER
  2
18
 70
64
 62
7
  6
CONTINUOUS
  0
LAYER
  2
19
 70
64
 62
7
  6
CONTINUOUS
  0
ENDTAB
  0
ENDSEC
  0
SECTION
  2
BLOCKS
  0
BLOCK
  8
0
  2
1_0uf2020_e
 70
 0
 10
0.0
 20
0.0
 30
0.0
  0
SOLID
  8
0
 62
255
  6
CONTINUOUS
 10
29.100000
 20
64.100000
 11
29.100000
 21
-4.100000
 12
-4.100000
 22
64.100000
 13
-4.100000
 23
-4.100000
  0
POLYLINE
  8
0
 62
7
  6
CONTINUOUS
 70
1
 66
1
  0
VERTEX
 10
29.100000
 20
64.100000
 30
0.000000
  8
0
 62
7
  6
CONTINUOUS
  0
VERTEX
 10
29.100000
 20
-4.100000
 30
0.000000
  8
0
 62
7
  6
CONTINUOUS
  0
VERTEX
 10
-4.100000
 20
-4.100000
 30
0.000000
  8
0
 62
7
  6
CONTINUOUS
  0
VERTEX
 10
-4.100000
 20
64.100000
 30
0.000000
  8
0
 62
7
  6
CONTINUOUS
  0
SEQEND
  0
SOLID
  8
0
 62
255
  6
CONTINUOUS
 10
27.500000
 20
62.500000
 11
27.500000
 21
-2.500000
 12
-2.500000
 22
62.500000
 13
-2.500000
 23
-2.500000
  0
POLYLINE
  8
0
 62
7
  6
CONTINUOUS
 70
1
 66
1
  0
VERTEX
 10
27.500000
 20
62.500000
 30
0.000000
  8
0
 62
7
  6
CONTINUOUS
  0
VERTEX
 10
27.500000
 20
-2.500000
 30
0.000000
  8
0
 62
7
  6
CONTINUOUS
  0
VERTEX
 10
-2.500000
 20
-2.500000
 30
0.000000
  8
0
 62
7
  6
CONTINUOUS
  0
VERTEX
 10
-2.500000
 20
62.500000
 30
0.000000
  8
0
 62
7
  6
CONTINUOUS
  0
SEQEND
  0
POLYLINE
  8
0
 62
7
  6
CONTINUOUS
 70
1
 66
1
  0
VERTEX
 10
25.500000
 20
60.500000
 30
0.000000
  8
0
 62
7
  6
CONTINUOUS
  0
VERTEX
 10
25.500000
 20
-0.500000
 30
0.000000
  8
0
 62
7
  6
CONTINUOUS
  0
VERTEX
 10
-0.500000
 20
-0.500000
 30
0.000000
  8
0
 62
7
  6
CONTINUOUS
  0
VERTEX
 10
-0.500000
 20
60.500000
 30
0.000000
  8
0
 62
7
  6
CONTINUOUS
  0
SEQEND
  0
LINE
  8
0
 62
7
  6
CONTINUOUS
 10
27.900000
 20
-4.100000
 11
27.900000
 21
64.100000
  0
LINE
  8
0
 62
7
  6
CONTINUOUS
 10
-2.900000
 20
-4.100000
 11
-2.900000
 21
64.100000
  0
LINE
  8
0
 62
7
  6
CONTINUOUS
 10
27.900000
 20
-2.900000
 11
-2.900000
 21
-2.900000
  0
LINE
  8
0
 62
7
  6
CONTINUOUS
 10
27.900000
 20
62.900000
 11
-2.900000
 21
62.900000
  0
ENDBLK
  0
BLOCK
  8
3
  2
1_0uf2020_d
 70
 0
 10
0.0
 20
0.0
 30
0.0
  0
SOLID
  8
3
 62
255
  6
CONTINUOUS
 10
27.500000
 20
62.500000
 11
27.500000
 21
-2.500000
 12
-2.500000
 22
62.500000
 13
-2.500000
 23
-2.500000
  0
POLYLINE
  8
3
 62
7
  6
CONTINUOUS
 70
1
 66
1
  0
VERTEX
 10
27.500000
 20
62.500000
 30
0.000000
  8
3
 62
7
  6
CONTINUOUS
  0
VERTEX
 10
27.500000
 20
-2.500000
 30
0.000000
  8
3
 62
7
  6
CONTINUOUS
  0
VERTEX
 10
-2.500000
 20
-2.500000
 30
0.000000
  8
3
 62
7
  6
CONTINUOUS
  0
VERTEX
 10
-2.500000
 20
62.500000
 30
0.000000
  8
3
 62
7
  6
CONTINUOUS
  0
SEQEND
  0
ENDBLK
  0
BLOCK
  8
7
  2
zh_bs
 70
 0
 10
0.0
 20
0.0
 30
0.0
  0
SOLID
  8
7
 62
255
  6
CONTINUOUS
 10
12.000000
 20
-1.500000
 11
12.000000
 21
1.500000
 12
-1.100000
 22
-1.500000
 13
-1.100000
 23
1.500000
  0
POLYLINE
  8
7
 62
7
  6
CONTINUOUS
 70
1
 66
1
  0
VERTEX
 10
12.000000
 20
-1.500000
 30
0.000000
  8
7
 62
7
  6
CONTINUOUS
  0
VERTEX
 10
12.000000
 20
1.500000
 30
0.000000
  8
7
 62
7
  6
CONTINUOUS
  0
VERTEX
 10
-1.100000
 20
1.500000
 30
0.000000
  8
7
 62
7
  6
CONTINUOUS
  0
VERTEX
 10
-1.100000
 20
-1.500000
 30
0.000000
  8
7
 62
7
  6
CONTINUOUS
  0
SEQEND
  0
CIRCLE
  8
7
 62
7
  6
CONTINUOUS
 10
9.000000
 20
0.000000
 30
0.0
 40
1.000000
  0
CIRCLE
  8
7
 62
7
  6
CONTINUOUS
 10
9.000000
 20
0.000000
 30
0.0
 40
0.600000
  0
ENDBLK
  0
ENDSEC
  0
SECTION
  2
ENTITIES
  0
INSERT
  8
0
 2
1_0uf2020_e
 10
0.000000
 20
0.000000
 30
0.0
 50
0.0
  0
INSERT
  8
3
 2
1_0uf2020_d
 10
0.000000
 20
0.000000
 30
0.0
 50
0.0
  0
INSERT
  8
7
 2
zh_bs
 10
0.000000
 20
30.000000
 30
0.0
 50
0.0
  0
ENDSEC
  0
EOF
