  0
SECTION
  2
HEADER
  9
$ACADVER
  1
AC1009
  9
$INSBASE
 10
0.0
 20
0.0
 30
0.0
  9
$EXTMIN
 10
0.0
 20
0.0
 30
0.0
  9
$EXTMAX
 10
0.000000
 20
0.000000
 30
0.0
  9
$LIMMIN
 10
0.0
 20
0.0
  9
$LIMMAX
 10
0.000000
 20
0.000000
  0
ENDSEC
  0
SECTION
  2
TABLES
  0
TABLE
  2
LTYPE
 70
8
  0
LTYPE
  2
CONTINUOUS
 70
64
  3
Solid line
 72
65
 73
0
 40
0.000000
  0
LTYPE
  2
L000000000000000000
 70
64
  3
Solid line
 72
65
 73
0
 40
0.000000
  0
LTYPE
  2
L000000020000FFFFFF
 70
64
  3
Solid line
 72
65
 73
0
 40
0.000000
  0
LTYPE
  2
L000000040000FFFFFF
 70
64
  3
Solid line
 72
65
 73
0
 40
0.000000
  0
LTYPE
  2
L014100000000000000
 70
64
  3
- - - - - - - -
 72
65
 73
2
 40
0.000000
 49
42949672.760000
 49
-0.200000
  0
LTYPE
  2
L014100020032000000
 70
64
  3
- - - - - - - -
 72
65
 73
2
 40
0.500000
 49
0.300000
 49
-0.200000
  0
LTYPE
  2
L000000010000000000
 70
64
  3
Solid line
 72
65
 73
0
 40
0.000000
  0
LTYPE
  2
L000000020000008000
 70
64
  3
Solid line
 72
65
 73
0
 40
0.000000
  0
ENDTAB
  0
TABLE
  2
LAYER
 70
8
  0
LAYER
  2
0
 70
64
 62
7
  6
CONTINUOUS
  0
LAYER
  2
1
 70
64
 62
7
  6
CONTINUOUS
  0
LAYER
  2
2
 70
64
 62
7
  6
CONTINUOUS
  0
LAYER
  2
3
 70
64
 62
7
  6
CONTINUOUS
  0
LAYER
  2
4
 70
64
 62
7
  6
CONTINUOUS
  0
LAYER
  2
5
 70
64
 62
7
  6
CONTINUOUS
  0
LAYER
  2
6
 70
64
 62
7
  6
CONTINUOUS
  0
LAYER
  2
7
 70
64
 62
7
  6
CONTINUOUS
  0
LAYER
  2
8
 70
64
 62
7
  6
CONTINUOUS
  0
LAYER
  2
9
 70
64
 62
7
  6
CONTINUOUS
  0
LAYER
  2
10
 70
64
 62
7
  6
CONTINUOUS
  0
LAYER
  2
11
 70
64
 62
7
  6
CONTINUOUS
  0
LAYER
  2
12
 70
64
 62
7
  6
CONTINUOUS
  0
LAYER
  2
13
 70
64
 62
7
  6
CONTINUOUS
  0
LAYER
  2
14
 70
64
 62
7
  6
CONTINUOUS
  0
LAYER
  2
15
 70
64
 62
-7
  6
CONTINUOUS
  0
LAYER
  2
16
 70
64
 62
7
  6
CONTINUOUS
  0
LAYER
  2
17
 70
64
 62
7
  6
CONTINUOUS
  0
LAYER
  2
18
 70
64
 62
7
  6
CONTINUOUS
  0
LAYER
  2
19
 70
64
 62
7
  6
CONTINUOUS
  0
LAYER
  2
20
 70
64
 62
7
  6
CONTINUOUS
  0
LAYER
  2
21
 70
64
 62
7
  6
CONTINUOUS
  0
LAYER
  2
22
 70
64
 62
7
  6
CONTINUOUS
  0
LAYER
  2
23
 70
64
 62
7
  6
CONTINUOUS
  0
LAYER
  2
24
 70
64
 62
7
  6
CONTINUOUS
  0
LAYER
  2
25
 70
64
 62
7
  6
CONTINUOUS
  0
LAYER
  2
26
 70
64
 62
7
  6
CONTINUOUS
  0
LAYER
  2
27
 70
64
 62
7
  6
CONTINUOUS
  0
LAYER
  2
28
 70
64
 62
7
  6
CONTINUOUS
  0
LAYER
  2
29
 70
64
 62
-7
  6
CONTINUOUS
  0
LAYER
  2
30
 70
64
 62
7
  6
CONTINUOUS
  0
LAYER
  2
31
 70
64
 62
7
  6
CONTINUOUS
  0
LAYER
  2
32
 70
64
 62
7
  6
CONTINUOUS
  0
LAYER
  2
33
 70
64
 62
7
  6
CONTINUOUS
  0
LAYER
  2
34
 70
64
 62
7
  6
CONTINUOUS
  0
LAYER
  2
35
 70
64
 62
7
  6
CONTINUOUS
  0
LAYER
  2
36
 70
64
 62
7
  6
CONTINUOUS
  0
LAYER
  2
37
 70
64
 62
7
  6
CONTINUOUS
  0
LAYER
  2
38
 70
64
 62
-7
  6
CONTINUOUS
  0
LAYER
  2
39
 70
64
 62
-7
  6
CONTINUOUS
  0
LAYER
  2
40
 70
64
 62
7
  6
CONTINUOUS
  0
LAYER
  2
41
 70
64
 62
7
  6
CONTINUOUS
  0
LAYER
  2
42
 70
64
 62
7
  6
CONTINUOUS
  0
LAYER
  2
43
 70
64
 62
7
  6
CONTINUOUS
  0
LAYER
  2
44
 70
64
 62
7
  6
CONTINUOUS
  0
LAYER
  2
45
 70
64
 62
7
  6
CONTINUOUS
  0
LAYER
  2
46
 70
64
 62
7
  6
CONTINUOUS
  0
LAYER
  2
47
 70
64
 62
7
  6
CONTINUOUS
  0
LAYER
  2
48
 70
64
 62
7
  6
CONTINUOUS
  0
LAYER
  2
49
 70
64
 62
7
  6
CONTINUOUS
  0
LAYER
  2
50
 70
64
 62
7
  6
CONTINUOUS
  0
LAYER
  2
51
 70
64
 62
7
  6
CONTINUOUS
  0
LAYER
  2
52
 70
64
 62
7
  6
CONTINUOUS
  0
LAYER
  2
53
 70
64
 62
7
  6
CONTINUOUS
  0
LAYER
  2
54
 70
64
 62
7
  6
CONTINUOUS
  0
LAYER
  2
55
 70
64
 62
7
  6
CONTINUOUS
  0
LAYER
  2
56
 70
64
 62
7
  6
CONTINUOUS
  0
LAYER
  2
57
 70
64
 62
-7
  6
CONTINUOUS
  0
LAYER
  2
58
 70
64
 62
-7
  6
CONTINUOUS
  0
LAYER
  2
59
 70
64
 62
-7
  6
CONTINUOUS
  0
LAYER
  2
60
 70
64
 62
7
  6
CONTINUOUS
  0
LAYER
  2
61
 70
64
 62
7
  6
CONTINUOUS
  0
LAYER
  2
62
 70
64
 62
7
  6
CONTINUOUS
  0
LAYER
  2
63
 70
64
 62
7
  6
CONTINUOUS
  0
LAYER
  2
64
 70
64
 62
7
  6
CONTINUOUS
  0
LAYER
  2
65
 70
64
 62
7
  6
CONTINUOUS
  0
LAYER
  2
66
 70
64
 62
7
  6
CONTINUOUS
  0
LAYER
  2
67
 70
64
 62
7
  6
CONTINUOUS
  0
LAYER
  2
68
 70
64
 62
7
  6
CONTINUOUS
  0
LAYER
  2
69
 70
64
 62
7
  6
CONTINUOUS
  0
LAYER
  2
70
 70
64
 62
7
  6
CONTINUOUS
  0
LAYER
  2
71
 70
64
 62
7
  6
CONTINUOUS
  0
LAYER
  2
72
 70
64
 62
7
  6
CONTINUOUS
  0
LAYER
  2
73
 70
64
 62
7
  6
CONTINUOUS
  0
LAYER
  2
74
 70
64
 62
7
  6
CONTINUOUS
  0
LAYER
  2
75
 70
64
 62
7
  6
CONTINUOUS
  0
LAYER
  2
76
 70
64
 62
7
  6
CONTINUOUS
  0
LAYER
  2
77
 70
64
 62
7
  6
CONTINUOUS
  0
LAYER
  2
78
 70
64
 62
7
  6
CONTINUOUS
  0
LAYER
  2
79
 70
64
 62
7
  6
CONTINUOUS
  0
LAYER
  2
80
 70
64
 62
7
  6
CONTINUOUS
  0
LAYER
  2
81
 70
64
 62
7
  6
CONTINUOUS
  0
LAYER
  2
82
 70
64
 62
7
  6
CONTINUOUS
  0
LAYER
  2
83
 70
64
 62
7
  6
CONTINUOUS
  0
LAYER
  2
84
 70
64
 62
7
  6
CONTINUOUS
  0
LAYER
  2
85
 70
64
 62
7
  6
CONTINUOUS
  0
LAYER
  2
86
 70
64
 62
7
  6
CONTINUOUS
  0
LAYER
  2
87
 70
64
 62
7
  6
CONTINUOUS
  0
LAYER
  2
88
 70
64
 62
7
  6
CONTINUOUS
  0
LAYER
  2
89
 70
64
 62
7
  6
CONTINUOUS
  0
LAYER
  2
90
 70
64
 62
7
  6
CONTINUOUS
  0
LAYER
  2
91
 70
64
 62
7
  6
CONTINUOUS
  0
LAYER
  2
92
 70
64
 62
7
  6
CONTINUOUS
  0
LAYER
  2
93
 70
64
 62
7
  6
CONTINUOUS
  0
LAYER
  2
94
 70
64
 62
7
  6
CONTINUOUS
  0
LAYER
  2
95
 70
64
 62
7
  6
CONTINUOUS
  0
LAYER
  2
96
 70
64
 62
7
  6
CONTINUOUS
  0
LAYER
  2
97
 70
64
 62
7
  6
CONTINUOUS
  0
LAYER
  2
98
 70
64
 62
7
  6
CONTINUOUS
  0
LAYER
  2
99
 70
64
 62
7
  6
CONTINUOUS
  0
LAYER
  2
100
 70
64
 62
7
  6
CONTINUOUS
  0
LAYER
  2
101
 70
64
 62
7
  6
CONTINUOUS
  0
LAYER
  2
102
 70
64
 62
7
  6
CONTINUOUS
  0
LAYER
  2
103
 70
64
 62
7
  6
CONTINUOUS
  0
LAYER
  2
104
 70
64
 62
7
  6
CONTINUOUS
  0
LAYER
  2
105
 70
64
 62
7
  6
CONTINUOUS
  0
LAYER
  2
106
 70
64
 62
7
  6
CONTINUOUS
  0
LAYER
  2
107
 70
64
 62
7
  6
CONTINUOUS
  0
LAYER
  2
108
 70
64
 62
7
  6
CONTINUOUS
  0
LAYER
  2
109
 70
64
 62
7
  6
CONTINUOUS
  0
LAYER
  2
110
 70
64
 62
7
  6
CONTINUOUS
  0
LAYER
  2
111
 70
64
 62
7
  6
CONTINUOUS
  0
LAYER
  2
112
 70
64
 62
7
  6
CONTINUOUS
  0
LAYER
  2
113
 70
64
 62
7
  6
CONTINUOUS
  0
LAYER
  2
114
 70
64
 62
7
  6
CONTINUOUS
  0
LAYER
  2
115
 70
64
 62
7
  6
CONTINUOUS
  0
LAYER
  2
116
 70
64
 62
7
  6
CONTINUOUS
  0
LAYER
  2
117
 70
64
 62
7
  6
CONTINUOUS
  0
LAYER
  2
118
 70
64
 62
7
  6
CONTINUOUS
  0
LAYER
  2
119
 70
64
 62
7
  6
CONTINUOUS
  0
LAYER
  2
120
 70
64
 62
7
  6
CONTINUOUS
  0
LAYER
  2
121
 70
64
 62
7
  6
CONTINUOUS
  0
LAYER
  2
122
 70
64
 62
7
  6
CONTINUOUS
  0
LAYER
  2
123
 70
64
 62
7
  6
CONTINUOUS
  0
LAYER
  2
124
 70
64
 62
7
  6
CONTINUOUS
  0
LAYER
  2
125
 70
64
 62
7
  6
CONTINUOUS
  0
LAYER
  2
126
 70
64
 62
7
  6
CONTINUOUS
  0
LAYER
  2
127
 70
64
 62
7
  6
CONTINUOUS
  0
LAYER
  2
128
 70
64
 62
7
  6
CONTINUOUS
  0
LAYER
  2
129
 70
64
 62
7
  6
CONTINUOUS
  0
LAYER
  2
130
 70
64
 62
7
  6
CONTINUOUS
  0
LAYER
  2
131
 70
64
 62
7
  6
CONTINUOUS
  0
LAYER
  2
132
 70
64
 62
7
  6
CONTINUOUS
  0
LAYER
  2
133
 70
64
 62
7
  6
CONTINUOUS
  0
LAYER
  2
134
 70
64
 62
7
  6
CONTINUOUS
  0
LAYER
  2
135
 70
64
 62
7
  6
CONTINUOUS
  0
LAYER
  2
136
 70
64
 62
7
  6
CONTINUOUS
  0
LAYER
  2
137
 70
64
 62
7
  6
CONTINUOUS
  0
LAYER
  2
138
 70
64
 62
7
  6
CONTINUOUS
  0
LAYER
  2
139
 70
64
 62
7
  6
CONTINUOUS
  0
LAYER
  2
140
 70
64
 62
7
  6
CONTINUOUS
  0
LAYER
  2
141
 70
64
 62
7
  6
CONTINUOUS
  0
LAYER
  2
142
 70
64
 62
7
  6
CONTINUOUS
  0
LAYER
  2
143
 70
64
 62
7
  6
CONTINUOUS
  0
LAYER
  2
144
 70
64
 62
7
  6
CONTINUOUS
  0
LAYER
  2
145
 70
64
 62
7
  6
CONTINUOUS
  0
LAYER
  2
146
 70
64
 62
7
  6
CONTINUOUS
  0
LAYER
  2
147
 70
64
 62
7
  6
CONTINUOUS
  0
LAYER
  2
148
 70
64
 62
7
  6
CONTINUOUS
  0
LAYER
  2
149
 70
64
 62
7
  6
CONTINUOUS
  0
LAYER
  2
150
 70
64
 62
7
  6
CONTINUOUS
  0
LAYER
  2
151
 70
64
 62
7
  6
CONTINUOUS
  0
LAYER
  2
152
 70
64
 62
7
  6
CONTINUOUS
  0
LAYER
  2
153
 70
64
 62
7
  6
CONTINUOUS
  0
LAYER
  2
154
 70
64
 62
7
  6
CONTINUOUS
  0
LAYER
  2
155
 70
64
 62
-7
  6
CONTINUOUS
  0
LAYER
  2
156
 70
64
 62
-7
  6
CONTINUOUS
  0
LAYER
  2
157
 70
64
 62
-7
  6
CONTINUOUS
  0
LAYER
  2
158
 70
64
 62
-7
  6
CONTINUOUS
  0
LAYER
  2
159
 70
64
 62
-7
  6
CONTINUOUS
  0
LAYER
  2
160
 70
64
 62
-7
  6
CONTINUOUS
  0
LAYER
  2
161
 70
64
 62
-7
  6
CONTINUOUS
  0
LAYER
  2
162
 70
64
 62
-7
  6
CONTINUOUS
  0
LAYER
  2
163
 70
64
 62
-7
  6
CONTINUOUS
  0
LAYER
  2
164
 70
64
 62
7
  6
CONTINUOUS
  0
LAYER
  2
165
 70
64
 62
7
  6
CONTINUOUS
  0
LAYER
  2
166
 70
64
 62
7
  6
CONTINUOUS
  0
LAYER
  2
167
 70
64
 62
7
  6
CONTINUOUS
  0
LAYER
  2
168
 70
64
 62
7
  6
CONTINUOUS
  0
LAYER
  2
169
 70
64
 62
7
  6
CONTINUOUS
  0
LAYER
  2
170
 70
64
 62
7
  6
CONTINUOUS
  0
LAYER
  2
171
 70
64
 62
7
  6
CONTINUOUS
  0
LAYER
  2
172
 70
64
 62
7
  6
CONTINUOUS
  0
LAYER
  2
173
 70
64
 62
7
  6
CONTINUOUS
  0
LAYER
  2
174
 70
64
 62
7
  6
CONTINUOUS
  0
LAYER
  2
175
 70
64
 62
7
  6
CONTINUOUS
  0
LAYER
  2
176
 70
64
 62
7
  6
CONTINUOUS
  0
LAYER
  2
177
 70
64
 62
7
  6
CONTINUOUS
  0
LAYER
  2
178
 70
64
 62
7
  6
CONTINUOUS
  0
LAYER
  2
179
 70
64
 62
7
  6
CONTINUOUS
  0
LAYER
  2
180
 70
64
 62
7
  6
CONTINUOUS
  0
LAYER
  2
181
 70
64
 62
7
  6
CONTINUOUS
  0
LAYER
  2
182
 70
64
 62
7
  6
CONTINUOUS
  0
LAYER
  2
183
 70
64
 62
7
  6
CONTINUOUS
  0
LAYER
  2
184
 70
64
 62
7
  6
CONTINUOUS
  0
LAYER
  2
185
 70
64
 62
7
  6
CONTINUOUS
  0
LAYER
  2
186
 70
64
 62
7
  6
CONTINUOUS
  0
LAYER
  2
187
 70
64
 62
7
  6
CONTINUOUS
  0
LAYER
  2
188
 70
64
 62
7
  6
CONTINUOUS
  0
LAYER
  2
189
 70
64
 62
7
  6
CONTINUOUS
  0
LAYER
  2
190
 70
64
 62
7
  6
CONTINUOUS
  0
LAYER
  2
191
 70
64
 62
7
  6
CONTINUOUS
  0
LAYER
  2
192
 70
64
 62
7
  6
CONTINUOUS
  0
LAYER
  2
193
 70
64
 62
7
  6
CONTINUOUS
  0
LAYER
  2
194
 70
64
 62
7
  6
CONTINUOUS
  0
LAYER
  2
195
 70
64
 62
7
  6
CONTINUOUS
  0
LAYER
  2
196
 70
64
 62
7
  6
CONTINUOUS
  0
LAYER
  2
197
 70
64
 62
7
  6
CONTINUOUS
  0
LAYER
  2
198
 70
64
 62
7
  6
CONTINUOUS
  0
LAYER
  2
199
 70
64
 62
7
  6
CONTINUOUS
  0
ENDTAB
  0
ENDSEC
  0
SECTION
  2
BLOCKS
  0
BLOCK
  8
0
  2
ws17nl16
 70
 0
 10
0.0
 20
0.0
 30
0.0
  0
SOLID
  8
1
 62
255
  6
CONTINUOUS
 10
24.800000
 20
90.200000
 11
24.800000
 21
104.800000
 12
0.200000
 22
90.200000
 13
0.200000
 23
104.800000
  0
POLYLINE
  8
1
 62
7
  6
CONTINUOUS
 70
1
 66
1
  0
VERTEX
 10
24.800000
 20
90.200000
 30
0.000000
  8
1
 62
7
  6
CONTINUOUS
  0
VERTEX
 10
24.800000
 20
104.800000
 30
0.000000
  8
1
 62
7
  6
CONTINUOUS
  0
VERTEX
 10
0.200000
 20
104.800000
 30
0.000000
  8
1
 62
7
  6
CONTINUOUS
  0
VERTEX
 10
0.200000
 20
90.200000
 30
0.000000
  8
1
 62
7
  6
CONTINUOUS
  0
SEQEND
  0
LINE
  8
1
 62
7
  6
CONTINUOUS
 10
1.000000
 20
95.500000
 11
1.000000
 21
95.000000
  0
LINE
  8
1
 62
7
  6
CONTINUOUS
 10
1.000000
 20
92.100000
 11
1.000000
 21
92.600000
  0
LINE
  8
1
 62
7
  6
CONTINUOUS
 10
1.400000
 20
93.800000
 11
0.500000
 21
93.800000
  0
CIRCLE
  8
1
 62
7
  6
CONTINUOUS
 10
1.000000
 20
93.800000
 30
0.0
 40
0.700000
  0
LINE
  8
1
 62
7
  6
CONTINUOUS
 10
1.000000
 20
102.900000
 11
1.000000
 21
102.400000
  0
LINE
  8
1
 62
7
  6
CONTINUOUS
 10
1.000000
 20
99.500000
 11
1.000000
 21
100.000000
  0
LINE
  8
1
 62
7
  6
CONTINUOUS
 10
1.400000
 20
101.200000
 11
0.500000
 21
101.200000
  0
CIRCLE
  8
1
 62
7
  6
CONTINUOUS
 10
1.000000
 20
101.200000
 30
0.0
 40
0.700000
  0
LINE
  8
1
 62
7
  6
CONTINUOUS
 10
1.000000
 20
102.900000
 11
1.000000
 21
102.400000
  0
LINE
  8
1
 62
7
  6
CONTINUOUS
 10
1.000000
 20
99.500000
 11
1.000000
 21
100.000000
  0
LINE
  8
1
 62
7
  6
CONTINUOUS
 10
1.400000
 20
101.200000
 11
0.500000
 21
101.200000
  0
CIRCLE
  8
1
 62
7
  6
CONTINUOUS
 10
1.000000
 20
101.200000
 30
0.0
 40
0.700000
  0
LINE
  8
1
 62
7
  6
CONTINUOUS
 10
24.000000
 20
95.500000
 11
24.000000
 21
95.000000
  0
LINE
  8
1
 62
7
  6
CONTINUOUS
 10
24.000000
 20
92.100000
 11
24.000000
 21
92.600000
  0
LINE
  8
1
 62
7
  6
CONTINUOUS
 10
23.600000
 20
93.800000
 11
24.500000
 21
93.800000
  0
CIRCLE
  8
1
 62
7
  6
CONTINUOUS
 10
24.000000
 20
93.800000
 30
0.0
 40
0.700000
  0
LINE
  8
1
 62
7
  6
CONTINUOUS
 10
24.000000
 20
102.900000
 11
24.000000
 21
102.400000
  0
LINE
  8
1
 62
7
  6
CONTINUOUS
 10
24.000000
 20
99.500000
 11
24.000000
 21
100.000000
  0
LINE
  8
1
 62
7
  6
CONTINUOUS
 10
23.600000
 20
101.200000
 11
24.500000
 21
101.200000
  0
CIRCLE
  8
1
 62
7
  6
CONTINUOUS
 10
24.000000
 20
101.200000
 30
0.0
 40
0.700000
  0
LINE
  8
1
 62
7
  6
CONTINUOUS
 10
24.000000
 20
102.900000
 11
24.000000
 21
102.400000
  0
LINE
  8
1
 62
7
  6
CONTINUOUS
 10
24.000000
 20
99.500000
 11
24.000000
 21
100.000000
  0
LINE
  8
1
 62
7
  6
CONTINUOUS
 10
23.600000
 20
101.200000
 11
24.500000
 21
101.200000
  0
CIRCLE
  8
1
 62
7
  6
CONTINUOUS
 10
24.000000
 20
101.200000
 30
0.0
 40
0.700000
  0
SOLID
  8
1
 62
255
  6
CONTINUOUS
 10
24.800000
 20
0.200000
 11
24.800000
 21
14.800000
 12
0.200000
 22
0.200000
 13
0.200000
 23
14.800000
  0
POLYLINE
  8
1
 62
7
  6
CONTINUOUS
 70
1
 66
1
  0
VERTEX
 10
24.800000
 20
0.200000
 30
0.000000
  8
1
 62
7
  6
CONTINUOUS
  0
VERTEX
 10
24.800000
 20
14.800000
 30
0.000000
  8
1
 62
7
  6
CONTINUOUS
  0
VERTEX
 10
0.200000
 20
14.800000
 30
0.000000
  8
1
 62
7
  6
CONTINUOUS
  0
VERTEX
 10
0.200000
 20
0.200000
 30
0.000000
  8
1
 62
7
  6
CONTINUOUS
  0
SEQEND
  0
LINE
  8
1
 62
7
  6
CONTINUOUS
 10
1.000000
 20
5.500000
 11
1.000000
 21
5.000000
  0
LINE
  8
1
 62
7
  6
CONTINUOUS
 10
1.000000
 20
2.100000
 11
1.000000
 21
2.600000
  0
LINE
  8
1
 62
7
  6
CONTINUOUS
 10
1.400000
 20
3.800000
 11
0.500000
 21
3.800000
  0
CIRCLE
  8
1
 62
7
  6
CONTINUOUS
 10
1.000000
 20
3.800000
 30
0.0
 40
0.700000
  0
LINE
  8
1
 62
7
  6
CONTINUOUS
 10
1.000000
 20
12.900000
 11
1.000000
 21
12.400000
  0
LINE
  8
1
 62
7
  6
CONTINUOUS
 10
1.000000
 20
9.500000
 11
1.000000
 21
10.000000
  0
LINE
  8
1
 62
7
  6
CONTINUOUS
 10
1.400000
 20
11.200000
 11
0.500000
 21
11.200000
  0
CIRCLE
  8
1
 62
7
  6
CONTINUOUS
 10
1.000000
 20
11.200000
 30
0.0
 40
0.700000
  0
LINE
  8
1
 62
7
  6
CONTINUOUS
 10
1.000000
 20
12.900000
 11
1.000000
 21
12.400000
  0
LINE
  8
1
 62
7
  6
CONTINUOUS
 10
1.000000
 20
9.500000
 11
1.000000
 21
10.000000
  0
LINE
  8
1
 62
7
  6
CONTINUOUS
 10
1.400000
 20
11.200000
 11
0.500000
 21
11.200000
  0
CIRCLE
  8
1
 62
7
  6
CONTINUOUS
 10
1.000000
 20
11.200000
 30
0.0
 40
0.700000
  0
LINE
  8
1
 62
7
  6
CONTINUOUS
 10
24.000000
 20
5.500000
 11
24.000000
 21
5.000000
  0
LINE
  8
1
 62
7
  6
CONTINUOUS
 10
24.000000
 20
2.100000
 11
24.000000
 21
2.600000
  0
LINE
  8
1
 62
7
  6
CONTINUOUS
 10
23.600000
 20
3.800000
 11
24.500000
 21
3.800000
  0
CIRCLE
  8
1
 62
7
  6
CONTINUOUS
 10
24.000000
 20
3.800000
 30
0.0
 40
0.700000
  0
LINE
  8
1
 62
7
  6
CONTINUOUS
 10
24.000000
 20
12.900000
 11
24.000000
 21
12.400000
  0
LINE
  8
1
 62
7
  6
CONTINUOUS
 10
24.000000
 20
9.500000
 11
24.000000
 21
10.000000
  0
LINE
  8
1
 62
7
  6
CONTINUOUS
 10
23.600000
 20
11.200000
 11
24.500000
 21
11.200000
  0
CIRCLE
  8
1
 62
7
  6
CONTINUOUS
 10
24.000000
 20
11.200000
 30
0.0
 40
0.700000
  0
LINE
  8
1
 62
7
  6
CONTINUOUS
 10
24.000000
 20
12.900000
 11
24.000000
 21
12.400000
  0
LINE
  8
1
 62
7
  6
CONTINUOUS
 10
24.000000
 20
9.500000
 11
24.000000
 21
10.000000
  0
LINE
  8
1
 62
7
  6
CONTINUOUS
 10
23.600000
 20
11.200000
 11
24.500000
 21
11.200000
  0
CIRCLE
  8
1
 62
7
  6
CONTINUOUS
 10
24.000000
 20
11.200000
 30
0.0
 40
0.700000
  0
SOLID
  8
1
 62
255
  6
CONTINUOUS
 10
24.800000
 20
60.200000
 11
24.800000
 21
89.800000
 12
0.200000
 22
60.200000
 13
0.200000
 23
89.800000
  0
POLYLINE
  8
1
 62
7
  6
CONTINUOUS
 70
1
 66
1
  0
VERTEX
 10
24.800000
 20
60.200000
 30
0.000000
  8
1
 62
7
  6
CONTINUOUS
  0
VERTEX
 10
24.800000
 20
89.800000
 30
0.000000
  8
1
 62
7
  6
CONTINUOUS
  0
VERTEX
 10
0.200000
 20
89.800000
 30
0.000000
  8
1
 62
7
  6
CONTINUOUS
  0
VERTEX
 10
0.200000
 20
60.200000
 30
0.000000
  8
1
 62
7
  6
CONTINUOUS
  0
SEQEND
  0
SOLID
  8
1
 62
255
  6
CONTINUOUS
 10
24.800000
 20
15.200000
 11
24.800000
 21
59.800000
 12
0.200000
 22
15.200000
 13
0.200000
 23
59.800000
  0
POLYLINE
  8
1
 62
7
  6
CONTINUOUS
 70
1
 66
1
  0
VERTEX
 10
24.800000
 20
15.200000
 30
0.000000
  8
1
 62
7
  6
CONTINUOUS
  0
VERTEX
 10
24.800000
 20
59.800000
 30
0.000000
  8
1
 62
7
  6
CONTINUOUS
  0
VERTEX
 10
0.200000
 20
59.800000
 30
0.000000
  8
1
 62
7
  6
CONTINUOUS
  0
VERTEX
 10
0.200000
 20
15.200000
 30
0.000000
  8
1
 62
7
  6
CONTINUOUS
  0
SEQEND
  0
LINE
  8
1
 62
7
  6
CONTINUOUS
 10
1.000000
 20
65.500000
 11
1.000000
 21
65.000000
  0
LINE
  8
1
 62
7
  6
CONTINUOUS
 10
1.000000
 20
62.100000
 11
1.000000
 21
62.600000
  0
LINE
  8
1
 62
7
  6
CONTINUOUS
 10
1.400000
 20
63.800000
 11
0.500000
 21
63.800000
  0
CIRCLE
  8
1
 62
7
  6
CONTINUOUS
 10
1.000000
 20
63.800000
 30
0.0
 40
0.700000
  0
LINE
  8
1
 62
7
  6
CONTINUOUS
 10
1.000000
 20
57.900000
 11
1.000000
 21
57.400000
  0
LINE
  8
1
 62
7
  6
CONTINUOUS
 10
1.000000
 20
54.500000
 11
1.000000
 21
55.000000
  0
LINE
  8
1
 62
7
  6
CONTINUOUS
 10
1.400000
 20
56.200000
 11
0.500000
 21
56.200000
  0
CIRCLE
  8
1
 62
7
  6
CONTINUOUS
 10
1.000000
 20
56.200000
 30
0.0
 40
0.700000
  0
LINE
  8
1
 62
7
  6
CONTINUOUS
 10
1.000000
 20
57.900000
 11
1.000000
 21
57.400000
  0
LINE
  8
1
 62
7
  6
CONTINUOUS
 10
1.000000
 20
54.500000
 11
1.000000
 21
55.000000
  0
LINE
  8
1
 62
7
  6
CONTINUOUS
 10
1.400000
 20
56.200000
 11
0.500000
 21
56.200000
  0
CIRCLE
  8
1
 62
7
  6
CONTINUOUS
 10
1.000000
 20
56.200000
 30
0.0
 40
0.700000
  0
LINE
  8
1
 62
7
  6
CONTINUOUS
 10
24.000000
 20
65.500000
 11
24.000000
 21
65.000000
  0
LINE
  8
1
 62
7
  6
CONTINUOUS
 10
24.000000
 20
62.100000
 11
24.000000
 21
62.600000
  0
LINE
  8
1
 62
7
  6
CONTINUOUS
 10
23.600000
 20
63.800000
 11
24.500000
 21
63.800000
  0
CIRCLE
  8
1
 62
7
  6
CONTINUOUS
 10
24.000000
 20
63.800000
 30
0.0
 40
0.700000
  0
LINE
  8
1
 62
7
  6
CONTINUOUS
 10
24.000000
 20
57.900000
 11
24.000000
 21
57.400000
  0
LINE
  8
1
 62
7
  6
CONTINUOUS
 10
24.000000
 20
54.500000
 11
24.000000
 21
55.000000
  0
LINE
  8
1
 62
7
  6
CONTINUOUS
 10
23.600000
 20
56.200000
 11
24.500000
 21
56.200000
  0
CIRCLE
  8
1
 62
7
  6
CONTINUOUS
 10
24.000000
 20
56.200000
 30
0.0
 40
0.700000
  0
LINE
  8
1
 62
7
  6
CONTINUOUS
 10
24.000000
 20
57.900000
 11
24.000000
 21
57.400000
  0
LINE
  8
1
 62
7
  6
CONTINUOUS
 10
24.000000
 20
54.500000
 11
24.000000
 21
55.000000
  0
LINE
  8
1
 62
7
  6
CONTINUOUS
 10
23.600000
 20
56.200000
 11
24.500000
 21
56.200000
  0
CIRCLE
  8
1
 62
7
  6
CONTINUOUS
 10
24.000000
 20
56.200000
 30
0.0
 40
0.700000
  0
LINE
  8
1
 62
7
  6
CONTINUOUS
 10
24.000000
 20
87.900000
 11
24.000000
 21
87.400000
  0
LINE
  8
1
 62
7
  6
CONTINUOUS
 10
24.000000
 20
84.500000
 11
24.000000
 21
85.000000
  0
LINE
  8
1
 62
7
  6
CONTINUOUS
 10
23.600000
 20
86.200000
 11
24.500000
 21
86.200000
  0
CIRCLE
  8
1
 62
7
  6
CONTINUOUS
 10
24.000000
 20
86.200000
 30
0.0
 40
0.700000
  0
LINE
  8
1
 62
7
  6
CONTINUOUS
 10
1.000000
 20
87.900000
 11
1.000000
 21
87.400000
  0
LINE
  8
1
 62
7
  6
CONTINUOUS
 10
1.000000
 20
84.500000
 11
1.000000
 21
85.000000
  0
LINE
  8
1
 62
7
  6
CONTINUOUS
 10
1.400000
 20
86.200000
 11
0.500000
 21
86.200000
  0
CIRCLE
  8
1
 62
7
  6
CONTINUOUS
 10
1.000000
 20
86.200000
 30
0.0
 40
0.700000
  0
LINE
  8
1
 62
7
  6
CONTINUOUS
 10
24.000000
 20
87.900000
 11
24.000000
 21
87.400000
  0
LINE
  8
1
 62
7
  6
CONTINUOUS
 10
24.000000
 20
84.500000
 11
24.000000
 21
85.000000
  0
LINE
  8
1
 62
7
  6
CONTINUOUS
 10
23.600000
 20
86.200000
 11
24.500000
 21
86.200000
  0
CIRCLE
  8
1
 62
7
  6
CONTINUOUS
 10
24.000000
 20
86.200000
 30
0.0
 40
0.700000
  0
LINE
  8
1
 62
7
  6
CONTINUOUS
 10
1.000000
 20
87.900000
 11
1.000000
 21
87.400000
  0
LINE
  8
1
 62
7
  6
CONTINUOUS
 10
1.000000
 20
84.500000
 11
1.000000
 21
85.000000
  0
LINE
  8
1
 62
7
  6
CONTINUOUS
 10
1.400000
 20
86.200000
 11
0.500000
 21
86.200000
  0
CIRCLE
  8
1
 62
7
  6
CONTINUOUS
 10
1.000000
 20
86.200000
 30
0.0
 40
0.700000
  0
LINE
  8
1
 62
7
  6
CONTINUOUS
 10
1.000000
 20
20.500000
 11
1.000000
 21
20.000000
  0
LINE
  8
1
 62
7
  6
CONTINUOUS
 10
1.000000
 20
17.100000
 11
1.000000
 21
17.600000
  0
LINE
  8
1
 62
7
  6
CONTINUOUS
 10
1.400000
 20
18.800000
 11
0.500000
 21
18.800000
  0
CIRCLE
  8
1
 62
7
  6
CONTINUOUS
 10
1.000000
 20
18.800000
 30
0.0
 40
0.700000
  0
LINE
  8
1
 62
7
  6
CONTINUOUS
 10
1.000000
 20
20.500000
 11
1.000000
 21
20.000000
  0
LINE
  8
1
 62
7
  6
CONTINUOUS
 10
24.000000
 20
20.500000
 11
24.000000
 21
20.000000
  0
LINE
  8
1
 62
7
  6
CONTINUOUS
 10
24.000000
 20
17.100000
 11
24.000000
 21
17.600000
  0
LINE
  8
1
 62
7
  6
CONTINUOUS
 10
23.600000
 20
18.800000
 11
24.500000
 21
18.800000
  0
CIRCLE
  8
1
 62
7
  6
CONTINUOUS
 10
24.000000
 20
18.800000
 30
0.0
 40
0.700000
  0
LINE
  8
1
 62
7
  6
CONTINUOUS
 10
24.000000
 20
20.500000
 11
24.000000
 21
20.000000
  0
POLYLINE
  8
1
 62
7
  6
L014100020032000000
 70
0
 66
1
  0
VERTEX
 10
0.200000
 20
31.700000
  8
1
 62
7
  6
L014100020032000000
  0
VERTEX
 10
24.800000
 20
31.700000
  8
1
 62
7
  6
L014100020032000000
  0
SEQEND
  0
POLYLINE
  8
1
 62
7
  6
L014100020032000000
 70
0
 66
1
  0
VERTEX
 10
0.200000
 20
36.300000
  8
1
 62
7
  6
L014100020032000000
  0
VERTEX
 10
24.800000
 20
36.300000
  8
1
 62
7
  6
L014100020032000000
  0
SEQEND
  0
POLYLINE
  8
1
 62
7
  6
L014100020032000000
 70
0
 66
1
  0
VERTEX
 10
0.200000
 20
46.700000
  8
1
 62
7
  6
L014100020032000000
  0
VERTEX
 10
24.800000
 20
46.700000
  8
1
 62
7
  6
L014100020032000000
  0
SEQEND
  0
POLYLINE
  8
1
 62
7
  6
L014100020032000000
 70
0
 66
1
  0
VERTEX
 10
0.200000
 20
51.300000
  8
1
 62
7
  6
L014100020032000000
  0
VERTEX
 10
24.800000
 20
51.300000
  8
1
 62
7
  6
L014100020032000000
  0
SEQEND
  0
SOLID
  8
29
 62
255
  6
CONTINUOUS
 10
24.800000
 20
90.200000
 11
24.800000
 21
104.800000
 12
0.200000
 22
90.200000
 13
0.200000
 23
104.800000
  0
POLYLINE
  8
29
 62
7
  6
CONTINUOUS
 70
1
 66
1
  0
VERTEX
 10
24.800000
 20
90.200000
 30
0.000000
  8
29
 62
7
  6
CONTINUOUS
  0
VERTEX
 10
24.800000
 20
104.800000
 30
0.000000
  8
29
 62
7
  6
CONTINUOUS
  0
VERTEX
 10
0.200000
 20
104.800000
 30
0.000000
  8
29
 62
7
  6
CONTINUOUS
  0
VERTEX
 10
0.200000
 20
90.200000
 30
0.000000
  8
29
 62
7
  6
CONTINUOUS
  0
SEQEND
  0
SOLID
  8
29
 62
255
  6
CONTINUOUS
 10
24.800000
 20
0.200000
 11
24.800000
 21
14.800000
 12
0.200000
 22
0.200000
 13
0.200000
 23
14.800000
  0
POLYLINE
  8
29
 62
7
  6
CONTINUOUS
 70
1
 66
1
  0
VERTEX
 10
24.800000
 20
0.200000
 30
0.000000
  8
29
 62
7
  6
CONTINUOUS
  0
VERTEX
 10
24.800000
 20
14.800000
 30
0.000000
  8
29
 62
7
  6
CONTINUOUS
  0
VERTEX
 10
0.200000
 20
14.800000
 30
0.000000
  8
29
 62
7
  6
CONTINUOUS
  0
VERTEX
 10
0.200000
 20
0.200000
 30
0.000000
  8
29
 62
7
  6
CONTINUOUS
  0
SEQEND
  0
SOLID
  8
29
 62
255
  6
CONTINUOUS
 10
24.800000
 20
60.200000
 11
24.800000
 21
89.800000
 12
0.200000
 22
60.200000
 13
0.200000
 23
89.800000
  0
POLYLINE
  8
29
 62
7
  6
CONTINUOUS
 70
1
 66
1
  0
VERTEX
 10
24.800000
 20
60.200000
 30
0.000000
  8
29
 62
7
  6
CONTINUOUS
  0
VERTEX
 10
24.800000
 20
89.800000
 30
0.000000
  8
29
 62
7
  6
CONTINUOUS
  0
VERTEX
 10
0.200000
 20
89.800000
 30
0.000000
  8
29
 62
7
  6
CONTINUOUS
  0
VERTEX
 10
0.200000
 20
60.200000
 30
0.000000
  8
29
 62
7
  6
CONTINUOUS
  0
SEQEND
  0
SOLID
  8
29
 62
255
  6
CONTINUOUS
 10
24.800000
 20
15.200000
 11
24.800000
 21
59.800000
 12
0.200000
 22
15.200000
 13
0.200000
 23
59.800000
  0
POLYLINE
  8
29
 62
7
  6
CONTINUOUS
 70
1
 66
1
  0
VERTEX
 10
24.800000
 20
15.200000
 30
0.000000
  8
29
 62
7
  6
CONTINUOUS
  0
VERTEX
 10
24.800000
 20
59.800000
 30
0.000000
  8
29
 62
7
  6
CONTINUOUS
  0
VERTEX
 10
0.200000
 20
59.800000
 30
0.000000
  8
29
 62
7
  6
CONTINUOUS
  0
VERTEX
 10
0.200000
 20
15.200000
 30
0.000000
  8
29
 62
7
  6
CONTINUOUS
  0
SEQEND
  0
POLYLINE
  8
29
 62
7
  6
CONTINUOUS
 70
0
 66
1
  0
VERTEX
 10
0.400000
 20
32.800000
  8
29
 62
7
  6
CONTINUOUS
  0
VERTEX
 10
24.600000
 20
32.800000
  8
29
 62
7
  6
CONTINUOUS
  0
SEQEND
  0
POLYLINE
  8
29
 62
7
  6
CONTINUOUS
 70
0
 66
1
  0
VERTEX
 10
0.400000
 20
35.300000
  8
29
 62
7
  6
CONTINUOUS
  0
VERTEX
 10
24.600000
 20
35.300000
  8
29
 62
7
  6
CONTINUOUS
  0
SEQEND
  0
POLYLINE
  8
29
 62
7
  6
CONTINUOUS
 70
1
 66
1
  0
VERTEX
 10
24.600000
 20
32.300000
 30
0.000000
  8
29
 62
7
  6
CONTINUOUS
  0
VERTEX
 10
24.600000
 20
35.800000
 30
0.000000
  8
29
 62
7
  6
CONTINUOUS
  0
VERTEX
 10
0.400000
 20
35.800000
 30
0.000000
  8
29
 62
7
  6
CONTINUOUS
  0
VERTEX
 10
0.400000
 20
32.300000
 30
0.000000
  8
29
 62
7
  6
CONTINUOUS
  0
SEQEND
  0
POLYLINE
  8
29
 62
7
  6
CONTINUOUS
 70
0
 66
1
  0
VERTEX
 10
0.400000
 20
47.800000
  8
29
 62
7
  6
CONTINUOUS
  0
VERTEX
 10
24.600000
 20
47.800000
  8
29
 62
7
  6
CONTINUOUS
  0
SEQEND
  0
POLYLINE
  8
29
 62
7
  6
CONTINUOUS
 70
0
 66
1
  0
VERTEX
 10
0.400000
 20
50.300000
  8
29
 62
7
  6
CONTINUOUS
  0
VERTEX
 10
24.600000
 20
50.300000
  8
29
 62
7
  6
CONTINUOUS
  0
SEQEND
  0
POLYLINE
  8
29
 62
7
  6
CONTINUOUS
 70
1
 66
1
  0
VERTEX
 10
24.600000
 20
47.300000
 30
0.000000
  8
29
 62
7
  6
CONTINUOUS
  0
VERTEX
 10
24.600000
 20
50.800000
 30
0.000000
  8
29
 62
7
  6
CONTINUOUS
  0
VERTEX
 10
0.400000
 20
50.800000
 30
0.000000
  8
29
 62
7
  6
CONTINUOUS
  0
VERTEX
 10
0.400000
 20
47.300000
 30
0.000000
  8
29
 62
7
  6
CONTINUOUS
  0
SEQEND
  0
SOLID
  8
60
 62
7
  6
CONTINUOUS
 10
20.500000
 20
80.500000
 11
20.500000
 21
22.000000
 12
18.500000
 22
80.500000
 13
18.500000
 23
22.000000
  0
POLYLINE
  8
60
 62
7
  6
CONTINUOUS
 70
1
 66
1
  0
VERTEX
 10
20.500000
 20
80.500000
 30
0.000000
  8
60
 62
7
  6
CONTINUOUS
  0
VERTEX
 10
20.500000
 20
22.000000
 30
0.000000
  8
60
 62
7
  6
CONTINUOUS
  0
VERTEX
 10
18.500000
 20
22.000000
 30
0.000000
  8
60
 62
7
  6
CONTINUOUS
  0
VERTEX
 10
18.500000
 20
80.500000
 30
0.000000
  8
60
 62
7
  6
CONTINUOUS
  0
SEQEND
  0
CIRCLE
  8
60
 62
255
  6
L000000020000FFFFFF
 10
19.500000
 20
78.800000
 30
0.0
 40
0.500000
  0
CIRCLE
  8
60
 62
255
  6
L000000020000FFFFFF
 10
16.000000
 20
23.700000
 30
0.0
 40
0.500000
  0
SOLID
  8
60
 62
7
  6
CONTINUOUS
 10
16.500000
 20
22.000000
 11
16.500000
 21
61.000000
 12
14.500000
 22
22.000000
 13
14.500000
 23
61.000000
  0
POLYLINE
  8
60
 62
7
  6
CONTINUOUS
 70
1
 66
1
  0
VERTEX
 10
16.500000
 20
22.000000
 30
0.000000
  8
60
 62
7
  6
CONTINUOUS
  0
VERTEX
 10
16.500000
 20
61.000000
 30
0.000000
  8
60
 62
7
  6
CONTINUOUS
  0
VERTEX
 10
14.500000
 20
61.000000
 30
0.000000
  8
60
 62
7
  6
CONTINUOUS
  0
VERTEX
 10
14.500000
 20
22.000000
 30
0.000000
  8
60
 62
7
  6
CONTINUOUS
  0
SEQEND
  0
CIRCLE
  8
60
 62
255
  6
L000000020000FFFFFF
 10
15.500000
 20
23.700000
 30
0.0
 40
0.500000
  0
CIRCLE
  8
60
 62
255
  6
L000000020000FFFFFF
 10
12.500000
 20
23.700000
 30
0.0
 40
0.500000
  0
SOLID
  8
60
 62
7
  6
CONTINUOUS
 10
13.500000
 20
22.000000
 11
13.500000
 21
61.000000
 12
11.500000
 22
22.000000
 13
11.500000
 23
61.000000
  0
POLYLINE
  8
60
 62
7
  6
CONTINUOUS
 70
1
 66
1
  0
VERTEX
 10
13.500000
 20
22.000000
 30
0.000000
  8
60
 62
7
  6
CONTINUOUS
  0
VERTEX
 10
13.500000
 20
61.000000
 30
0.000000
  8
60
 62
7
  6
CONTINUOUS
  0
VERTEX
 10
11.500000
 20
61.000000
 30
0.000000
  8
60
 62
7
  6
CONTINUOUS
  0
VERTEX
 10
11.500000
 20
22.000000
 30
0.000000
  8
60
 62
7
  6
CONTINUOUS
  0
SEQEND
  0
SOLID
  8
60
 62
7
  6
CONTINUOUS
 10
10.500000
 20
22.000000
 11
10.500000
 21
61.000000
 12
8.500000
 22
22.000000
 13
8.500000
 23
61.000000
  0
POLYLINE
  8
60
 62
7
  6
CONTINUOUS
 70
1
 66
1
  0
VERTEX
 10
10.500000
 20
22.000000
 30
0.000000
  8
60
 62
7
  6
CONTINUOUS
  0
VERTEX
 10
10.500000
 20
61.000000
 30
0.000000
  8
60
 62
7
  6
CONTINUOUS
  0
VERTEX
 10
8.500000
 20
61.000000
 30
0.000000
  8
60
 62
7
  6
CONTINUOUS
  0
VERTEX
 10
8.500000
 20
22.000000
 30
0.000000
  8
60
 62
7
  6
CONTINUOUS
  0
SEQEND
  0
SOLID
  8
60
 62
7
  6
CONTINUOUS
 10
7.500000
 20
22.000000
 11
7.500000
 21
61.000000
 12
5.500000
 22
22.000000
 13
5.500000
 23
61.000000
  0
POLYLINE
  8
60
 62
7
  6
CONTINUOUS
 70
1
 66
1
  0
VERTEX
 10
7.500000
 20
22.000000
 30
0.000000
  8
60
 62
7
  6
CONTINUOUS
  0
VERTEX
 10
7.500000
 20
61.000000
 30
0.000000
  8
60
 62
7
  6
CONTINUOUS
  0
VERTEX
 10
5.500000
 20
61.000000
 30
0.000000
  8
60
 62
7
  6
CONTINUOUS
  0
VERTEX
 10
5.500000
 20
22.000000
 30
0.000000
  8
60
 62
7
  6
CONTINUOUS
  0
SEQEND
  0
CIRCLE
  8
60
 62
255
  6
L000000020000FFFFFF
 10
12.500000
 20
23.700000
 30
0.0
 40
0.500000
  0
CIRCLE
  8
60
 62
255
  6
L000000020000FFFFFF
 10
9.500000
 20
23.700000
 30
0.0
 40
0.500000
  0
CIRCLE
  8
60
 62
255
  6
L000000020000FFFFFF
 10
6.500000
 20
23.700000
 30
0.0
 40
0.500000
  0
CIRCLE
  8
60
 62
255
  6
L000000020000FFFFFF
 10
19.500000
 20
23.700000
 30
0.0
 40
0.500000
  0
CIRCLE
  8
60
 62
255
  6
L000000020000FFFFFF
 10
12.500000
 20
76.500000
 30
0.0
 40
0.500000
  0
SOLID
  8
60
 62
7
  6
CONTINUOUS
 10
13.400000
 20
78.000000
 11
13.400000
 21
74.000000
 12
11.600000
 22
78.000000
 13
11.600000
 23
74.000000
  0
POLYLINE
  8
60
 62
7
  6
CONTINUOUS
 70
1
 66
1
  0
VERTEX
 10
13.400000
 20
78.000000
 30
0.000000
  8
60
 62
7
  6
CONTINUOUS
  0
VERTEX
 10
13.400000
 20
74.000000
 30
0.000000
  8
60
 62
7
  6
CONTINUOUS
  0
VERTEX
 10
11.600000
 20
74.000000
 30
0.000000
  8
60
 62
7
  6
CONTINUOUS
  0
VERTEX
 10
11.600000
 20
78.000000
 30
0.000000
  8
60
 62
7
  6
CONTINUOUS
  0
SEQEND
  0
CIRCLE
  8
60
 62
255
  6
L000000020000FFFFFF
 10
12.500000
 20
76.500000
 30
0.0
 40
0.500000
  0
CIRCLE
  8
60
 62
255
  6
L000000020000FFFFFF
 10
9.500000
 20
76.500000
 30
0.0
 40
0.500000
  0
SOLID
  8
60
 62
7
  6
CONTINUOUS
 10
10.400000
 20
78.000000
 11
10.400000
 21
74.000000
 12
8.600000
 22
78.000000
 13
8.600000
 23
74.000000
  0
POLYLINE
  8
60
 62
7
  6
CONTINUOUS
 70
1
 66
1
  0
VERTEX
 10
10.400000
 20
78.000000
 30
0.000000
  8
60
 62
7
  6
CONTINUOUS
  0
VERTEX
 10
10.400000
 20
74.000000
 30
0.000000
  8
60
 62
7
  6
CONTINUOUS
  0
VERTEX
 10
8.600000
 20
74.000000
 30
0.000000
  8
60
 62
7
  6
CONTINUOUS
  0
VERTEX
 10
8.600000
 20
78.000000
 30
0.000000
  8
60
 62
7
  6
CONTINUOUS
  0
SEQEND
  0
CIRCLE
  8
60
 62
255
  6
L000000020000FFFFFF
 10
15.500000
 20
76.500000
 30
0.0
 40
0.500000
  0
SOLID
  8
60
 62
7
  6
CONTINUOUS
 10
16.400000
 20
78.000000
 11
16.400000
 21
74.000000
 12
14.600000
 22
78.000000
 13
14.600000
 23
74.000000
  0
POLYLINE
  8
60
 62
7
  6
CONTINUOUS
 70
1
 66
1
  0
VERTEX
 10
16.400000
 20
78.000000
 30
0.000000
  8
60
 62
7
  6
CONTINUOUS
  0
VERTEX
 10
16.400000
 20
74.000000
 30
0.000000
  8
60
 62
7
  6
CONTINUOUS
  0
VERTEX
 10
14.600000
 20
74.000000
 30
0.000000
  8
60
 62
7
  6
CONTINUOUS
  0
VERTEX
 10
14.600000
 20
78.000000
 30
0.000000
  8
60
 62
7
  6
CONTINUOUS
  0
SEQEND
  0
CIRCLE
  8
60
 62
255
  6
L000000020000FFFFFF
 10
9.500000
 20
76.500000
 30
0.0
 40
0.500000
  0
CIRCLE
  8
60
 62
255
  6
L000000020000FFFFFF
 10
15.500000
 20
76.500000
 30
0.0
 40
0.500000
  0
CIRCLE
  8
60
 62
255
  6
L000000020000FFFFFF
 10
6.500000
 20
76.500000
 30
0.0
 40
0.500000
  0
SOLID
  8
60
 62
7
  6
CONTINUOUS
 10
7.400000
 20
78.000000
 11
7.400000
 21
74.000000
 12
5.600000
 22
78.000000
 13
5.600000
 23
74.000000
  0
POLYLINE
  8
60
 62
7
  6
CONTINUOUS
 70
1
 66
1
  0
VERTEX
 10
7.400000
 20
78.000000
 30
0.000000
  8
60
 62
7
  6
CONTINUOUS
  0
VERTEX
 10
7.400000
 20
74.000000
 30
0.000000
  8
60
 62
7
  6
CONTINUOUS
  0
VERTEX
 10
5.600000
 20
74.000000
 30
0.000000
  8
60
 62
7
  6
CONTINUOUS
  0
VERTEX
 10
5.600000
 20
78.000000
 30
0.000000
  8
60
 62
7
  6
CONTINUOUS
  0
SEQEND
  0
CIRCLE
  8
60
 62
255
  6
L000000020000FFFFFF
 10
6.500000
 20
76.500000
 30
0.0
 40
0.500000
  0
SOLID
  8
38
 62
255
  6
CONTINUOUS
 10
5.000000
 20
74.000000
 11
5.000000
 21
61.000000
 12
17.000000
 22
74.000000
 13
17.000000
 23
61.000000
  0
POLYLINE
  8
38
 62
7
  6
CONTINUOUS
 70
1
 66
1
  0
VERTEX
 10
5.000000
 20
74.000000
 30
0.000000
  8
38
 62
7
  6
CONTINUOUS
  0
VERTEX
 10
5.000000
 20
61.000000
 30
0.000000
  8
38
 62
7
  6
CONTINUOUS
  0
VERTEX
 10
17.000000
 20
61.000000
 30
0.000000
  8
38
 62
7
  6
CONTINUOUS
  0
VERTEX
 10
17.000000
 20
74.000000
 30
0.000000
  8
38
 62
7
  6
CONTINUOUS
  0
SEQEND
  0
CIRCLE
  8
38
 62
7
  6
L014100000000000000
 10
6.500000
 20
72.900000
 30
0.0
 40
0.500000
  0
CIRCLE
  8
38
 62
7
  6
L014100000000000000
 10
15.500000
 20
72.900000
 30
0.0
 40
0.500000
  0
CIRCLE
  8
38
 62
7
  6
L014100000000000000
 10
12.500000
 20
72.900000
 30
0.0
 40
0.500000
  0
CIRCLE
  8
38
 62
7
  6
L014100000000000000
 10
6.500000
 20
62.100000
 30
0.0
 40
0.500000
  0
CIRCLE
  8
38
 62
7
  6
L014100000000000000
 10
12.500000
 20
62.100000
 30
0.0
 40
0.500000
  0
CIRCLE
  8
38
 62
7
  6
L014100000000000000
 10
15.500000
 20
62.100000
 30
0.0
 40
0.500000
  0
POLYLINE
  8
38
 62
7
  6
L000000010000000000
 70
0
 66
1
  0
VERTEX
 10
5.000000
 20
62.600000
  8
38
 62
7
  6
L000000010000000000
  0
VERTEX
 10
17.000000
 20
62.600000
  8
38
 62
7
  6
L000000010000000000
  0
SEQEND
  0
POLYLINE
  8
38
 62
7
  6
L000000010000000000
 70
0
 66
1
  0
VERTEX
 10
5.000000
 20
72.400000
  8
38
 62
7
  6
L000000010000000000
  0
VERTEX
 10
17.000000
 20
72.400000
  8
38
 62
7
  6
L000000010000000000
  0
SEQEND
  0
CIRCLE
  8
38
 62
7
  6
L014100000000000000
 10
9.500000
 20
72.900000
 30
0.0
 40
0.500000
  0
CIRCLE
  8
38
 62
7
  6
L014100000000000000
 10
9.500000
 20
62.100000
 30
0.0
 40
0.500000
  0
SOLID
  8
38
 62
255
  6
CONTINUOUS
 10
19.700000
 20
53.500000
 11
19.700000
 21
44.500000
 12
8.900000
 22
53.500000
 13
8.900000
 23
44.500000
  0
POLYLINE
  8
38
 62
7
  6
CONTINUOUS
 70
1
 66
1
  0
VERTEX
 10
19.700000
 20
53.500000
 30
0.000000
  8
38
 62
7
  6
CONTINUOUS
  0
VERTEX
 10
19.700000
 20
44.500000
 30
0.000000
  8
38
 62
7
  6
CONTINUOUS
  0
VERTEX
 10
8.900000
 20
44.500000
 30
0.000000
  8
38
 62
7
  6
CONTINUOUS
  0
VERTEX
 10
8.900000
 20
53.500000
 30
0.000000
  8
38
 62
7
  6
CONTINUOUS
  0
SEQEND
  0
CIRCLE
  8
38
 62
7
  6
CONTINUOUS
 10
10.000000
 20
52.900000
 30
0.0
 40
0.200000
  0
CIRCLE
  8
38
 62
7
  6
CONTINUOUS
 10
9.400000
 20
52.900000
 30
0.0
 40
0.200000
  0
CIRCLE
  8
38
 62
7
  6
CONTINUOUS
 10
11.500000
 20
52.900000
 30
0.0
 40
0.200000
  0
CIRCLE
  8
38
 62
7
  6
CONTINUOUS
 10
11.000000
 20
52.900000
 30
0.0
 40
0.200000
  0
CIRCLE
  8
38
 62
7
  6
CONTINUOUS
 10
12.000000
 20
52.900000
 30
0.0
 40
0.200000
  0
CIRCLE
  8
38
 62
7
  6
CONTINUOUS
 10
12.500000
 20
52.900000
 30
0.0
 40
0.200000
  0
CIRCLE
  8
38
 62
7
  6
CONTINUOUS
 10
11.900000
 20
45.100000
 30
0.0
 40
0.200000
  0
CIRCLE
  8
38
 62
7
  6
CONTINUOUS
 10
12.400000
 20
45.100000
 30
0.0
 40
0.200000
  0
CIRCLE
  8
38
 62
7
  6
CONTINUOUS
 10
12.900000
 20
45.100000
 30
0.0
 40
0.200000
  0
CIRCLE
  8
38
 62
7
  6
CONTINUOUS
 10
13.400000
 20
45.100000
 30
0.0
 40
0.200000
  0
POLYLINE
  8
38
 62
7
  6
CONTINUOUS
 70
0
 66
1
  0
VERTEX
 10
9.900000
 20
53.000000
  8
38
 62
7
  6
CONTINUOUS
  0
VERTEX
 10
10.100000
 20
52.800000
  8
38
 62
7
  6
CONTINUOUS
  0
SEQEND
  0
POLYLINE
  8
38
 62
7
  6
CONTINUOUS
 70
0
 66
1
  0
VERTEX
 10
9.300000
 20
53.000000
  8
38
 62
7
  6
CONTINUOUS
  0
VERTEX
 10
9.500000
 20
52.800000
  8
38
 62
7
  6
CONTINUOUS
  0
SEQEND
  0
POLYLINE
  8
38
 62
7
  6
CONTINUOUS
 70
0
 66
1
  0
VERTEX
 10
18.700000
 20
53.000000
  8
38
 62
7
  6
CONTINUOUS
  0
VERTEX
 10
18.900000
 20
52.800000
  8
38
 62
7
  6
CONTINUOUS
  0
SEQEND
  0
POLYLINE
  8
38
 62
7
  6
CONTINUOUS
 70
0
 66
1
  0
VERTEX
 10
10.300000
 20
45.200000
  8
38
 62
7
  6
CONTINUOUS
  0
VERTEX
 10
10.500000
 20
45.000000
  8
38
 62
7
  6
CONTINUOUS
  0
SEQEND
  0
POLYLINE
  8
38
 62
7
  6
CONTINUOUS
 70
0
 66
1
  0
VERTEX
 10
10.900000
 20
53.000000
  8
38
 62
7
  6
CONTINUOUS
  0
VERTEX
 10
11.100000
 20
52.800000
  8
38
 62
7
  6
CONTINUOUS
  0
SEQEND
  0
POLYLINE
  8
38
 62
7
  6
CONTINUOUS
 70
0
 66
1
  0
VERTEX
 10
11.400000
 20
53.000000
  8
38
 62
7
  6
CONTINUOUS
  0
VERTEX
 10
11.600000
 20
52.800000
  8
38
 62
7
  6
CONTINUOUS
  0
SEQEND
  0
POLYLINE
  8
38
 62
7
  6
CONTINUOUS
 70
0
 66
1
  0
VERTEX
 10
11.900000
 20
53.000000
  8
38
 62
7
  6
CONTINUOUS
  0
VERTEX
 10
12.100000
 20
52.800000
  8
38
 62
7
  6
CONTINUOUS
  0
SEQEND
  0
POLYLINE
  8
38
 62
7
  6
CONTINUOUS
 70
0
 66
1
  0
VERTEX
 10
12.400000
 20
53.000000
  8
38
 62
7
  6
CONTINUOUS
  0
VERTEX
 10
12.600000
 20
52.800000
  8
38
 62
7
  6
CONTINUOUS
  0
SEQEND
  0
CIRCLE
  8
38
 62
7
  6
CONTINUOUS
 10
17.300000
 20
52.900000
 30
0.0
 40
0.200000
  0
CIRCLE
  8
38
 62
7
  6
CONTINUOUS
 10
18.300000
 20
52.900000
 30
0.0
 40
0.200000
  0
CIRCLE
  8
38
 62
7
  6
CONTINUOUS
 10
17.800000
 20
52.900000
 30
0.0
 40
0.200000
  0
CIRCLE
  8
38
 62
7
  6
CONTINUOUS
 10
18.800000
 20
52.900000
 30
0.0
 40
0.200000
  0
POLYLINE
  8
38
 62
7
  6
CONTINUOUS
 70
0
 66
1
  0
VERTEX
 10
17.200000
 20
53.000000
  8
38
 62
7
  6
CONTINUOUS
  0
VERTEX
 10
17.400000
 20
52.800000
  8
38
 62
7
  6
CONTINUOUS
  0
SEQEND
  0
POLYLINE
  8
38
 62
7
  6
CONTINUOUS
 70
0
 66
1
  0
VERTEX
 10
17.700000
 20
53.000000
  8
38
 62
7
  6
CONTINUOUS
  0
VERTEX
 10
17.900000
 20
52.800000
  8
38
 62
7
  6
CONTINUOUS
  0
SEQEND
  0
POLYLINE
  8
38
 62
7
  6
CONTINUOUS
 70
0
 66
1
  0
VERTEX
 10
18.200000
 20
53.000000
  8
38
 62
7
  6
CONTINUOUS
  0
VERTEX
 10
18.400000
 20
52.800000
  8
38
 62
7
  6
CONTINUOUS
  0
SEQEND
  0
CIRCLE
  8
38
 62
7
  6
CONTINUOUS
 10
9.400000
 20
45.100000
 30
0.0
 40
0.200000
  0
CIRCLE
  8
38
 62
7
  6
CONTINUOUS
 10
9.900000
 20
45.100000
 30
0.0
 40
0.200000
  0
CIRCLE
  8
38
 62
7
  6
CONTINUOUS
 10
10.400000
 20
45.100000
 30
0.0
 40
0.200000
  0
CIRCLE
  8
38
 62
7
  6
CONTINUOUS
 10
10.900000
 20
45.100000
 30
0.0
 40
0.200000
  0
CIRCLE
  8
38
 62
7
  6
CONTINUOUS
 10
11.400000
 20
45.100000
 30
0.0
 40
0.200000
  0
POLYLINE
  8
38
 62
7
  6
CONTINUOUS
 70
0
 66
1
  0
VERTEX
 10
9.300000
 20
45.200000
  8
38
 62
7
  6
CONTINUOUS
  0
VERTEX
 10
9.500000
 20
45.000000
  8
38
 62
7
  6
CONTINUOUS
  0
SEQEND
  0
POLYLINE
  8
38
 62
7
  6
CONTINUOUS
 70
0
 66
1
  0
VERTEX
 10
9.800000
 20
45.200000
  8
38
 62
7
  6
CONTINUOUS
  0
VERTEX
 10
10.000000
 20
45.000000
  8
38
 62
7
  6
CONTINUOUS
  0
SEQEND
  0
POLYLINE
  8
38
 62
7
  6
CONTINUOUS
 70
0
 66
1
  0
VERTEX
 10
10.800000
 20
45.200000
  8
38
 62
7
  6
CONTINUOUS
  0
VERTEX
 10
11.000000
 20
45.000000
  8
38
 62
7
  6
CONTINUOUS
  0
SEQEND
  0
POLYLINE
  8
38
 62
7
  6
CONTINUOUS
 70
0
 66
1
  0
VERTEX
 10
11.300000
 20
45.200000
  8
38
 62
7
  6
CONTINUOUS
  0
VERTEX
 10
11.500000
 20
45.000000
  8
38
 62
7
  6
CONTINUOUS
  0
SEQEND
  0
POLYLINE
  8
38
 62
7
  6
CONTINUOUS
 70
0
 66
1
  0
VERTEX
 10
11.800000
 20
45.200000
  8
38
 62
7
  6
CONTINUOUS
  0
VERTEX
 10
12.000000
 20
45.000000
  8
38
 62
7
  6
CONTINUOUS
  0
SEQEND
  0
POLYLINE
  8
38
 62
7
  6
CONTINUOUS
 70
0
 66
1
  0
VERTEX
 10
12.300000
 20
45.200000
  8
38
 62
7
  6
CONTINUOUS
  0
VERTEX
 10
12.500000
 20
45.000000
  8
38
 62
7
  6
CONTINUOUS
  0
SEQEND
  0
POLYLINE
  8
38
 62
7
  6
CONTINUOUS
 70
0
 66
1
  0
VERTEX
 10
12.800000
 20
45.200000
  8
38
 62
7
  6
CONTINUOUS
  0
VERTEX
 10
13.000000
 20
45.000000
  8
38
 62
7
  6
CONTINUOUS
  0
SEQEND
  0
POLYLINE
  8
38
 62
7
  6
CONTINUOUS
 70
0
 66
1
  0
VERTEX
 10
13.300000
 20
45.200000
  8
38
 62
7
  6
CONTINUOUS
  0
VERTEX
 10
13.500000
 20
45.000000
  8
38
 62
7
  6
CONTINUOUS
  0
SEQEND
  0
SOLID
  8
38
 62
255
  6
CONTINUOUS
 10
5.300000
 20
44.800000
 11
5.300000
 21
53.300000
 12
7.100000
 22
44.800000
 13
7.100000
 23
53.300000
  0
POLYLINE
  8
38
 62
7
  6
CONTINUOUS
 70
1
 66
1
  0
VERTEX
 10
5.300000
 20
44.800000
 30
0.000000
  8
38
 62
7
  6
CONTINUOUS
  0
VERTEX
 10
5.300000
 20
53.300000
 30
0.000000
  8
38
 62
7
  6
CONTINUOUS
  0
VERTEX
 10
7.100000
 20
53.300000
 30
0.000000
  8
38
 62
7
  6
CONTINUOUS
  0
VERTEX
 10
7.100000
 20
44.800000
 30
0.000000
  8
38
 62
7
  6
CONTINUOUS
  0
SEQEND
  0
SOLID
  8
38
 62
255
  6
CONTINUOUS
 10
3.500000
 20
44.800000
 11
3.500000
 21
53.300000
 12
5.300000
 22
44.800000
 13
5.300000
 23
53.300000
  0
POLYLINE
  8
38
 62
7
  6
CONTINUOUS
 70
1
 66
1
  0
VERTEX
 10
3.500000
 20
44.800000
 30
0.000000
  8
38
 62
7
  6
CONTINUOUS
  0
VERTEX
 10
3.500000
 20
53.300000
 30
0.000000
  8
38
 62
7
  6
CONTINUOUS
  0
VERTEX
 10
5.300000
 20
53.300000
 30
0.000000
  8
38
 62
7
  6
CONTINUOUS
  0
VERTEX
 10
5.300000
 20
44.800000
 30
0.000000
  8
38
 62
7
  6
CONTINUOUS
  0
SEQEND
  0
SOLID
  8
38
 62
255
  6
CONTINUOUS
 10
7.100000
 20
44.800000
 11
7.100000
 21
53.300000
 12
8.900000
 22
44.800000
 13
8.900000
 23
53.300000
  0
POLYLINE
  8
38
 62
7
  6
CONTINUOUS
 70
1
 66
1
  0
VERTEX
 10
7.100000
 20
44.800000
 30
0.000000
  8
38
 62
7
  6
CONTINUOUS
  0
VERTEX
 10
7.100000
 20
53.300000
 30
0.000000
  8
38
 62
7
  6
CONTINUOUS
  0
VERTEX
 10
8.900000
 20
53.300000
 30
0.000000
  8
38
 62
7
  6
CONTINUOUS
  0
VERTEX
 10
8.900000
 20
44.800000
 30
0.000000
  8
38
 62
7
  6
CONTINUOUS
  0
SEQEND
  0
CIRCLE
  8
38
 62
7
  6
CONTINUOUS
 10
8.000000
 20
52.500000
 30
0.0
 40
0.500000
  0
CIRCLE
  8
38
 62
7
  6
CONTINUOUS
 10
8.000000
 20
45.600000
 30
0.0
 40
0.500000
  0
CIRCLE
  8
38
 62
7
  6
CONTINUOUS
 10
4.400000
 20
52.500000
 30
0.0
 40
0.500000
  0
CIRCLE
  8
38
 62
7
  6
CONTINUOUS
 10
4.400000
 20
45.600000
 30
0.0
 40
0.500000
  0
CIRCLE
  8
38
 62
7
  6
CONTINUOUS
 10
6.200000
 20
52.500000
 30
0.0
 40
0.500000
  0
CIRCLE
  8
38
 62
7
  6
CONTINUOUS
 10
6.200000
 20
45.600000
 30
0.0
 40
0.500000
  0
SOLID
  8
38
 62
255
  6
CONTINUOUS
 10
1.700000
 20
44.800000
 11
1.700000
 21
53.300000
 12
3.500000
 22
44.800000
 13
3.500000
 23
53.300000
  0
POLYLINE
  8
38
 62
7
  6
CONTINUOUS
 70
1
 66
1
  0
VERTEX
 10
1.700000
 20
44.800000
 30
0.000000
  8
38
 62
7
  6
CONTINUOUS
  0
VERTEX
 10
1.700000
 20
53.300000
 30
0.000000
  8
38
 62
7
  6
CONTINUOUS
  0
VERTEX
 10
3.500000
 20
53.300000
 30
0.000000
  8
38
 62
7
  6
CONTINUOUS
  0
VERTEX
 10
3.500000
 20
44.800000
 30
0.000000
  8
38
 62
7
  6
CONTINUOUS
  0
SEQEND
  0
CIRCLE
  8
38
 62
7
  6
CONTINUOUS
 10
2.600000
 20
52.500000
 30
0.0
 40
0.500000
  0
CIRCLE
  8
38
 62
7
  6
CONTINUOUS
 10
2.600000
 20
45.600000
 30
0.0
 40
0.500000
  0
SOLID
  8
38
 62
255
  6
CONTINUOUS
 10
8.900000
 20
38.500000
 11
8.900000
 21
29.500000
 12
1.700000
 22
38.500000
 13
1.700000
 23
29.500000
  0
POLYLINE
  8
38
 62
7
  6
CONTINUOUS
 70
1
 66
1
  0
VERTEX
 10
8.900000
 20
38.500000
 30
0.000000
  8
38
 62
7
  6
CONTINUOUS
  0
VERTEX
 10
8.900000
 20
29.500000
 30
0.000000
  8
38
 62
7
  6
CONTINUOUS
  0
VERTEX
 10
1.700000
 20
29.500000
 30
0.000000
  8
38
 62
7
  6
CONTINUOUS
  0
VERTEX
 10
1.700000
 20
38.500000
 30
0.000000
  8
38
 62
7
  6
CONTINUOUS
  0
SEQEND
  0
POLYLINE
  8
2
 62
7
  6
L014100020032000000
 70
1
 66
1
  0
VERTEX
 10
5.000000
 20
74.000000
 30
0.000000
  8
2
 62
7
  6
L014100020032000000
  0
VERTEX
 10
5.000000
 20
61.000000
 30
0.000000
  8
2
 62
7
  6
L014100020032000000
  0
VERTEX
 10
17.000000
 20
61.000000
 30
0.000000
  8
2
 62
7
  6
L014100020032000000
  0
VERTEX
 10
17.000000
 20
74.000000
 30
0.000000
  8
2
 62
7
  6
L014100020032000000
  0
SEQEND
  0
SOLID
  8
2
 62
255
  6
CONTINUOUS
 10
16.700000
 20
62.600000
 11
16.700000
 21
69.900000
 12
5.300000
 22
62.600000
 13
5.300000
 23
69.900000
  0
POLYLINE
  8
2
 62
7
  6
CONTINUOUS
 70
1
 66
1
  0
VERTEX
 10
16.700000
 20
62.600000
 30
0.000000
  8
2
 62
7
  6
CONTINUOUS
  0
VERTEX
 10
16.700000
 20
69.900000
 30
0.000000
  8
2
 62
7
  6
CONTINUOUS
  0
VERTEX
 10
5.300000
 20
69.900000
 30
0.000000
  8
2
 62
7
  6
CONTINUOUS
  0
VERTEX
 10
5.300000
 20
62.600000
 30
0.000000
  8
2
 62
7
  6
CONTINUOUS
  0
SEQEND
  0
CIRCLE
  8
2
 62
7
  6
CONTINUOUS
 10
9.500000
 20
68.700000
 30
0.0
 40
0.400000
  0
POLYLINE
  8
2
 62
7
  6
CONTINUOUS
 70
1
 66
1
  0
VERTEX
 10
13.300000
 20
65.100000
 30
0.000000
  8
2
 62
7
  6
CONTINUOUS
  0
VERTEX
 10
13.300000
 20
68.700000
 30
0.000000
  8
2
 62
7
  6
CONTINUOUS
  0
VERTEX
 10
11.800000
 20
68.700000
 30
0.000000
  8
2
 62
7
  6
CONTINUOUS
  0
VERTEX
 10
11.800000
 20
65.100000
 30
0.000000
  8
2
 62
7
  6
CONTINUOUS
  0
SEQEND
  0
POLYLINE
  8
2
 62
7
  6
CONTINUOUS
 70
1
 66
1
  0
VERTEX
 10
14.800000
 20
64.900000
 30
0.000000
  8
2
 62
7
  6
CONTINUOUS
  0
VERTEX
 10
14.800000
 20
69.000000
 30
0.000000
  8
2
 62
7
  6
CONTINUOUS
  0
VERTEX
 10
10.300000
 20
69.000000
 30
0.000000
  8
2
 62
7
  6
CONTINUOUS
  0
VERTEX
 10
10.300000
 20
64.900000
 30
0.000000
  8
2
 62
7
  6
CONTINUOUS
  0
SEQEND
  0
POLYLINE
  8
2
 62
7
  6
CONTINUOUS
 70
1
 66
1
  0
VERTEX
 10
10.300000
 20
69.000000
  8
2
 62
7
  6
CONTINUOUS
  0
VERTEX
 10
14.800000
 20
69.000000
  8
2
 62
7
  6
CONTINUOUS
  0
VERTEX
 10
14.800000
 20
68.000000
  8
2
 62
7
  6
CONTINUOUS
  0
VERTEX
 10
13.300000
 20
68.000000
  8
2
 62
7
  6
CONTINUOUS
  0
VERTEX
 10
13.300000
 20
68.700000
  8
2
 62
7
  6
CONTINUOUS
  0
VERTEX
 10
11.800000
 20
68.700000
  8
2
 62
7
  6
CONTINUOUS
  0
VERTEX
 10
11.800000
 20
68.000000
  8
2
 62
7
  6
CONTINUOUS
  0
VERTEX
 10
10.300000
 20
68.000000
  8
2
 62
7
  6
CONTINUOUS
  0
SEQEND
  0
TEXT
  8
2
 62
7
  6
CONTINUOUS
 10
10.400000
 20
68.333333
 40
0.500000
  1
ABB
 50
0.000000
 51
0.000000
 72
0
 73
0
  0
TEXT
  8
2
 62
7
  6
CONTINUOUS
 10
14.600000
 20
68.333333
 40
0.500000
  1
XT2
 50
0.000000
 51
0.000000
 72
2
 73
0
 11
14.600000
 21
68.333333
  0
TEXT
  8
2
 62
7
  6
CONTINUOUS
 10
11.200000
 20
67.133333
 40
0.800000
  1
I
 50
0.000000
 51
0.000000
 72
1
 73
0
 11
11.200000
 21
67.133333
  0
TEXT
  8
2
 62
7
  6
CONTINUOUS
 10
11.200000
 20
65.533333
 40
0.800000
  1
0
 50
0.000000
 51
0.000000
 72
1
 73
0
 11
11.200000
 21
65.533333
  0
CIRCLE
  8
2
 62
7
  6
L000000000000000000
 10
14.300000
 20
65.400000
 30
0.0
 40
0.300000
  0
POLYLINE
  8
2
 62
7
  6
CONTINUOUS
 70
0
 66
1
  0
VERTEX
 10
12.100000
 20
65.700000
  8
2
 62
7
  6
CONTINUOUS
  0
VERTEX
 10
13.000000
 20
65.700000
  8
2
 62
7
  6
CONTINUOUS
  0
SEQEND
  0
POLYLINE
  8
2
 62
7
  6
CONTINUOUS
 70
0
 66
1
  0
VERTEX
 10
13.300000
 20
68.400000
  8
2
 62
7
  6
CONTINUOUS
  0
VERTEX
 10
11.800000
 20
68.400000
  8
2
 62
7
  6
CONTINUOUS
  0
SEQEND
  0
POLYLINE
  8
2
 62
7
  6
CONTINUOUS
 70
0
 66
1
  0
VERTEX
 10
13.000000
 20
65.600000
  8
2
 62
7
  6
CONTINUOUS
  0
VERTEX
 10
12.100000
 20
65.600000
  8
2
 62
7
  6
CONTINUOUS
  0
SEQEND
  0
POLYLINE
  8
2
 62
7
  6
CONTINUOUS
 70
0
 66
1
  0
VERTEX
 10
11.900000
 20
66.400000
  8
2
 62
7
  6
CONTINUOUS
  0
VERTEX
 10
11.900000
 20
65.300000
  8
2
 62
7
  6
CONTINUOUS
  0
VERTEX
 10
13.200000
 20
65.300000
  8
2
 62
7
  6
CONTINUOUS
  0
VERTEX
 10
13.200000
 20
66.400000
  8
2
 62
7
  6
CONTINUOUS
  0
SEQEND
  0
POLYLINE
  8
2
 62
7
  6
CONTINUOUS
 70
0
 66
1
  0
VERTEX
 10
13.300000
 20
66.400000
  8
2
 62
7
  6
CONTINUOUS
  0
VERTEX
 10
11.800000
 20
66.400000
  8
2
 62
7
  6
CONTINUOUS
  0
SEQEND
  0
POLYLINE
  8
2
 62
7
  6
CONTINUOUS
 70
0
 66
1
  0
VERTEX
 10
11.900000
 20
65.400000
  8
2
 62
7
  6
CONTINUOUS
  0
VERTEX
 10
13.200000
 20
65.400000
  8
2
 62
7
  6
CONTINUOUS
  0
SEQEND
  0
POLYLINE
  8
2
 62
7
  6
CONTINUOUS
 70
0
 66
1
  0
VERTEX
 10
13.000000
 20
65.800000
  8
2
 62
7
  6
CONTINUOUS
  0
VERTEX
 10
12.100000
 20
65.800000
  8
2
 62
7
  6
CONTINUOUS
  0
SEQEND
  0
POLYLINE
  8
2
 62
7
  6
L000000000000000000
 70
0
 66
1
  0
VERTEX
 10
5.300000
 20
64.700000
  8
2
 62
7
  6
L000000000000000000
  0
VERTEX
 10
16.700000
 20
64.700000
  8
2
 62
7
  6
L000000000000000000
  0
SEQEND
  0
POLYLINE
  8
2
 62
7
  6
L000000000000000000
 70
1
 66
1
  0
VERTEX
 10
16.600000
 20
62.700000
 30
0.000000
  8
2
 62
7
  6
L000000000000000000
  0
VERTEX
 10
16.600000
 20
64.600000
 30
0.000000
  8
2
 62
7
  6
L000000000000000000
  0
VERTEX
 10
5.400000
 20
64.600000
 30
0.000000
  8
2
 62
7
  6
L000000000000000000
  0
VERTEX
 10
5.400000
 20
62.700000
 30
0.000000
  8
2
 62
7
  6
L000000000000000000
  0
SEQEND
  0
SOLID
  8
2
 62
255
  6
CONTINUOUS
 10
17.000000
 20
64.500000
 11
17.000000
 21
72.300000
 12
8.000000
 22
64.500000
 13
8.000000
 23
72.300000
  0
POLYLINE
  8
2
 62
7
  6
CONTINUOUS
 70
1
 66
1
  0
VERTEX
 10
17.000000
 20
64.500000
 30
0.000000
  8
2
 62
7
  6
CONTINUOUS
  0
VERTEX
 10
17.000000
 20
72.300000
 30
0.000000
  8
2
 62
7
  6
CONTINUOUS
  0
VERTEX
 10
8.000000
 20
72.300000
 30
0.000000
  8
2
 62
7
  6
CONTINUOUS
  0
VERTEX
 10
8.000000
 20
64.500000
 30
0.000000
  8
2
 62
7
  6
CONTINUOUS
  0
SEQEND
  0
POLYLINE
  8
2
 62
7
  6
CONTINUOUS
 70
1
 66
1
  0
VERTEX
 10
16.900000
 20
64.700000
 30
0.000000
  8
2
 62
7
  6
CONTINUOUS
  0
VERTEX
 10
16.900000
 20
72.200000
 30
0.000000
  8
2
 62
7
  6
CONTINUOUS
  0
VERTEX
 10
8.100000
 20
72.200000
 30
0.000000
  8
2
 62
7
  6
CONTINUOUS
  0
VERTEX
 10
8.100000
 20
64.700000
 30
0.000000
  8
2
 62
7
  6
CONTINUOUS
  0
SEQEND
  0
SOLID
  8
2
 62
1
  6
CONTINUOUS
 10
16.900000
 20
71.200000
 11
16.900000
 21
72.200000
 12
8.100000
 22
71.200000
 13
8.100000
 23
72.200000
  0
POLYLINE
  8
2
 62
7
  6
CONTINUOUS
 70
1
 66
1
  0
VERTEX
 10
16.900000
 20
71.200000
 30
0.000000
  8
2
 62
7
  6
CONTINUOUS
  0
VERTEX
 10
16.900000
 20
72.200000
 30
0.000000
  8
2
 62
7
  6
CONTINUOUS
  0
VERTEX
 10
8.100000
 20
72.200000
 30
0.000000
  8
2
 62
7
  6
CONTINUOUS
  0
VERTEX
 10
8.100000
 20
71.200000
 30
0.000000
  8
2
 62
7
  6
CONTINUOUS
  0
SEQEND
  0
TEXT
  8
2
 62
7
  6
CONTINUOUS
 10
8.200000
 20
71.533333
 40
0.500000
  1
ABB
 50
0.000000
 51
0.000000
 72
0
 73
0
  0
TEXT
  8
2
 62
7
  6
CONTINUOUS
 10
16.600000
 20
71.533333
 40
0.500000
  1
Tmax
 50
0.000000
 51
0.000000
 72
2
 73
0
 11
16.600000
 21
71.533333
  0
SOLID
  8
2
 62
254
  6
CONTINUOUS
 10
16.800000
 20
67.100000
 11
16.800000
 21
69.700000
 12
16.400000
 22
67.100000
 13
16.400000
 23
69.700000
  0
POLYLINE
  8
2
 62
7
  6
CONTINUOUS
 70
1
 66
1
  0
VERTEX
 10
16.800000
 20
67.100000
 30
0.000000
  8
2
 62
7
  6
CONTINUOUS
  0
VERTEX
 10
16.800000
 20
69.700000
 30
0.000000
  8
2
 62
7
  6
CONTINUOUS
  0
VERTEX
 10
16.400000
 20
69.700000
 30
0.000000
  8
2
 62
7
  6
CONTINUOUS
  0
VERTEX
 10
16.400000
 20
67.100000
 30
0.000000
  8
2
 62
7
  6
CONTINUOUS
  0
SEQEND
  0
POLYLINE
  8
2
 62
7
  6
CONTINUOUS
 70
1
 66
1
  0
VERTEX
 10
8.200000
 20
71.200000
  8
2
 62
7
  6
CONTINUOUS
  0
VERTEX
 10
10.400000
 20
71.200000
  8
2
 62
7
  6
CONTINUOUS
  0
VERTEX
 10
10.400000
 20
69.700000
  8
2
 62
7
  6
CONTINUOUS
  0
VERTEX
 10
9.700000
 20
69.700000
  8
2
 62
7
  6
CONTINUOUS
  0
VERTEX
 10
9.700000
 20
65.000000
  8
2
 62
7
  6
CONTINUOUS
  0
VERTEX
 10
8.200000
 20
65.000000
  8
2
 62
7
  6
CONTINUOUS
  0
SEQEND
  0
POLYLINE
  8
2
 62
7
  6
CONTINUOUS
 70
1
 66
1
  0
VERTEX
 10
8.300000
 20
71.100000
  8
2
 62
7
  6
CONTINUOUS
  0
VERTEX
 10
8.800000
 20
71.100000
  8
2
 62
7
  6
CONTINUOUS
  0
VERTEX
 10
9.600000
 20
70.300000
  8
2
 62
7
  6
CONTINUOUS
  0
VERTEX
 10
9.600000
 20
65.300000
  8
2
 62
7
  6
CONTINUOUS
  0
VERTEX
 10
8.300000
 20
65.300000
  8
2
 62
7
  6
CONTINUOUS
  0
SEQEND
  0
POLYLINE
  8
2
 62
7
  6
CONTINUOUS
 70
1
 66
1
  0
VERTEX
 10
9.600000
 20
65.700000
 30
0.000000
  8
2
 62
7
  6
CONTINUOUS
  0
VERTEX
 10
9.600000
 20
67.300000
 30
0.000000
  8
2
 62
7
  6
CONTINUOUS
  0
VERTEX
 10
8.300000
 20
67.300000
 30
0.000000
  8
2
 62
7
  6
CONTINUOUS
  0
VERTEX
 10
8.300000
 20
65.700000
 30
0.000000
  8
2
 62
7
  6
CONTINUOUS
  0
SEQEND
  0
POLYLINE
  8
2
 62
7
  6
CONTINUOUS
 70
1
 66
1
  0
VERTEX
 10
13.000000
 20
64.900000
 30
0.000000
  8
2
 62
7
  6
CONTINUOUS
  0
VERTEX
 10
13.000000
 20
69.800000
 30
0.000000
  8
2
 62
7
  6
CONTINUOUS
  0
VERTEX
 10
11.000000
 20
69.800000
 30
0.000000
  8
2
 62
7
  6
CONTINUOUS
  0
VERTEX
 10
11.000000
 20
64.900000
 30
0.000000
  8
2
 62
7
  6
CONTINUOUS
  0
SEQEND
  0
SOLID
  8
2
 62
3
  6
CONTINUOUS
 10
16.300000
 20
65.000000
 11
16.300000
 21
66.800000
 12
14.500000
 22
65.000000
 13
14.500000
 23
66.800000
  0
POLYLINE
  8
2
 62
7
  6
CONTINUOUS
 70
1
 66
1
  0
VERTEX
 10
16.300000
 20
65.000000
 30
0.000000
  8
2
 62
7
  6
CONTINUOUS
  0
VERTEX
 10
16.300000
 20
66.800000
 30
0.000000
  8
2
 62
7
  6
CONTINUOUS
  0
VERTEX
 10
14.500000
 20
66.800000
 30
0.000000
  8
2
 62
7
  6
CONTINUOUS
  0
VERTEX
 10
14.500000
 20
65.000000
 30
0.000000
  8
2
 62
7
  6
CONTINUOUS
  0
SEQEND
  0
SOLID
  8
2
 62
1
  6
CONTINUOUS
 10
12.900000
 20
65.000000
 11
12.900000
 21
66.800000
 12
11.100000
 22
65.000000
 13
11.100000
 23
66.800000
  0
POLYLINE
  8
2
 62
7
  6
CONTINUOUS
 70
1
 66
1
  0
VERTEX
 10
12.900000
 20
65.000000
 30
0.000000
  8
2
 62
7
  6
CONTINUOUS
  0
VERTEX
 10
12.900000
 20
66.800000
 30
0.000000
  8
2
 62
7
  6
CONTINUOUS
  0
VERTEX
 10
11.100000
 20
66.800000
 30
0.000000
  8
2
 62
7
  6
CONTINUOUS
  0
VERTEX
 10
11.100000
 20
65.000000
 30
0.000000
  8
2
 62
7
  6
CONTINUOUS
  0
SEQEND
  0
POLYLINE
  8
2
 62
7
  6
CONTINUOUS
 70
1
 66
1
  0
VERTEX
 10
16.300000
 20
65.100000
 30
0.000000
  8
2
 62
7
  6
CONTINUOUS
  0
VERTEX
 10
16.300000
 20
66.700000
 30
0.000000
  8
2
 62
7
  6
CONTINUOUS
  0
VERTEX
 10
14.500000
 20
66.700000
 30
0.000000
  8
2
 62
7
  6
CONTINUOUS
  0
VERTEX
 10
14.500000
 20
65.100000
 30
0.000000
  8
2
 62
7
  6
CONTINUOUS
  0
SEQEND
  0
POLYLINE
  8
2
 62
7
  6
CONTINUOUS
 70
1
 66
1
  0
VERTEX
 10
12.900000
 20
65.100000
 30
0.000000
  8
2
 62
7
  6
CONTINUOUS
  0
VERTEX
 10
12.900000
 20
66.700000
 30
0.000000
  8
2
 62
7
  6
CONTINUOUS
  0
VERTEX
 10
11.100000
 20
66.700000
 30
0.000000
  8
2
 62
7
  6
CONTINUOUS
  0
VERTEX
 10
11.100000
 20
65.100000
 30
0.000000
  8
2
 62
7
  6
CONTINUOUS
  0
SEQEND
  0
CIRCLE
  8
2
 62
255
  6
L000000040000FFFFFF
 10
12.000000
 20
65.900000
 30
0.0
 40
0.300000
  0
POLYLINE
  8
2
 62
7
  6
CONTINUOUS
 70
1
 66
1
  0
VERTEX
 10
12.900000
 20
69.100000
 30
0.000000
  8
2
 62
7
  6
CONTINUOUS
  0
VERTEX
 10
12.900000
 20
69.600000
 30
0.000000
  8
2
 62
7
  6
CONTINUOUS
  0
VERTEX
 10
11.100000
 20
69.600000
 30
0.000000
  8
2
 62
7
  6
CONTINUOUS
  0
VERTEX
 10
11.100000
 20
69.100000
 30
0.000000
  8
2
 62
7
  6
CONTINUOUS
  0
SEQEND
  0
SOLID
  8
2
 62
1
  6
CONTINUOUS
 10
12.900000
 20
67.100000
 11
12.900000
 21
67.600000
 12
11.100000
 22
67.100000
 13
11.100000
 23
67.600000
  0
POLYLINE
  8
2
 62
7
  6
CONTINUOUS
 70
1
 66
1
  0
VERTEX
 10
12.900000
 20
67.100000
 30
0.000000
  8
2
 62
7
  6
CONTINUOUS
  0
VERTEX
 10
12.900000
 20
67.600000
 30
0.000000
  8
2
 62
7
  6
CONTINUOUS
  0
VERTEX
 10
11.100000
 20
67.600000
 30
0.000000
  8
2
 62
7
  6
CONTINUOUS
  0
VERTEX
 10
11.100000
 20
67.100000
 30
0.000000
  8
2
 62
7
  6
CONTINUOUS
  0
SEQEND
  0
POLYLINE
  8
2
 62
7
  6
CONTINUOUS
 70
1
 66
1
  0
VERTEX
 10
16.100000
 20
67.800000
 30
0.000000
  8
2
 62
7
  6
CONTINUOUS
  0
VERTEX
 10
16.100000
 20
69.200000
 30
0.000000
  8
2
 62
7
  6
CONTINUOUS
  0
VERTEX
 10
15.300000
 20
69.200000
 30
0.000000
  8
2
 62
7
  6
CONTINUOUS
  0
VERTEX
 10
15.300000
 20
67.800000
 30
0.000000
  8
2
 62
7
  6
CONTINUOUS
  0
SEQEND
  0
SOLID
  8
2
 62
7
  6
CONTINUOUS
 10
16.000000
 20
68.600000
 11
16.000000
 21
68.400000
 12
15.400000
 22
68.600000
 13
15.400000
 23
68.400000
  0
POLYLINE
  8
2
 62
7
  6
CONTINUOUS
 70
1
 66
1
  0
VERTEX
 10
16.000000
 20
68.600000
 30
0.000000
  8
2
 62
7
  6
CONTINUOUS
  0
VERTEX
 10
16.000000
 20
68.400000
 30
0.000000
  8
2
 62
7
  6
CONTINUOUS
  0
VERTEX
 10
15.400000
 20
68.400000
 30
0.000000
  8
2
 62
7
  6
CONTINUOUS
  0
VERTEX
 10
15.400000
 20
68.600000
 30
0.000000
  8
2
 62
7
  6
CONTINUOUS
  0
SEQEND
  0
POLYLINE
  8
2
 62
7
  6
CONTINUOUS
 70
1
 66
1
  0
VERTEX
 10
14.200000
 20
67.800000
 30
0.000000
  8
2
 62
7
  6
CONTINUOUS
  0
VERTEX
 10
14.200000
 20
69.200000
 30
0.000000
  8
2
 62
7
  6
CONTINUOUS
  0
VERTEX
 10
16.100000
 20
69.200000
 30
0.000000
  8
2
 62
7
  6
CONTINUOUS
  0
VERTEX
 10
16.100000
 20
67.800000
 30
0.000000
  8
2
 62
7
  6
CONTINUOUS
  0
SEQEND
  0
CIRCLE
  8
2
 62
7
  6
CONTINUOUS
 10
13.500000
 20
65.300000
 30
0.0
 40
0.300000
  0
CIRCLE
  8
2
 62
7
  6
CONTINUOUS
 10
13.800000
 20
67.900000
 30
0.0
 40
0.300000
  0
CIRCLE
  8
2
 62
7
  6
CONTINUOUS
 10
13.500000
 20
66.400000
 30
0.0
 40
0.300000
  0
CIRCLE
  8
2
 62
7
  6
CONTINUOUS
 10
13.500000
 20
66.400000
 30
0.0
 40
0.200000
  0
CIRCLE
  8
2
 62
7
  6
CONTINUOUS
 10
13.500000
 20
65.300000
 30
0.0
 40
0.200000
  0
TEXT
  8
2
 62
7
  6
CONTINUOUS
 10
14.300000
 20
68.433333
 40
0.200000
  1
Auto
 50
0.000000
 51
0.000000
 72
0
 73
0
  0
TEXT
  8
2
 62
7
  6
CONTINUOUS
 10
14.300000
 20
67.933333
 40
0.200000
  1
Manu
 50
0.000000
 51
0.000000
 72
0
 73
0
  0
POLYLINE
  8
2
 62
255
  6
L000000040000FFFFFF
 70
0
 66
1
  0
VERTEX
 10
15.400000
 20
66.200000
  8
2
 62
255
  6
L000000040000FFFFFF
  0
VERTEX
 10
15.400000
 20
65.600000
  8
2
 62
255
  6
L000000040000FFFFFF
  0
SEQEND
  0
POLYLINE
  8
2
 62
7
  6
CONTINUOUS
 70
1
 66
1
  0
VERTEX
 10
15.200000
 20
68.800000
 30
0.000000
  8
2
 62
7
  6
CONTINUOUS
  0
VERTEX
 10
15.200000
 20
69.100000
 30
0.000000
  8
2
 62
7
  6
CONTINUOUS
  0
VERTEX
 10
15.000000
 20
69.100000
 30
0.000000
  8
2
 62
7
  6
CONTINUOUS
  0
VERTEX
 10
15.000000
 20
68.800000
 30
0.000000
  8
2
 62
7
  6
CONTINUOUS
  0
SEQEND
  0
POLYLINE
  8
2
 62
7
  6
CONTINUOUS
 70
0
 66
1
  0
VERTEX
 10
10.500000
 20
71.200000
  8
2
 62
7
  6
CONTINUOUS
  0
VERTEX
 10
10.500000
 20
69.600000
  8
2
 62
7
  6
CONTINUOUS
  0
VERTEX
 10
9.800000
 20
69.600000
  8
2
 62
7
  6
CONTINUOUS
  0
VERTEX
 10
9.800000
 20
64.600000
  8
2
 62
7
  6
CONTINUOUS
  0
SEQEND
  0
POLYLINE
  8
2
 62
7
  6
CONTINUOUS
 70
1
 66
1
  0
VERTEX
 10
13.100000
 20
69.700000
  8
2
 62
7
  6
CONTINUOUS
  0
VERTEX
 10
16.300000
 20
69.700000
  8
2
 62
7
  6
CONTINUOUS
  0
VERTEX
 10
16.300000
 20
66.900000
  8
2
 62
7
  6
CONTINUOUS
  0
VERTEX
 10
14.400000
 20
66.900000
  8
2
 62
7
  6
CONTINUOUS
  0
VERTEX
 10
14.400000
 20
64.800000
  8
2
 62
7
  6
CONTINUOUS
  0
VERTEX
 10
13.100000
 20
64.800000
  8
2
 62
7
  6
CONTINUOUS
  0
SEQEND
  0
SOLID
  8
2
 62
255
  6
CONTINUOUS
 10
19.700000
 20
46.700000
 11
19.700000
 21
51.300000
 12
8.900000
 22
46.700000
 13
8.900000
 23
51.300000
  0
POLYLINE
  8
2
 62
7
  6
CONTINUOUS
 70
1
 66
1
  0
VERTEX
 10
19.700000
 20
46.700000
 30
0.000000
  8
2
 62
7
  6
CONTINUOUS
  0
VERTEX
 10
19.700000
 20
51.300000
 30
0.000000
  8
2
 62
7
  6
CONTINUOUS
  0
VERTEX
 10
8.900000
 20
51.300000
 30
0.000000
  8
2
 62
7
  6
CONTINUOUS
  0
VERTEX
 10
8.900000
 20
46.700000
 30
0.000000
  8
2
 62
7
  6
CONTINUOUS
  0
SEQEND
  0
SOLID
  8
2
 62
1
  6
CONTINUOUS
 10
19.700000
 20
50.700000
 11
19.700000
 21
51.200000
 12
9.000000
 22
50.700000
 13
9.000000
 23
51.200000
  0
POLYLINE
  8
2
 62
7
  6
CONTINUOUS
 70
1
 66
1
  0
VERTEX
 10
19.700000
 20
50.700000
 30
0.000000
  8
2
 62
7
  6
CONTINUOUS
  0
VERTEX
 10
19.700000
 20
51.200000
 30
0.000000
  8
2
 62
7
  6
CONTINUOUS
  0
VERTEX
 10
9.000000
 20
51.200000
 30
0.000000
  8
2
 62
7
  6
CONTINUOUS
  0
VERTEX
 10
9.000000
 20
50.700000
 30
0.000000
  8
2
 62
7
  6
CONTINUOUS
  0
SEQEND
  0
POLYLINE
  8
2
 62
7
  6
CONTINUOUS
 70
1
 66
1
  0
VERTEX
 10
19.500000
 20
46.700000
 30
0.000000
  8
2
 62
7
  6
CONTINUOUS
  0
VERTEX
 10
19.500000
 20
47.500000
 30
0.000000
  8
2
 62
7
  6
CONTINUOUS
  0
VERTEX
 10
17.800000
 20
47.500000
 30
0.000000
  8
2
 62
7
  6
CONTINUOUS
  0
VERTEX
 10
17.800000
 20
46.700000
 30
0.000000
  8
2
 62
7
  6
CONTINUOUS
  0
SEQEND
  0
POLYLINE
  8
2
 62
7
  6
CONTINUOUS
 70
1
 66
1
  0
VERTEX
 10
13.200000
 20
47.800000
 30
0.000000
  8
2
 62
7
  6
CONTINUOUS
  0
VERTEX
 10
13.200000
 20
50.400000
 30
0.000000
  8
2
 62
7
  6
CONTINUOUS
  0
VERTEX
 10
9.400000
 20
50.400000
 30
0.000000
  8
2
 62
7
  6
CONTINUOUS
  0
VERTEX
 10
9.400000
 20
47.800000
 30
0.000000
  8
2
 62
7
  6
CONTINUOUS
  0
SEQEND
  0
SOLID
  8
2
 62
5
  6
CONTINUOUS
 10
14.500000
 20
50.100000
 11
14.500000
 21
50.500000
 12
13.800000
 22
50.100000
 13
13.800000
 23
50.500000
  0
POLYLINE
  8
2
 62
7
  6
CONTINUOUS
 70
1
 66
1
  0
VERTEX
 10
14.500000
 20
50.100000
 30
0.000000
  8
2
 62
7
  6
CONTINUOUS
  0
VERTEX
 10
14.500000
 20
50.500000
 30
0.000000
  8
2
 62
7
  6
CONTINUOUS
  0
VERTEX
 10
13.800000
 20
50.500000
 30
0.000000
  8
2
 62
7
  6
CONTINUOUS
  0
VERTEX
 10
13.800000
 20
50.100000
 30
0.000000
  8
2
 62
7
  6
CONTINUOUS
  0
SEQEND
  0
SOLID
  8
2
 62
5
  6
CONTINUOUS
 10
14.500000
 20
49.400000
 11
14.500000
 21
49.800000
 12
13.800000
 22
49.400000
 13
13.800000
 23
49.800000
  0
POLYLINE
  8
2
 62
7
  6
CONTINUOUS
 70
1
 66
1
  0
VERTEX
 10
14.500000
 20
49.400000
 30
0.000000
  8
2
 62
7
  6
CONTINUOUS
  0
VERTEX
 10
14.500000
 20
49.800000
 30
0.000000
  8
2
 62
7
  6
CONTINUOUS
  0
VERTEX
 10
13.800000
 20
49.800000
 30
0.000000
  8
2
 62
7
  6
CONTINUOUS
  0
VERTEX
 10
13.800000
 20
49.400000
 30
0.000000
  8
2
 62
7
  6
CONTINUOUS
  0
SEQEND
  0
SOLID
  8
2
 62
5
  6
CONTINUOUS
 10
14.500000
 20
48.700000
 11
14.500000
 21
49.100000
 12
13.800000
 22
48.700000
 13
13.800000
 23
49.100000
  0
POLYLINE
  8
2
 62
7
  6
CONTINUOUS
 70
1
 66
1
  0
VERTEX
 10
14.500000
 20
48.700000
 30
0.000000
  8
2
 62
7
  6
CONTINUOUS
  0
VERTEX
 10
14.500000
 20
49.100000
 30
0.000000
  8
2
 62
7
  6
CONTINUOUS
  0
VERTEX
 10
13.800000
 20
49.100000
 30
0.000000
  8
2
 62
7
  6
CONTINUOUS
  0
VERTEX
 10
13.800000
 20
48.700000
 30
0.000000
  8
2
 62
7
  6
CONTINUOUS
  0
SEQEND
  0
SOLID
  8
2
 62
5
  6
CONTINUOUS
 10
14.500000
 20
47.900000
 11
14.500000
 21
48.300000
 12
13.800000
 22
47.900000
 13
13.800000
 23
48.300000
  0
POLYLINE
  8
2
 62
7
  6
CONTINUOUS
 70
1
 66
1
  0
VERTEX
 10
14.500000
 20
47.900000
 30
0.000000
  8
2
 62
7
  6
CONTINUOUS
  0
VERTEX
 10
14.500000
 20
48.300000
 30
0.000000
  8
2
 62
7
  6
CONTINUOUS
  0
VERTEX
 10
13.800000
 20
48.300000
 30
0.000000
  8
2
 62
7
  6
CONTINUOUS
  0
VERTEX
 10
13.800000
 20
47.900000
 30
0.000000
  8
2
 62
7
  6
CONTINUOUS
  0
SEQEND
  0
POLYLINE
  8
2
 62
7
  6
CONTINUOUS
 70
1
 66
1
  0
VERTEX
 10
15.100000
 20
49.600000
 30
0.000000
  8
2
 62
7
  6
CONTINUOUS
  0
VERTEX
 10
15.100000
 20
50.000000
 30
0.000000
  8
2
 62
7
  6
CONTINUOUS
  0
VERTEX
 10
14.900000
 20
50.000000
 30
0.000000
  8
2
 62
7
  6
CONTINUOUS
  0
VERTEX
 10
14.900000
 20
49.600000
 30
0.000000
  8
2
 62
7
  6
CONTINUOUS
  0
SEQEND
  0
POLYLINE
  8
2
 62
7
  6
CONTINUOUS
 70
1
 66
1
  0
VERTEX
 10
15.100000
 20
49.000000
 30
0.000000
  8
2
 62
7
  6
CONTINUOUS
  0
VERTEX
 10
15.100000
 20
49.400000
 30
0.000000
  8
2
 62
7
  6
CONTINUOUS
  0
VERTEX
 10
14.900000
 20
49.400000
 30
0.000000
  8
2
 62
7
  6
CONTINUOUS
  0
VERTEX
 10
14.900000
 20
49.000000
 30
0.000000
  8
2
 62
7
  6
CONTINUOUS
  0
SEQEND
  0
POLYLINE
  8
2
 62
7
  6
CONTINUOUS
 70
1
 66
1
  0
VERTEX
 10
15.100000
 20
48.400000
 30
0.000000
  8
2
 62
7
  6
CONTINUOUS
  0
VERTEX
 10
15.100000
 20
48.800000
 30
0.000000
  8
2
 62
7
  6
CONTINUOUS
  0
VERTEX
 10
14.900000
 20
48.800000
 30
0.000000
  8
2
 62
7
  6
CONTINUOUS
  0
VERTEX
 10
14.900000
 20
48.400000
 30
0.000000
  8
2
 62
7
  6
CONTINUOUS
  0
SEQEND
  0
SOLID
  8
2
 62
255
  6
CONTINUOUS
 10
5.300000
 20
46.700000
 11
5.300000
 21
51.300000
 12
3.500000
 22
46.700000
 13
3.500000
 23
51.300000
  0
POLYLINE
  8
2
 62
7
  6
CONTINUOUS
 70
1
 66
1
  0
VERTEX
 10
5.300000
 20
46.700000
 30
0.000000
  8
2
 62
7
  6
CONTINUOUS
  0
VERTEX
 10
5.300000
 20
51.300000
 30
0.000000
  8
2
 62
7
  6
CONTINUOUS
  0
VERTEX
 10
3.500000
 20
51.300000
 30
0.000000
  8
2
 62
7
  6
CONTINUOUS
  0
VERTEX
 10
3.500000
 20
46.700000
 30
0.000000
  8
2
 62
7
  6
CONTINUOUS
  0
SEQEND
  0
POLYLINE
  8
2
 62
7
  6
L000000000000000000
 70
1
 66
1
  0
VERTEX
 10
5.000000
 20
47.600000
 30
0.000000
  8
2
 62
7
  6
L000000000000000000
  0
VERTEX
 10
5.000000
 20
49.000000
 30
0.000000
  8
2
 62
7
  6
L000000000000000000
  0
VERTEX
 10
3.800000
 20
49.000000
 30
0.000000
  8
2
 62
7
  6
L000000000000000000
  0
VERTEX
 10
3.800000
 20
47.600000
 30
0.000000
  8
2
 62
7
  6
L000000000000000000
  0
SEQEND
  0
LINE
  8
2
 62
7
  6
L000000000000000000
 10
3.800000
 20
48.300000
 11
3.500000
 21
48.300000
  0
LINE
  8
2
 62
7
  6
L000000000000000000
 10
5.000000
 20
48.500000
 11
3.800000
 21
48.500000
  0
SOLID
  8
2
 62
7
  6
L000000000000000000
 10
5.000000
 20
47.600000
 11
5.000000
 21
47.900000
 12
3.800000
 22
47.600000
 13
3.800000
 23
47.900000
  0
POLYLINE
  8
2
 62
7
  6
L000000000000000000
 70
1
 66
1
  0
VERTEX
 10
5.000000
 20
47.600000
 30
0.000000
  8
2
 62
7
  6
L000000000000000000
  0
VERTEX
 10
5.000000
 20
47.900000
 30
0.000000
  8
2
 62
7
  6
L000000000000000000
  0
VERTEX
 10
3.800000
 20
47.900000
 30
0.000000
  8
2
 62
7
  6
L000000000000000000
  0
VERTEX
 10
3.800000
 20
47.600000
 30
0.000000
  8
2
 62
7
  6
L000000000000000000
  0
SEQEND
  0
SOLID
  8
2
 62
1
  6
CONTINUOUS
 10
3.600000
 20
50.700000
 11
3.600000
 21
51.200000
 12
5.200000
 22
50.700000
 13
5.200000
 23
51.200000
  0
POLYLINE
  8
2
 62
7
  6
CONTINUOUS
 70
1
 66
1
  0
VERTEX
 10
3.600000
 20
50.700000
 30
0.000000
  8
2
 62
7
  6
CONTINUOUS
  0
VERTEX
 10
3.600000
 20
51.200000
 30
0.000000
  8
2
 62
7
  6
CONTINUOUS
  0
VERTEX
 10
5.200000
 20
51.200000
 30
0.000000
  8
2
 62
7
  6
CONTINUOUS
  0
VERTEX
 10
5.200000
 20
50.700000
 30
0.000000
  8
2
 62
7
  6
CONTINUOUS
  0
SEQEND
  0
SOLID
  8
2
 62
255
  6
CONTINUOUS
 10
8.900000
 20
46.700000
 11
8.900000
 21
51.300000
 12
7.100000
 22
46.700000
 13
7.100000
 23
51.300000
  0
POLYLINE
  8
2
 62
7
  6
CONTINUOUS
 70
1
 66
1
  0
VERTEX
 10
8.900000
 20
46.700000
 30
0.000000
  8
2
 62
7
  6
CONTINUOUS
  0
VERTEX
 10
8.900000
 20
51.300000
 30
0.000000
  8
2
 62
7
  6
CONTINUOUS
  0
VERTEX
 10
7.100000
 20
51.300000
 30
0.000000
  8
2
 62
7
  6
CONTINUOUS
  0
VERTEX
 10
7.100000
 20
46.700000
 30
0.000000
  8
2
 62
7
  6
CONTINUOUS
  0
SEQEND
  0
LINE
  8
2
 62
7
  6
L000000000000000000
 10
7.100000
 20
49.200000
 11
8.900000
 21
49.200000
  0
POLYLINE
  8
2
 62
7
  6
L000000000000000000
 70
1
 66
1
  0
VERTEX
 10
8.600000
 20
47.600000
 30
0.000000
  8
2
 62
7
  6
L000000000000000000
  0
VERTEX
 10
8.600000
 20
49.000000
 30
0.000000
  8
2
 62
7
  6
L000000000000000000
  0
VERTEX
 10
7.400000
 20
49.000000
 30
0.000000
  8
2
 62
7
  6
L000000000000000000
  0
VERTEX
 10
7.400000
 20
47.600000
 30
0.000000
  8
2
 62
7
  6
L000000000000000000
  0
SEQEND
  0
LINE
  8
2
 62
7
  6
L000000000000000000
 10
7.400000
 20
48.300000
 11
7.100000
 21
48.300000
  0
LINE
  8
2
 62
7
  6
L000000000000000000
 10
8.900000
 20
48.300000
 11
8.600000
 21
48.300000
  0
LINE
  8
2
 62
7
  6
L000000000000000000
 10
8.600000
 20
48.500000
 11
7.400000
 21
48.500000
  0
SOLID
  8
2
 62
7
  6
L000000000000000000
 10
8.600000
 20
47.600000
 11
8.600000
 21
47.900000
 12
7.400000
 22
47.600000
 13
7.400000
 23
47.900000
  0
POLYLINE
  8
2
 62
7
  6
L000000000000000000
 70
1
 66
1
  0
VERTEX
 10
8.600000
 20
47.600000
 30
0.000000
  8
2
 62
7
  6
L000000000000000000
  0
VERTEX
 10
8.600000
 20
47.900000
 30
0.000000
  8
2
 62
7
  6
L000000000000000000
  0
VERTEX
 10
7.400000
 20
47.900000
 30
0.000000
  8
2
 62
7
  6
L000000000000000000
  0
VERTEX
 10
7.400000
 20
47.600000
 30
0.000000
  8
2
 62
7
  6
L000000000000000000
  0
SEQEND
  0
SOLID
  8
2
 62
1
  6
CONTINUOUS
 10
7.200000
 20
50.700000
 11
7.200000
 21
51.200000
 12
8.800000
 22
50.700000
 13
8.800000
 23
51.200000
  0
POLYLINE
  8
2
 62
7
  6
CONTINUOUS
 70
1
 66
1
  0
VERTEX
 10
7.200000
 20
50.700000
 30
0.000000
  8
2
 62
7
  6
CONTINUOUS
  0
VERTEX
 10
7.200000
 20
51.200000
 30
0.000000
  8
2
 62
7
  6
CONTINUOUS
  0
VERTEX
 10
8.800000
 20
51.200000
 30
0.000000
  8
2
 62
7
  6
CONTINUOUS
  0
VERTEX
 10
8.800000
 20
50.700000
 30
0.000000
  8
2
 62
7
  6
CONTINUOUS
  0
SEQEND
  0
LINE
  8
2
 62
7
  6
L000000000000000000
 10
5.300000
 20
49.200000
 11
7.100000
 21
49.200000
  0
LINE
  8
2
 62
7
  6
L000000000000000000
 10
7.100000
 20
48.300000
 11
6.800000
 21
48.300000
  0
SOLID
  8
2
 62
255
  6
CONTINUOUS
 10
7.100000
 20
46.700000
 11
7.100000
 21
51.300000
 12
5.300000
 22
46.700000
 13
5.300000
 23
51.300000
  0
POLYLINE
  8
2
 62
7
  6
CONTINUOUS
 70
1
 66
1
  0
VERTEX
 10
7.100000
 20
46.700000
 30
0.000000
  8
2
 62
7
  6
CONTINUOUS
  0
VERTEX
 10
7.100000
 20
51.300000
 30
0.000000
  8
2
 62
7
  6
CONTINUOUS
  0
VERTEX
 10
5.300000
 20
51.300000
 30
0.000000
  8
2
 62
7
  6
CONTINUOUS
  0
VERTEX
 10
5.300000
 20
46.700000
 30
0.000000
  8
2
 62
7
  6
CONTINUOUS
  0
SEQEND
  0
POLYLINE
  8
2
 62
7
  6
L000000000000000000
 70
1
 66
1
  0
VERTEX
 10
6.800000
 20
47.600000
 30
0.000000
  8
2
 62
7
  6
L000000000000000000
  0
VERTEX
 10
6.800000
 20
49.000000
 30
0.000000
  8
2
 62
7
  6
L000000000000000000
  0
VERTEX
 10
5.600000
 20
49.000000
 30
0.000000
  8
2
 62
7
  6
L000000000000000000
  0
VERTEX
 10
5.600000
 20
47.600000
 30
0.000000
  8
2
 62
7
  6
L000000000000000000
  0
SEQEND
  0
LINE
  8
2
 62
7
  6
L000000000000000000
 10
5.600000
 20
48.300000
 11
5.300000
 21
48.300000
  0
LINE
  8
2
 62
7
  6
L000000000000000000
 10
7.100000
 20
48.300000
 11
6.800000
 21
48.300000
  0
LINE
  8
2
 62
7
  6
L000000000000000000
 10
6.800000
 20
48.500000
 11
5.600000
 21
48.500000
  0
SOLID
  8
2
 62
7
  6
L000000000000000000
 10
6.800000
 20
47.600000
 11
6.800000
 21
47.900000
 12
5.600000
 22
47.600000
 13
5.600000
 23
47.900000
  0
POLYLINE
  8
2
 62
7
  6
L000000000000000000
 70
1
 66
1
  0
VERTEX
 10
6.800000
 20
47.600000
 30
0.000000
  8
2
 62
7
  6
L000000000000000000
  0
VERTEX
 10
6.800000
 20
47.900000
 30
0.000000
  8
2
 62
7
  6
L000000000000000000
  0
VERTEX
 10
5.600000
 20
47.900000
 30
0.000000
  8
2
 62
7
  6
L000000000000000000
  0
VERTEX
 10
5.600000
 20
47.600000
 30
0.000000
  8
2
 62
7
  6
L000000000000000000
  0
SEQEND
  0
SOLID
  8
2
 62
1
  6
CONTINUOUS
 10
5.400000
 20
50.700000
 11
5.400000
 21
51.200000
 12
7.000000
 22
50.700000
 13
7.000000
 23
51.200000
  0
POLYLINE
  8
2
 62
7
  6
CONTINUOUS
 70
1
 66
1
  0
VERTEX
 10
5.400000
 20
50.700000
 30
0.000000
  8
2
 62
7
  6
CONTINUOUS
  0
VERTEX
 10
5.400000
 20
51.200000
 30
0.000000
  8
2
 62
7
  6
CONTINUOUS
  0
VERTEX
 10
7.000000
 20
51.200000
 30
0.000000
  8
2
 62
7
  6
CONTINUOUS
  0
VERTEX
 10
7.000000
 20
50.700000
 30
0.000000
  8
2
 62
7
  6
CONTINUOUS
  0
SEQEND
  0
LINE
  8
2
 62
7
  6
L000000000000000000
 10
3.500000
 20
49.200000
 11
5.300000
 21
49.200000
  0
LINE
  8
2
 62
7
  6
L000000000000000000
 10
5.300000
 20
48.300000
 11
5.000000
 21
48.300000
  0
LINE
  8
2
 62
7
  6
L000000000000000000
 10
5.300000
 20
49.200000
 11
7.100000
 21
49.200000
  0
SOLID
  8
2
 62
7
  6
CONTINUOUS
 10
8.600000
 20
48.100000
 11
8.600000
 21
47.600000
 12
3.800000
 22
48.100000
 13
3.800000
 23
47.600000
  0
POLYLINE
  8
2
 62
7
  6
CONTINUOUS
 70
1
 66
1
  0
VERTEX
 10
8.600000
 20
48.100000
 30
0.000000
  8
2
 62
7
  6
CONTINUOUS
  0
VERTEX
 10
8.600000
 20
47.600000
 30
0.000000
  8
2
 62
7
  6
CONTINUOUS
  0
VERTEX
 10
3.800000
 20
47.600000
 30
0.000000
  8
2
 62
7
  6
CONTINUOUS
  0
VERTEX
 10
3.800000
 20
48.100000
 30
0.000000
  8
2
 62
7
  6
CONTINUOUS
  0
SEQEND
  0
SOLID
  8
2
 62
255
  6
CONTINUOUS
 10
3.500000
 20
46.700000
 11
3.500000
 21
51.300000
 12
1.700000
 22
46.700000
 13
1.700000
 23
51.300000
  0
POLYLINE
  8
2
 62
7
  6
CONTINUOUS
 70
1
 66
1
  0
VERTEX
 10
3.500000
 20
46.700000
 30
0.000000
  8
2
 62
7
  6
CONTINUOUS
  0
VERTEX
 10
3.500000
 20
51.300000
 30
0.000000
  8
2
 62
7
  6
CONTINUOUS
  0
VERTEX
 10
1.700000
 20
51.300000
 30
0.000000
  8
2
 62
7
  6
CONTINUOUS
  0
VERTEX
 10
1.700000
 20
46.700000
 30
0.000000
  8
2
 62
7
  6
CONTINUOUS
  0
SEQEND
  0
LINE
  8
2
 62
7
  6
L000000000000000000
 10
1.700000
 20
49.200000
 11
3.500000
 21
49.200000
  0
POLYLINE
  8
2
 62
7
  6
L000000000000000000
 70
1
 66
1
  0
VERTEX
 10
3.200000
 20
47.600000
 30
0.000000
  8
2
 62
7
  6
L000000000000000000
  0
VERTEX
 10
3.200000
 20
49.000000
 30
0.000000
  8
2
 62
7
  6
L000000000000000000
  0
VERTEX
 10
2.000000
 20
49.000000
 30
0.000000
  8
2
 62
7
  6
L000000000000000000
  0
VERTEX
 10
2.000000
 20
47.600000
 30
0.000000
  8
2
 62
7
  6
L000000000000000000
  0
SEQEND
  0
LINE
  8
2
 62
7
  6
L000000000000000000
 10
2.000000
 20
48.300000
 11
1.700000
 21
48.300000
  0
LINE
  8
2
 62
7
  6
L000000000000000000
 10
3.500000
 20
48.300000
 11
3.200000
 21
48.300000
  0
LINE
  8
2
 62
7
  6
L000000000000000000
 10
3.200000
 20
48.500000
 11
2.000000
 21
48.500000
  0
SOLID
  8
2
 62
7
  6
L000000000000000000
 10
3.200000
 20
47.600000
 11
3.200000
 21
47.900000
 12
2.000000
 22
47.600000
 13
2.000000
 23
47.900000
  0
POLYLINE
  8
2
 62
7
  6
L000000000000000000
 70
1
 66
1
  0
VERTEX
 10
3.200000
 20
47.600000
 30
0.000000
  8
2
 62
7
  6
L000000000000000000
  0
VERTEX
 10
3.200000
 20
47.900000
 30
0.000000
  8
2
 62
7
  6
L000000000000000000
  0
VERTEX
 10
2.000000
 20
47.900000
 30
0.000000
  8
2
 62
7
  6
L000000000000000000
  0
VERTEX
 10
2.000000
 20
47.600000
 30
0.000000
  8
2
 62
7
  6
L000000000000000000
  0
SEQEND
  0
SOLID
  8
2
 62
1
  6
CONTINUOUS
 10
1.800000
 20
50.700000
 11
1.800000
 21
51.200000
 12
3.400000
 22
50.700000
 13
3.400000
 23
51.200000
  0
POLYLINE
  8
2
 62
7
  6
CONTINUOUS
 70
1
 66
1
  0
VERTEX
 10
1.800000
 20
50.700000
 30
0.000000
  8
2
 62
7
  6
CONTINUOUS
  0
VERTEX
 10
1.800000
 20
51.200000
 30
0.000000
  8
2
 62
7
  6
CONTINUOUS
  0
VERTEX
 10
3.400000
 20
51.200000
 30
0.000000
  8
2
 62
7
  6
CONTINUOUS
  0
VERTEX
 10
3.400000
 20
50.700000
 30
0.000000
  8
2
 62
7
  6
CONTINUOUS
  0
SEQEND
  0
SOLID
  8
2
 62
255
  6
CONTINUOUS
 10
8.900000
 20
31.700000
 11
8.900000
 21
36.300000
 12
1.700000
 22
31.700000
 13
1.700000
 23
36.300000
  0
POLYLINE
  8
2
 62
7
  6
CONTINUOUS
 70
1
 66
1
  0
VERTEX
 10
8.900000
 20
31.700000
 30
0.000000
  8
2
 62
7
  6
CONTINUOUS
  0
VERTEX
 10
8.900000
 20
36.300000
 30
0.000000
  8
2
 62
7
  6
CONTINUOUS
  0
VERTEX
 10
1.700000
 20
36.300000
 30
0.000000
  8
2
 62
7
  6
CONTINUOUS
  0
VERTEX
 10
1.700000
 20
31.700000
 30
0.000000
  8
2
 62
7
  6
CONTINUOUS
  0
SEQEND
  0
SOLID
  8
2
 62
1
  6
CONTINUOUS
 10
8.800000
 20
35.700000
 11
8.800000
 21
36.200000
 12
1.800000
 22
35.700000
 13
1.800000
 23
36.200000
  0
POLYLINE
  8
2
 62
7
  6
CONTINUOUS
 70
1
 66
1
  0
VERTEX
 10
8.800000
 20
35.700000
 30
0.000000
  8
2
 62
7
  6
CONTINUOUS
  0
VERTEX
 10
8.800000
 20
36.200000
 30
0.000000
  8
2
 62
7
  6
CONTINUOUS
  0
VERTEX
 10
1.800000
 20
36.200000
 30
0.000000
  8
2
 62
7
  6
CONTINUOUS
  0
VERTEX
 10
1.800000
 20
35.700000
 30
0.000000
  8
2
 62
7
  6
CONTINUOUS
  0
SEQEND
  0
TEXT
  8
161
 62
7
  6
CONTINUOUS
 10
5.300000
 20
33.066667
 40
2.500000
  1
UVD
 50
0.000000
 51
0.000000
 72
1
 73
0
 11
5.300000
 21
33.066667
  0
ENDBLK
  0
ENDSEC
  0
SECTION
  2
ENTITIES
  0
INSERT
  8
0
 2
ws17nl16
 10
0.000000
 20
0.000000
 30
0.0
 50
0.0
  0
ENDSEC
  0
EOF
