  0
SECTION
  2
HEADER
  9
$ACADVER
  1
AC1009
  9
$INSBASE
 10
0.0
 20
0.0
 30
0.0
  9
$EXTMIN
 10
0.0
 20
0.0
 30
0.0
  9
$EXTMAX
 10
0.000000
 20
0.000000
 30
0.0
  9
$LIMMIN
 10
0.0
 20
0.0
  9
$LIMMAX
 10
0.000000
 20
0.000000
  0
ENDSEC
  0
SECTION
  2
TABLES
  0
TABLE
  2
LTYPE
 70
7
  0
LTYPE
  2
CONTINUOUS
 70
64
  3
Solid line
 72
65
 73
0
 40
0.000000
  0
LTYPE
  2
L000000020000FFFFFF
 70
64
  3
Solid line
 72
65
 73
0
 40
0.000000
  0
LTYPE
  2
L010100020032000000
 70
64
  3
- - - - - - - -
 72
65
 73
2
 40
0.500000
 49
0.340000
 49
-0.160000
  0
LTYPE
  2
L014100020032000000
 70
64
  3
- - - - - - - -
 72
65
 73
2
 40
0.500000
 49
0.300000
 49
-0.200000
  0
LTYPE
  2
L00A100020014000000
 70
64
  3
- - - - - - - -
 72
65
 73
2
 40
0.200000
 49
0.100000
 49
-0.100000
  0
LTYPE
  2
L000000020000008000
 70
64
  3
Solid line
 72
65
 73
0
 40
0.000000
  0
LTYPE
  2
L00F10002001E000000
 70
64
  3
- - - - - - - -
 72
65
 73
2
 40
0.300000
 49
0.150000
 49
-0.150000
  0
ENDTAB
  0
TABLE
  2
LAYER
 70
8
  0
LAYER
  2
0
 70
64
 62
7
  6
CONTINUOUS
  0
LAYER
  2
1
 70
64
 62
7
  6
CONTINUOUS
  0
LAYER
  2
2
 70
64
 62
7
  6
CONTINUOUS
  0
LAYER
  2
3
 70
64
 62
-7
  6
CONTINUOUS
  0
LAYER
  2
4
 70
64
 62
7
  6
CONTINUOUS
  0
LAYER
  2
5
 70
64
 62
7
  6
CONTINUOUS
  0
LAYER
  2
6
 70
64
 62
7
  6
CONTINUOUS
  0
LAYER
  2
7
 70
64
 62
-7
  6
CONTINUOUS
  0
LAYER
  2
8
 70
64
 62
7
  6
CONTINUOUS
  0
LAYER
  2
9
 70
64
 62
7
  6
CONTINUOUS
  0
LAYER
  2
10
 70
64
 62
-7
  6
CONTINUOUS
  0
LAYER
  2
11
 70
64
 62
-7
  6
CONTINUOUS
  0
LAYER
  2
12
 70
64
 62
7
  6
CONTINUOUS
  0
LAYER
  2
13
 70
64
 62
7
  6
CONTINUOUS
  0
LAYER
  2
14
 70
64
 62
7
  6
CONTINUOUS
  0
LAYER
  2
15
 70
64
 62
-7
  6
CONTINUOUS
  0
LAYER
  2
16
 70
64
 62
7
  6
CONTINUOUS
  0
LAYER
  2
17
 70
64
 62
7
  6
CONTINUOUS
  0
LAYER
  2
18
 70
64
 62
7
  6
CONTINUOUS
  0
LAYER
  2
19
 70
64
 62
7
  6
CONTINUOUS
  0
LAYER
  2
20
 70
64
 62
7
  6
CONTINUOUS
  0
LAYER
  2
21
 70
64
 62
7
  6
CONTINUOUS
  0
LAYER
  2
22
 70
64
 62
7
  6
CONTINUOUS
  0
LAYER
  2
23
 70
64
 62
7
  6
CONTINUOUS
  0
LAYER
  2
24
 70
64
 62
7
  6
CONTINUOUS
  0
LAYER
  2
25
 70
64
 62
7
  6
CONTINUOUS
  0
LAYER
  2
26
 70
64
 62
7
  6
CONTINUOUS
  0
LAYER
  2
27
 70
64
 62
7
  6
CONTINUOUS
  0
LAYER
  2
28
 70
64
 62
7
  6
CONTINUOUS
  0
LAYER
  2
29
 70
64
 62
-7
  6
CONTINUOUS
  0
LAYER
  2
30
 70
64
 62
7
  6
CONTINUOUS
  0
LAYER
  2
31
 70
64
 62
7
  6
CONTINUOUS
  0
LAYER
  2
32
 70
64
 62
7
  6
CONTINUOUS
  0
LAYER
  2
33
 70
64
 62
7
  6
CONTINUOUS
  0
LAYER
  2
34
 70
64
 62
7
  6
CONTINUOUS
  0
LAYER
  2
35
 70
64
 62
7
  6
CONTINUOUS
  0
LAYER
  2
36
 70
64
 62
7
  6
CONTINUOUS
  0
LAYER
  2
37
 70
64
 62
7
  6
CONTINUOUS
  0
LAYER
  2
38
 70
64
 62
-7
  6
CONTINUOUS
  0
LAYER
  2
39
 70
64
 62
-7
  6
CONTINUOUS
  0
LAYER
  2
40
 70
64
 62
7
  6
CONTINUOUS
  0
LAYER
  2
41
 70
64
 62
7
  6
CONTINUOUS
  0
LAYER
  2
42
 70
64
 62
7
  6
CONTINUOUS
  0
LAYER
  2
43
 70
64
 62
7
  6
CONTINUOUS
  0
LAYER
  2
44
 70
64
 62
7
  6
CONTINUOUS
  0
LAYER
  2
45
 70
64
 62
7
  6
CONTINUOUS
  0
LAYER
  2
46
 70
64
 62
7
  6
CONTINUOUS
  0
LAYER
  2
47
 70
64
 62
-7
  6
CONTINUOUS
  0
LAYER
  2
48
 70
64
 62
-7
  6
CONTINUOUS
  0
LAYER
  2
49
 70
64
 62
-7
  6
CONTINUOUS
  0
LAYER
  2
50
 70
64
 62
-7
  6
CONTINUOUS
  0
LAYER
  2
51
 70
64
 62
-7
  6
CONTINUOUS
  0
LAYER
  2
52
 70
64
 62
-7
  6
CONTINUOUS
  0
LAYER
  2
53
 70
64
 62
-7
  6
CONTINUOUS
  0
LAYER
  2
54
 70
64
 62
-7
  6
CONTINUOUS
  0
LAYER
  2
55
 70
64
 62
-7
  6
CONTINUOUS
  0
LAYER
  2
56
 70
64
 62
-7
  6
CONTINUOUS
  0
LAYER
  2
57
 70
64
 62
-7
  6
CONTINUOUS
  0
LAYER
  2
58
 70
64
 62
7
  6
CONTINUOUS
  0
LAYER
  2
59
 70
64
 62
-7
  6
CONTINUOUS
  0
LAYER
  2
60
 70
64
 62
-7
  6
CONTINUOUS
  0
LAYER
  2
61
 70
64
 62
7
  6
CONTINUOUS
  0
LAYER
  2
62
 70
64
 62
7
  6
CONTINUOUS
  0
LAYER
  2
63
 70
64
 62
7
  6
CONTINUOUS
  0
LAYER
  2
64
 70
64
 62
7
  6
CONTINUOUS
  0
LAYER
  2
65
 70
64
 62
7
  6
CONTINUOUS
  0
LAYER
  2
66
 70
64
 62
7
  6
CONTINUOUS
  0
LAYER
  2
67
 70
64
 62
7
  6
CONTINUOUS
  0
LAYER
  2
68
 70
64
 62
7
  6
CONTINUOUS
  0
LAYER
  2
69
 70
64
 62
7
  6
CONTINUOUS
  0
LAYER
  2
70
 70
64
 62
7
  6
CONTINUOUS
  0
LAYER
  2
71
 70
64
 62
7
  6
CONTINUOUS
  0
LAYER
  2
72
 70
64
 62
7
  6
CONTINUOUS
  0
LAYER
  2
73
 70
64
 62
7
  6
CONTINUOUS
  0
LAYER
  2
74
 70
64
 62
7
  6
CONTINUOUS
  0
LAYER
  2
75
 70
64
 62
7
  6
CONTINUOUS
  0
LAYER
  2
76
 70
64
 62
7
  6
CONTINUOUS
  0
LAYER
  2
77
 70
64
 62
7
  6
CONTINUOUS
  0
LAYER
  2
78
 70
64
 62
7
  6
CONTINUOUS
  0
LAYER
  2
79
 70
64
 62
7
  6
CONTINUOUS
  0
LAYER
  2
80
 70
64
 62
7
  6
CONTINUOUS
  0
LAYER
  2
81
 70
64
 62
7
  6
CONTINUOUS
  0
LAYER
  2
82
 70
64
 62
7
  6
CONTINUOUS
  0
LAYER
  2
83
 70
64
 62
-7
  6
CONTINUOUS
  0
LAYER
  2
84
 70
64
 62
-7
  6
CONTINUOUS
  0
LAYER
  2
85
 70
64
 62
-7
  6
CONTINUOUS
  0
LAYER
  2
86
 70
64
 62
-7
  6
CONTINUOUS
  0
LAYER
  2
87
 70
64
 62
-7
  6
CONTINUOUS
  0
LAYER
  2
88
 70
64
 62
-7
  6
CONTINUOUS
  0
LAYER
  2
89
 70
64
 62
-7
  6
CONTINUOUS
  0
LAYER
  2
90
 70
64
 62
-7
  6
CONTINUOUS
  0
LAYER
  2
91
 70
64
 62
-7
  6
CONTINUOUS
  0
LAYER
  2
92
 70
64
 62
7
  6
CONTINUOUS
  0
LAYER
  2
93
 70
64
 62
7
  6
CONTINUOUS
  0
LAYER
  2
94
 70
64
 62
7
  6
CONTINUOUS
  0
LAYER
  2
95
 70
64
 62
7
  6
CONTINUOUS
  0
LAYER
  2
96
 70
64
 62
7
  6
CONTINUOUS
  0
LAYER
  2
97
 70
64
 62
7
  6
CONTINUOUS
  0
LAYER
  2
98
 70
64
 62
7
  6
CONTINUOUS
  0
LAYER
  2
99
 70
64
 62
7
  6
CONTINUOUS
  0
LAYER
  2
100
 70
64
 62
7
  6
CONTINUOUS
  0
LAYER
  2
101
 70
64
 62
7
  6
CONTINUOUS
  0
LAYER
  2
102
 70
64
 62
7
  6
CONTINUOUS
  0
LAYER
  2
103
 70
64
 62
7
  6
CONTINUOUS
  0
LAYER
  2
104
 70
64
 62
7
  6
CONTINUOUS
  0
LAYER
  2
105
 70
64
 62
7
  6
CONTINUOUS
  0
LAYER
  2
106
 70
64
 62
7
  6
CONTINUOUS
  0
LAYER
  2
107
 70
64
 62
7
  6
CONTINUOUS
  0
LAYER
  2
108
 70
64
 62
7
  6
CONTINUOUS
  0
LAYER
  2
109
 70
64
 62
7
  6
CONTINUOUS
  0
LAYER
  2
110
 70
64
 62
-7
  6
CONTINUOUS
  0
LAYER
  2
111
 70
64
 62
-7
  6
CONTINUOUS
  0
LAYER
  2
112
 70
64
 62
-7
  6
CONTINUOUS
  0
LAYER
  2
113
 70
64
 62
-7
  6
CONTINUOUS
  0
LAYER
  2
114
 70
64
 62
-7
  6
CONTINUOUS
  0
LAYER
  2
115
 70
64
 62
-7
  6
CONTINUOUS
  0
LAYER
  2
116
 70
64
 62
-7
  6
CONTINUOUS
  0
LAYER
  2
117
 70
64
 62
-7
  6
CONTINUOUS
  0
LAYER
  2
118
 70
64
 62
-7
  6
CONTINUOUS
  0
LAYER
  2
119
 70
64
 62
-7
  6
CONTINUOUS
  0
LAYER
  2
120
 70
64
 62
-7
  6
CONTINUOUS
  0
LAYER
  2
121
 70
64
 62
-7
  6
CONTINUOUS
  0
LAYER
  2
122
 70
64
 62
-7
  6
CONTINUOUS
  0
LAYER
  2
123
 70
64
 62
-7
  6
CONTINUOUS
  0
LAYER
  2
124
 70
64
 62
-7
  6
CONTINUOUS
  0
LAYER
  2
125
 70
64
 62
-7
  6
CONTINUOUS
  0
LAYER
  2
126
 70
64
 62
-7
  6
CONTINUOUS
  0
LAYER
  2
127
 70
64
 62
-7
  6
CONTINUOUS
  0
LAYER
  2
128
 70
64
 62
-7
  6
CONTINUOUS
  0
LAYER
  2
129
 70
64
 62
-7
  6
CONTINUOUS
  0
LAYER
  2
130
 70
64
 62
-7
  6
CONTINUOUS
  0
LAYER
  2
131
 70
64
 62
-7
  6
CONTINUOUS
  0
LAYER
  2
132
 70
64
 62
-7
  6
CONTINUOUS
  0
LAYER
  2
133
 70
64
 62
-7
  6
CONTINUOUS
  0
LAYER
  2
134
 70
64
 62
-7
  6
CONTINUOUS
  0
LAYER
  2
135
 70
64
 62
-7
  6
CONTINUOUS
  0
LAYER
  2
136
 70
64
 62
-7
  6
CONTINUOUS
  0
LAYER
  2
137
 70
64
 62
7
  6
CONTINUOUS
  0
LAYER
  2
138
 70
64
 62
7
  6
CONTINUOUS
  0
LAYER
  2
139
 70
64
 62
7
  6
CONTINUOUS
  0
LAYER
  2
140
 70
64
 62
7
  6
CONTINUOUS
  0
LAYER
  2
141
 70
64
 62
7
  6
CONTINUOUS
  0
LAYER
  2
142
 70
64
 62
7
  6
CONTINUOUS
  0
LAYER
  2
143
 70
64
 62
7
  6
CONTINUOUS
  0
LAYER
  2
144
 70
64
 62
7
  6
CONTINUOUS
  0
LAYER
  2
145
 70
64
 62
7
  6
CONTINUOUS
  0
LAYER
  2
146
 70
64
 62
7
  6
CONTINUOUS
  0
LAYER
  2
147
 70
64
 62
7
  6
CONTINUOUS
  0
LAYER
  2
148
 70
64
 62
7
  6
CONTINUOUS
  0
LAYER
  2
149
 70
64
 62
7
  6
CONTINUOUS
  0
LAYER
  2
150
 70
64
 62
7
  6
CONTINUOUS
  0
LAYER
  2
151
 70
64
 62
7
  6
CONTINUOUS
  0
LAYER
  2
152
 70
64
 62
7
  6
CONTINUOUS
  0
LAYER
  2
153
 70
64
 62
7
  6
CONTINUOUS
  0
LAYER
  2
154
 70
64
 62
7
  6
CONTINUOUS
  0
LAYER
  2
155
 70
64
 62
-7
  6
CONTINUOUS
  0
LAYER
  2
156
 70
64
 62
-7
  6
CONTINUOUS
  0
LAYER
  2
157
 70
64
 62
-7
  6
CONTINUOUS
  0
LAYER
  2
158
 70
64
 62
-7
  6
CONTINUOUS
  0
LAYER
  2
159
 70
64
 62
-7
  6
CONTINUOUS
  0
LAYER
  2
160
 70
64
 62
-7
  6
CONTINUOUS
  0
LAYER
  2
161
 70
64
 62
-7
  6
CONTINUOUS
  0
LAYER
  2
162
 70
64
 62
-7
  6
CONTINUOUS
  0
LAYER
  2
163
 70
64
 62
-7
  6
CONTINUOUS
  0
LAYER
  2
164
 70
64
 62
7
  6
CONTINUOUS
  0
LAYER
  2
165
 70
64
 62
7
  6
CONTINUOUS
  0
LAYER
  2
166
 70
64
 62
7
  6
CONTINUOUS
  0
LAYER
  2
167
 70
64
 62
7
  6
CONTINUOUS
  0
LAYER
  2
168
 70
64
 62
7
  6
CONTINUOUS
  0
LAYER
  2
169
 70
64
 62
7
  6
CONTINUOUS
  0
LAYER
  2
170
 70
64
 62
7
  6
CONTINUOUS
  0
LAYER
  2
171
 70
64
 62
7
  6
CONTINUOUS
  0
LAYER
  2
172
 70
64
 62
7
  6
CONTINUOUS
  0
LAYER
  2
173
 70
64
 62
7
  6
CONTINUOUS
  0
LAYER
  2
174
 70
64
 62
7
  6
CONTINUOUS
  0
LAYER
  2
175
 70
64
 62
7
  6
CONTINUOUS
  0
LAYER
  2
176
 70
64
 62
7
  6
CONTINUOUS
  0
LAYER
  2
177
 70
64
 62
7
  6
CONTINUOUS
  0
LAYER
  2
178
 70
64
 62
7
  6
CONTINUOUS
  0
LAYER
  2
179
 70
64
 62
7
  6
CONTINUOUS
  0
LAYER
  2
180
 70
64
 62
7
  6
CONTINUOUS
  0
LAYER
  2
181
 70
64
 62
7
  6
CONTINUOUS
  0
LAYER
  2
182
 70
64
 62
7
  6
CONTINUOUS
  0
LAYER
  2
183
 70
64
 62
7
  6
CONTINUOUS
  0
LAYER
  2
184
 70
64
 62
7
  6
CONTINUOUS
  0
LAYER
  2
185
 70
64
 62
7
  6
CONTINUOUS
  0
LAYER
  2
186
 70
64
 62
7
  6
CONTINUOUS
  0
LAYER
  2
187
 70
64
 62
7
  6
CONTINUOUS
  0
LAYER
  2
188
 70
64
 62
7
  6
CONTINUOUS
  0
LAYER
  2
189
 70
64
 62
7
  6
CONTINUOUS
  0
LAYER
  2
190
 70
64
 62
7
  6
CONTINUOUS
  0
LAYER
  2
191
 70
64
 62
7
  6
CONTINUOUS
  0
LAYER
  2
192
 70
64
 62
7
  6
CONTINUOUS
  0
LAYER
  2
193
 70
64
 62
7
  6
CONTINUOUS
  0
LAYER
  2
194
 70
64
 62
7
  6
CONTINUOUS
  0
LAYER
  2
195
 70
64
 62
7
  6
CONTINUOUS
  0
LAYER
  2
196
 70
64
 62
7
  6
CONTINUOUS
  0
LAYER
  2
197
 70
64
 62
7
  6
CONTINUOUS
  0
LAYER
  2
198
 70
64
 62
7
  6
CONTINUOUS
  0
LAYER
  2
199
 70
64
 62
7
  6
CONTINUOUS
  0
ENDTAB
  0
ENDSEC
  0
SECTION
  2
BLOCKS
  0
BLOCK
  8
0
  2
ka4298
 70
 0
 10
0.0
 20
0.0
 30
0.0
  0
POLYLINE
  8
31
 62
255
  6
L000000020000FFFFFF
 70
1
 66
1
  0
VERTEX
 10
24.500000
 20
5.000000
 30
0.000000
  8
31
 62
255
  6
L000000020000FFFFFF
  0
VERTEX
 10
24.500000
 20
26.000000
 30
0.000000
  8
31
 62
255
  6
L000000020000FFFFFF
  0
VERTEX
 10
23.000000
 20
26.000000
 30
0.000000
  8
31
 62
255
  6
L000000020000FFFFFF
  0
VERTEX
 10
23.000000
 20
5.000000
 30
0.000000
  8
31
 62
255
  6
L000000020000FFFFFF
  0
SEQEND
  0
LINE
  8
31
 62
7
  6
CONTINUOUS
 10
24.500000
 20
26.100000
 11
23.000000
 21
26.100000
  0
LINE
  8
31
 62
7
  6
L014100020032000000
 10
24.500000
 20
5.100000
 11
24.500000
 21
26.100000
  0
LINE
  8
31
 62
7
  6
CONTINUOUS
 10
23.000000
 20
5.100000
 11
24.500000
 21
5.100000
  0
LINE
  8
31
 62
7
  6
L014100020032000000
 10
23.000000
 20
26.100000
 11
23.000000
 21
5.100000
  0
POLYLINE
  8
31
 62
255
  6
L000000020000FFFFFF
 70
1
 66
1
  0
VERTEX
 10
2.000000
 20
5.100000
 30
0.000000
  8
31
 62
255
  6
L000000020000FFFFFF
  0
VERTEX
 10
2.000000
 20
26.100000
 30
0.000000
  8
31
 62
255
  6
L000000020000FFFFFF
  0
VERTEX
 10
0.500000
 20
26.100000
 30
0.000000
  8
31
 62
255
  6
L000000020000FFFFFF
  0
VERTEX
 10
0.500000
 20
5.100000
 30
0.000000
  8
31
 62
255
  6
L000000020000FFFFFF
  0
SEQEND
  0
LINE
  8
31
 62
7
  6
CONTINUOUS
 10
2.000000
 20
26.100000
 11
0.500000
 21
26.100000
  0
LINE
  8
31
 62
7
  6
L014100020032000000
 10
2.000000
 20
5.100000
 11
2.000000
 21
26.100000
  0
LINE
  8
31
 62
7
  6
CONTINUOUS
 10
0.500000
 20
5.100000
 11
2.000000
 21
5.100000
  0
LINE
  8
31
 62
7
  6
L014100020032000000
 10
0.500000
 20
26.100000
 11
0.500000
 21
5.100000
  0
POLYLINE
  8
1
 62
7
  6
CONTINUOUS
 70
1
 66
1
  0
VERTEX
 10
24.800000
 20
0.200000
 30
0.000000
  8
1
 62
7
  6
CONTINUOUS
  0
VERTEX
 10
24.800000
 20
134.700000
 30
0.000000
  8
1
 62
7
  6
CONTINUOUS
  0
VERTEX
 10
0.200000
 20
134.700000
 30
0.000000
  8
1
 62
7
  6
CONTINUOUS
  0
VERTEX
 10
0.200000
 20
0.200000
 30
0.000000
  8
1
 62
7
  6
CONTINUOUS
  0
SEQEND
  0
POLYLINE
  8
1
 62
7
  6
CONTINUOUS
 70
0
 66
1
  0
VERTEX
 10
0.200000
 20
30.000000
  8
1
 62
7
  6
CONTINUOUS
  0
VERTEX
 10
24.800000
 20
30.000000
  8
1
 62
7
  6
CONTINUOUS
  0
SEQEND
  0
LINE
  8
1
 62
7
  6
CONTINUOUS
 10
1.000000
 20
27.900000
 11
1.000000
 21
27.400000
  0
LINE
  8
1
 62
7
  6
CONTINUOUS
 10
1.000000
 20
24.500000
 11
1.000000
 21
25.000000
  0
LINE
  8
1
 62
7
  6
CONTINUOUS
 10
1.400000
 20
26.200000
 11
0.500000
 21
26.200000
  0
CIRCLE
  8
1
 62
7
  6
CONTINUOUS
 10
1.000000
 20
26.200000
 30
0.0
 40
0.700000
  0
LINE
  8
1
 62
7
  6
CONTINUOUS
 10
24.000000
 20
27.900000
 11
24.000000
 21
27.400000
  0
LINE
  8
1
 62
7
  6
CONTINUOUS
 10
24.000000
 20
24.500000
 11
24.000000
 21
25.000000
  0
LINE
  8
1
 62
7
  6
CONTINUOUS
 10
23.600000
 20
26.200000
 11
24.500000
 21
26.200000
  0
CIRCLE
  8
1
 62
7
  6
CONTINUOUS
 10
24.000000
 20
26.200000
 30
0.0
 40
0.700000
  0
POLYLINE
  8
1
 62
7
  6
CONTINUOUS
 70
0
 66
1
  0
VERTEX
 10
0.200000
 20
105.000000
  8
1
 62
7
  6
CONTINUOUS
  0
VERTEX
 10
24.800000
 20
105.000000
  8
1
 62
7
  6
CONTINUOUS
  0
SEQEND
  0
LINE
  8
1
 62
7
  6
CONTINUOUS
 10
24.000000
 20
2.100000
 11
24.000000
 21
2.600000
  0
LINE
  8
1
 62
7
  6
CONTINUOUS
 10
24.000000
 20
5.500000
 11
24.000000
 21
5.000000
  0
LINE
  8
1
 62
7
  6
CONTINUOUS
 10
23.600000
 20
3.800000
 11
24.500000
 21
3.800000
  0
CIRCLE
  8
1
 62
7
  6
CONTINUOUS
 10
24.000000
 20
3.800000
 30
0.0
 40
0.700000
  0
LINE
  8
1
 62
7
  6
CONTINUOUS
 10
1.000000
 20
2.100000
 11
1.000000
 21
2.600000
  0
LINE
  8
1
 62
7
  6
CONTINUOUS
 10
1.000000
 20
5.500000
 11
1.000000
 21
5.000000
  0
LINE
  8
1
 62
7
  6
CONTINUOUS
 10
1.400000
 20
3.800000
 11
0.500000
 21
3.800000
  0
CIRCLE
  8
1
 62
7
  6
CONTINUOUS
 10
1.000000
 20
3.800000
 30
0.0
 40
0.700000
  0
POLYLINE
  8
1
 62
7
  6
CONTINUOUS
 70
0
 66
1
  0
VERTEX
 10
0.200000
 20
60.000000
  8
1
 62
7
  6
CONTINUOUS
  0
VERTEX
 10
24.800000
 20
60.000000
  8
1
 62
7
  6
CONTINUOUS
  0
SEQEND
  0
POLYLINE
  8
1
 62
7
  6
CONTINUOUS
 70
1
 66
1
  0
VERTEX
 10
19.000000
 20
73.000000
 30
0.000000
  8
1
 62
7
  6
CONTINUOUS
  0
VERTEX
 10
19.000000
 20
69.000000
 30
0.000000
  8
1
 62
7
  6
CONTINUOUS
  0
VERTEX
 10
6.000000
 20
69.000000
 30
0.000000
  8
1
 62
7
  6
CONTINUOUS
  0
VERTEX
 10
6.000000
 20
73.000000
 30
0.000000
  8
1
 62
7
  6
CONTINUOUS
  0
SEQEND
  0
POLYLINE
  8
1
 62
7
  6
CONTINUOUS
 70
0
 66
1
  0
VERTEX
 10
12.000000
 20
102.000000
  8
1
 62
7
  6
CONTINUOUS
  0
VERTEX
 10
12.000000
 20
87.000000
  8
1
 62
7
  6
CONTINUOUS
  0
SEQEND
  0
POLYLINE
  8
1
 62
7
  6
CONTINUOUS
 70
0
 66
1
  0
VERTEX
 10
13.000000
 20
102.000000
  8
1
 62
7
  6
CONTINUOUS
  0
VERTEX
 10
13.000000
 20
87.000000
  8
1
 62
7
  6
CONTINUOUS
  0
SEQEND
  0
ARC
  8
1
 62
7
  6
CONTINUOUS
 10
12.500000
 20
101.900000
 30
0.000000
 40
0.500000
 50
11.309932
 51
168.690068
  0
ARC
  8
1
 62
7
  6
CONTINUOUS
 10
12.500000
 20
87.100000
 30
0.000000
 40
0.500000
 50
191.309932
 51
-11.309932
  0
ARC
  8
1
 62
7
  6
CONTINUOUS
 10
12.500000
 20
83.400000
 30
0.000000
 40
0.500000
 50
-11.309932
 51
191.309932
  0
ARC
  8
1
 62
7
  6
CONTINUOUS
 10
12.500000
 20
74.500000
 30
0.000000
 40
0.500000
 50
180.000000
 51
0.000000
  0
POLYLINE
  8
1
 62
7
  6
CONTINUOUS
 70
0
 66
1
  0
VERTEX
 10
12.000000
 20
83.200000
  8
1
 62
7
  6
CONTINUOUS
  0
VERTEX
 10
12.000000
 20
80.000000
  8
1
 62
7
  6
CONTINUOUS
  0
SEQEND
  0
POLYLINE
  8
1
 62
7
  6
CONTINUOUS
 70
0
 66
1
  0
VERTEX
 10
13.000000
 20
83.200000
  8
1
 62
7
  6
CONTINUOUS
  0
VERTEX
 10
13.000000
 20
80.000000
  8
1
 62
7
  6
CONTINUOUS
  0
SEQEND
  0
POLYLINE
  8
1
 62
7
  6
CONTINUOUS
 70
0
 66
1
  0
VERTEX
 10
12.000000
 20
76.800000
  8
1
 62
7
  6
CONTINUOUS
  0
VERTEX
 10
12.000000
 20
74.500000
  8
1
 62
7
  6
CONTINUOUS
  0
SEQEND
  0
POLYLINE
  8
1
 62
7
  6
CONTINUOUS
 70
0
 66
1
  0
VERTEX
 10
13.000000
 20
76.800000
  8
1
 62
7
  6
CONTINUOUS
  0
VERTEX
 10
13.000000
 20
74.500000
  8
1
 62
7
  6
CONTINUOUS
  0
SEQEND
  0
POLYLINE
  8
1
 62
7
  6
CONTINUOUS
 70
0
 66
1
  0
VERTEX
 10
11.500000
 20
80.000000
  8
1
 62
7
  6
CONTINUOUS
  0
VERTEX
 10
11.500000
 20
103.000000
  8
1
 62
7
  6
CONTINUOUS
  0
VERTEX
 10
13.500000
 20
103.000000
  8
1
 62
7
  6
CONTINUOUS
  0
VERTEX
 10
13.500000
 20
80.000000
  8
1
 62
7
  6
CONTINUOUS
  0
SEQEND
  0
POLYLINE
  8
1
 62
7
  6
CONTINUOUS
 70
0
 66
1
  0
VERTEX
 10
11.500000
 20
76.800000
  8
1
 62
7
  6
CONTINUOUS
  0
VERTEX
 10
11.500000
 20
73.000000
  8
1
 62
7
  6
CONTINUOUS
  0
SEQEND
  0
POLYLINE
  8
1
 62
7
  6
CONTINUOUS
 70
0
 66
1
  0
VERTEX
 10
13.500000
 20
76.800000
  8
1
 62
7
  6
CONTINUOUS
  0
VERTEX
 10
13.500000
 20
73.000000
  8
1
 62
7
  6
CONTINUOUS
  0
SEQEND
  0
POLYLINE
  8
1
 62
7
  6
CONTINUOUS
 70
1
 66
1
  0
VERTEX
 10
23.400000
 20
80.000000
 30
0.000000
  8
1
 62
7
  6
CONTINUOUS
  0
VERTEX
 10
23.400000
 20
76.800000
 30
0.000000
  8
1
 62
7
  6
CONTINUOUS
  0
VERTEX
 10
1.600000
 20
76.800000
 30
0.000000
  8
1
 62
7
  6
CONTINUOUS
  0
VERTEX
 10
1.600000
 20
80.000000
 30
0.000000
  8
1
 62
7
  6
CONTINUOUS
  0
SEQEND
  0
CIRCLE
  8
1
 62
7
  6
CONTINUOUS
 10
12.500000
 20
79.100000
 30
0.0
 40
0.500000
  0
LINE
  8
1
 62
7
  6
CONTINUOUS
 10
10.100000
 20
79.200000
 11
2.300000
 21
79.200000
  0
LINE
  8
1
 62
7
  6
CONTINUOUS
 10
10.100000
 20
78.600000
 11
2.300000
 21
78.600000
  0
ARC
  8
1
 62
7
  6
CONTINUOUS
 10
2.400000
 20
78.900000
 30
0.000000
 40
0.300000
 50
108.434949
 51
-108.434949
  0
ARC
  8
1
 62
7
  6
CONTINUOUS
 10
10.500000
 20
78.900000
 30
0.000000
 40
0.500000
 50
216.869898
 51
143.130102
  0
LINE
  8
1
 62
7
  6
CONTINUOUS
 10
14.900000
 20
79.200000
 11
22.700000
 21
79.200000
  0
LINE
  8
1
 62
7
  6
CONTINUOUS
 10
14.900000
 20
78.600000
 11
22.700000
 21
78.600000
  0
ARC
  8
1
 62
7
  6
CONTINUOUS
 10
22.600000
 20
78.900000
 30
0.000000
 40
0.300000
 50
-71.565051
 51
71.565051
  0
ARC
  8
1
 62
7
  6
CONTINUOUS
 10
14.500000
 20
78.900000
 30
0.000000
 40
0.500000
 50
36.869898
 51
-36.869898
  0
LINE
  8
1
 62
7
  6
CONTINUOUS
 10
10.100000
 20
77.700000
 11
2.300000
 21
77.700000
  0
LINE
  8
1
 62
7
  6
CONTINUOUS
 10
10.100000
 20
77.100000
 11
2.300000
 21
77.100000
  0
ARC
  8
1
 62
7
  6
CONTINUOUS
 10
2.400000
 20
77.400000
 30
0.000000
 40
0.300000
 50
108.434949
 51
-108.434949
  0
ARC
  8
1
 62
7
  6
CONTINUOUS
 10
10.500000
 20
77.400000
 30
0.000000
 40
0.500000
 50
216.869898
 51
143.130102
  0
LINE
  8
1
 62
7
  6
CONTINUOUS
 10
14.900000
 20
77.700000
 11
22.700000
 21
77.700000
  0
LINE
  8
1
 62
7
  6
CONTINUOUS
 10
14.900000
 20
77.100000
 11
22.700000
 21
77.100000
  0
ARC
  8
1
 62
7
  6
CONTINUOUS
 10
22.600000
 20
77.400000
 30
0.000000
 40
0.300000
 50
-71.565051
 51
71.565051
  0
ARC
  8
1
 62
7
  6
CONTINUOUS
 10
14.500000
 20
77.400000
 30
0.000000
 40
0.500000
 50
36.869898
 51
-36.869898
  0
CIRCLE
  8
1
 62
7
  6
CONTINUOUS
 10
12.500000
 20
84.600000
 30
0.0
 40
0.400000
  0
POLYLINE
  8
1
 62
7
  6
CONTINUOUS
 70
1
 66
1
  0
VERTEX
 10
16.500000
 20
70.400000
 30
0.000000
  8
1
 62
7
  6
CONTINUOUS
  0
VERTEX
 10
16.500000
 20
73.000000
 30
0.000000
  8
1
 62
7
  6
CONTINUOUS
  0
VERTEX
 10
8.500000
 20
73.000000
 30
0.000000
  8
1
 62
7
  6
CONTINUOUS
  0
VERTEX
 10
8.500000
 20
70.400000
 30
0.000000
  8
1
 62
7
  6
CONTINUOUS
  0
SEQEND
  0
POLYLINE
  8
1
 62
7
  6
CONTINUOUS
 70
0
 66
1
  0
VERTEX
 10
0.200000
 20
45.000000
  8
1
 62
7
  6
CONTINUOUS
  0
VERTEX
 10
24.800000
 20
45.000000
  8
1
 62
7
  6
CONTINUOUS
  0
SEQEND
  0
LINE
  8
1
 62
7
  6
CONTINUOUS
 10
1.000000
 20
57.900000
 11
1.000000
 21
57.400000
  0
LINE
  8
1
 62
7
  6
CONTINUOUS
 10
1.000000
 20
54.500000
 11
1.000000
 21
55.000000
  0
LINE
  8
1
 62
7
  6
CONTINUOUS
 10
1.400000
 20
56.200000
 11
0.500000
 21
56.200000
  0
CIRCLE
  8
1
 62
7
  6
CONTINUOUS
 10
1.000000
 20
56.200000
 30
0.0
 40
0.700000
  0
LINE
  8
1
 62
7
  6
CONTINUOUS
 10
24.000000
 20
57.900000
 11
24.000000
 21
57.400000
  0
LINE
  8
1
 62
7
  6
CONTINUOUS
 10
24.000000
 20
54.500000
 11
24.000000
 21
55.000000
  0
LINE
  8
1
 62
7
  6
CONTINUOUS
 10
23.600000
 20
56.200000
 11
24.500000
 21
56.200000
  0
CIRCLE
  8
1
 62
7
  6
CONTINUOUS
 10
24.000000
 20
56.200000
 30
0.0
 40
0.700000
  0
LINE
  8
1
 62
7
  6
CONTINUOUS
 10
24.000000
 20
47.100000
 11
24.000000
 21
47.600000
  0
LINE
  8
1
 62
7
  6
CONTINUOUS
 10
24.000000
 20
50.500000
 11
24.000000
 21
50.000000
  0
LINE
  8
1
 62
7
  6
CONTINUOUS
 10
23.600000
 20
48.800000
 11
24.500000
 21
48.800000
  0
CIRCLE
  8
1
 62
7
  6
CONTINUOUS
 10
24.000000
 20
48.800000
 30
0.0
 40
0.700000
  0
LINE
  8
1
 62
7
  6
CONTINUOUS
 10
1.000000
 20
47.100000
 11
1.000000
 21
47.600000
  0
LINE
  8
1
 62
7
  6
CONTINUOUS
 10
1.000000
 20
50.500000
 11
1.000000
 21
50.000000
  0
LINE
  8
1
 62
7
  6
CONTINUOUS
 10
1.400000
 20
48.800000
 11
0.500000
 21
48.800000
  0
CIRCLE
  8
1
 62
7
  6
CONTINUOUS
 10
1.000000
 20
48.800000
 30
0.0
 40
0.700000
  0
POLYLINE
  8
1
 62
7
  6
L014100020032000000
 70
0
 66
1
  0
VERTEX
 10
0.200000
 20
50.200000
  8
1
 62
7
  6
L014100020032000000
  0
VERTEX
 10
24.800000
 20
50.200000
  8
1
 62
7
  6
L014100020032000000
  0
SEQEND
  0
POLYLINE
  8
1
 62
7
  6
L014100020032000000
 70
0
 66
1
  0
VERTEX
 10
0.200000
 20
54.800000
  8
1
 62
7
  6
L014100020032000000
  0
VERTEX
 10
24.800000
 20
54.800000
  8
1
 62
7
  6
L014100020032000000
  0
SEQEND
  0
POLYLINE
  8
1
 62
7
  6
L00A100020014000000
 70
1
 66
1
  0
VERTEX
 10
24.800000
 20
40.000000
  8
1
 62
7
  6
L00A100020014000000
  0
VERTEX
 10
23.300000
 20
40.000000
  8
1
 62
7
  6
L00A100020014000000
  0
VERTEX
 10
23.300000
 20
44.000000
  8
1
 62
7
  6
L00A100020014000000
  0
VERTEX
 10
1.700000
 20
44.000000
  8
1
 62
7
  6
L00A100020014000000
  0
VERTEX
 10
1.700000
 20
40.000000
  8
1
 62
7
  6
L00A100020014000000
  0
VERTEX
 10
0.200000
 20
40.000000
  8
1
 62
7
  6
L00A100020014000000
  0
VERTEX
 10
0.200000
 20
35.000000
  8
1
 62
7
  6
L00A100020014000000
  0
VERTEX
 10
1.700000
 20
35.000000
  8
1
 62
7
  6
L00A100020014000000
  0
VERTEX
 10
1.700000
 20
31.000000
  8
1
 62
7
  6
L00A100020014000000
  0
VERTEX
 10
23.300000
 20
31.000000
  8
1
 62
7
  6
L00A100020014000000
  0
VERTEX
 10
23.300000
 20
35.000000
  8
1
 62
7
  6
L00A100020014000000
  0
VERTEX
 10
24.800000
 20
35.000000
  8
1
 62
7
  6
L00A100020014000000
  0
SEQEND
  0
POLYLINE
  8
1
 62
7
  6
L014100020032000000
 70
0
 66
1
  0
VERTEX
 10
15.100000
 20
35.200000
  8
1
 62
7
  6
L014100020032000000
  0
VERTEX
 10
24.800000
 20
35.200000
  8
1
 62
7
  6
L014100020032000000
  0
SEQEND
  0
POLYLINE
  8
1
 62
7
  6
L014100020032000000
 70
0
 66
1
  0
VERTEX
 10
15.100000
 20
39.800000
  8
1
 62
7
  6
L014100020032000000
  0
VERTEX
 10
24.800000
 20
39.800000
  8
1
 62
7
  6
L014100020032000000
  0
SEQEND
  0
LINE
  8
1
 62
7
  6
CONTINUOUS
 10
24.000000
 20
42.900000
 11
24.000000
 21
42.400000
  0
LINE
  8
1
 62
7
  6
CONTINUOUS
 10
24.000000
 20
39.500000
 11
24.000000
 21
40.000000
  0
LINE
  8
1
 62
7
  6
CONTINUOUS
 10
23.600000
 20
41.200000
 11
24.500000
 21
41.200000
  0
CIRCLE
  8
1
 62
7
  6
CONTINUOUS
 10
24.000000
 20
41.200000
 30
0.0
 40
0.700000
  0
LINE
  8
1
 62
7
  6
CONTINUOUS
 10
24.000000
 20
32.100000
 11
24.000000
 21
32.600000
  0
LINE
  8
1
 62
7
  6
CONTINUOUS
 10
24.000000
 20
35.500000
 11
24.000000
 21
35.000000
  0
LINE
  8
1
 62
7
  6
CONTINUOUS
 10
23.600000
 20
33.800000
 11
24.500000
 21
33.800000
  0
CIRCLE
  8
1
 62
7
  6
CONTINUOUS
 10
24.000000
 20
33.800000
 30
0.0
 40
0.700000
  0
LINE
  8
1
 62
7
  6
CONTINUOUS
 10
1.000000
 20
42.900000
 11
1.000000
 21
42.400000
  0
LINE
  8
1
 62
7
  6
CONTINUOUS
 10
1.000000
 20
39.500000
 11
1.000000
 21
40.000000
  0
LINE
  8
1
 62
7
  6
CONTINUOUS
 10
0.600000
 20
41.200000
 11
1.500000
 21
41.200000
  0
CIRCLE
  8
1
 62
7
  6
CONTINUOUS
 10
1.000000
 20
41.200000
 30
0.0
 40
0.700000
  0
LINE
  8
1
 62
7
  6
CONTINUOUS
 10
1.000000
 20
32.100000
 11
1.000000
 21
32.600000
  0
LINE
  8
1
 62
7
  6
CONTINUOUS
 10
1.000000
 20
35.500000
 11
1.000000
 21
35.000000
  0
LINE
  8
1
 62
7
  6
CONTINUOUS
 10
0.600000
 20
33.800000
 11
1.500000
 21
33.800000
  0
CIRCLE
  8
1
 62
7
  6
CONTINUOUS
 10
1.000000
 20
33.800000
 30
0.0
 40
0.700000
  0
LINE
  8
1
 62
7
  6
CONTINUOUS
 10
24.000000
 20
107.100000
 11
24.000000
 21
107.600000
  0
LINE
  8
1
 62
7
  6
CONTINUOUS
 10
24.000000
 20
110.500000
 11
24.000000
 21
110.000000
  0
LINE
  8
1
 62
7
  6
CONTINUOUS
 10
23.600000
 20
108.800000
 11
24.500000
 21
108.800000
  0
CIRCLE
  8
1
 62
7
  6
CONTINUOUS
 10
24.000000
 20
108.800000
 30
0.0
 40
0.700000
  0
LINE
  8
1
 62
7
  6
CONTINUOUS
 10
1.000000
 20
107.100000
 11
1.000000
 21
107.600000
  0
LINE
  8
1
 62
7
  6
CONTINUOUS
 10
1.000000
 20
110.500000
 11
1.000000
 21
110.000000
  0
LINE
  8
1
 62
7
  6
CONTINUOUS
 10
1.400000
 20
108.800000
 11
0.500000
 21
108.800000
  0
CIRCLE
  8
1
 62
7
  6
CONTINUOUS
 10
1.000000
 20
108.800000
 30
0.0
 40
0.700000
  0
LINE
  8
1
 62
7
  6
CONTINUOUS
 10
24.000000
 20
107.100000
 11
24.000000
 21
107.600000
  0
LINE
  8
1
 62
7
  6
CONTINUOUS
 10
24.000000
 20
110.500000
 11
24.000000
 21
110.000000
  0
LINE
  8
1
 62
7
  6
CONTINUOUS
 10
23.600000
 20
108.800000
 11
24.500000
 21
108.800000
  0
CIRCLE
  8
1
 62
7
  6
CONTINUOUS
 10
24.000000
 20
108.800000
 30
0.0
 40
0.700000
  0
LINE
  8
1
 62
7
  6
CONTINUOUS
 10
1.000000
 20
107.100000
 11
1.000000
 21
107.600000
  0
LINE
  8
1
 62
7
  6
CONTINUOUS
 10
1.000000
 20
110.500000
 11
1.000000
 21
110.000000
  0
LINE
  8
1
 62
7
  6
CONTINUOUS
 10
1.400000
 20
108.800000
 11
0.500000
 21
108.800000
  0
CIRCLE
  8
1
 62
7
  6
CONTINUOUS
 10
1.000000
 20
108.800000
 30
0.0
 40
0.700000
  0
LINE
  8
1
 62
7
  6
CONTINUOUS
 10
1.000000
 20
132.900000
 11
1.000000
 21
132.400000
  0
LINE
  8
1
 62
7
  6
CONTINUOUS
 10
1.000000
 20
129.500000
 11
1.000000
 21
130.000000
  0
LINE
  8
1
 62
7
  6
CONTINUOUS
 10
1.400000
 20
131.200000
 11
0.500000
 21
131.200000
  0
CIRCLE
  8
1
 62
7
  6
CONTINUOUS
 10
1.000000
 20
131.200000
 30
0.0
 40
0.700000
  0
LINE
  8
1
 62
7
  6
CONTINUOUS
 10
24.000000
 20
132.900000
 11
24.000000
 21
132.400000
  0
LINE
  8
1
 62
7
  6
CONTINUOUS
 10
24.000000
 20
129.500000
 11
24.000000
 21
130.000000
  0
LINE
  8
1
 62
7
  6
CONTINUOUS
 10
23.600000
 20
131.200000
 11
24.500000
 21
131.200000
  0
CIRCLE
  8
1
 62
7
  6
CONTINUOUS
 10
24.000000
 20
131.200000
 30
0.0
 40
0.700000
  0
POLYLINE
  8
1
 62
7
  6
L014100020032000000
 70
0
 66
1
  0
VERTEX
 10
0.200000
 20
122.700000
  8
1
 62
7
  6
L014100020032000000
  0
VERTEX
 10
24.800000
 20
122.700000
  8
1
 62
7
  6
L014100020032000000
  0
SEQEND
  0
POLYLINE
  8
1
 62
7
  6
L014100020032000000
 70
0
 66
1
  0
VERTEX
 10
0.200000
 20
127.300000
  8
1
 62
7
  6
L014100020032000000
  0
VERTEX
 10
24.800000
 20
127.300000
  8
1
 62
7
  6
L014100020032000000
  0
SEQEND
  0
POLYLINE
  8
1
 62
7
  6
L014100020032000000
 70
0
 66
1
  0
VERTEX
 10
0.200000
 20
110.200000
  8
1
 62
7
  6
L014100020032000000
  0
VERTEX
 10
24.800000
 20
110.200000
  8
1
 62
7
  6
L014100020032000000
  0
SEQEND
  0
POLYLINE
  8
1
 62
7
  6
L014100020032000000
 70
0
 66
1
  0
VERTEX
 10
0.200000
 20
114.800000
  8
1
 62
7
  6
L014100020032000000
  0
VERTEX
 10
24.800000
 20
114.800000
  8
1
 62
7
  6
L014100020032000000
  0
SEQEND
  0
POLYLINE
  8
57
 62
7
  6
L014100020032000000
 70
1
 66
1
  0
VERTEX
 10
24.000000
 20
23.000000
 30
0.000000
  8
57
 62
7
  6
L014100020032000000
  0
VERTEX
 10
24.000000
 20
24.200000
 30
0.000000
  8
57
 62
7
  6
L014100020032000000
  0
VERTEX
 10
0.800000
 20
24.200000
 30
0.000000
  8
57
 62
7
  6
L014100020032000000
  0
VERTEX
 10
0.800000
 20
23.000000
 30
0.000000
  8
57
 62
7
  6
L014100020032000000
  0
SEQEND
  0
POLYLINE
  8
57
 62
7
  6
L014100020032000000
 70
1
 66
1
  0
VERTEX
 10
24.000000
 20
11.000000
 30
0.000000
  8
57
 62
7
  6
L014100020032000000
  0
VERTEX
 10
24.000000
 20
12.200000
 30
0.000000
  8
57
 62
7
  6
L014100020032000000
  0
VERTEX
 10
0.800000
 20
12.200000
 30
0.000000
  8
57
 62
7
  6
L014100020032000000
  0
VERTEX
 10
0.800000
 20
11.000000
 30
0.000000
  8
57
 62
7
  6
L014100020032000000
  0
SEQEND
  0
POLYLINE
  8
57
 62
7
  6
L014100020032000000
 70
1
 66
1
  0
VERTEX
 10
24.000000
 20
15.000000
 30
0.000000
  8
57
 62
7
  6
L014100020032000000
  0
VERTEX
 10
24.000000
 20
16.200000
 30
0.000000
  8
57
 62
7
  6
L014100020032000000
  0
VERTEX
 10
0.800000
 20
16.200000
 30
0.000000
  8
57
 62
7
  6
L014100020032000000
  0
VERTEX
 10
0.800000
 20
15.000000
 30
0.000000
  8
57
 62
7
  6
L014100020032000000
  0
SEQEND
  0
POLYLINE
  8
57
 62
7
  6
L014100020032000000
 70
1
 66
1
  0
VERTEX
 10
24.000000
 20
19.000000
 30
0.000000
  8
57
 62
7
  6
L014100020032000000
  0
VERTEX
 10
24.000000
 20
20.200000
 30
0.000000
  8
57
 62
7
  6
L014100020032000000
  0
VERTEX
 10
0.800000
 20
20.200000
 30
0.000000
  8
57
 62
7
  6
L014100020032000000
  0
VERTEX
 10
0.800000
 20
19.000000
 30
0.000000
  8
57
 62
7
  6
L014100020032000000
  0
SEQEND
  0
POLYLINE
  8
57
 62
7
  6
L014100020032000000
 70
1
 66
1
  0
VERTEX
 10
24.100000
 20
7.100000
 30
0.000000
  8
57
 62
7
  6
L014100020032000000
  0
VERTEX
 10
24.100000
 20
8.300000
 30
0.000000
  8
57
 62
7
  6
L014100020032000000
  0
VERTEX
 10
0.900000
 20
8.300000
 30
0.000000
  8
57
 62
7
  6
L014100020032000000
  0
VERTEX
 10
0.900000
 20
7.100000
 30
0.000000
  8
57
 62
7
  6
L014100020032000000
  0
SEQEND
  0
POLYLINE
  8
29
 62
7
  6
CONTINUOUS
 70
1
 66
1
  0
VERTEX
 10
24.800000
 20
0.200000
 30
0.000000
  8
29
 62
7
  6
CONTINUOUS
  0
VERTEX
 10
24.800000
 20
134.700000
 30
0.000000
  8
29
 62
7
  6
CONTINUOUS
  0
VERTEX
 10
0.200000
 20
134.700000
 30
0.000000
  8
29
 62
7
  6
CONTINUOUS
  0
VERTEX
 10
0.200000
 20
0.200000
 30
0.000000
  8
29
 62
7
  6
CONTINUOUS
  0
SEQEND
  0
POLYLINE
  8
29
 62
7
  6
CONTINUOUS
 70
0
 66
1
  0
VERTEX
 10
0.200000
 20
30.000000
  8
29
 62
7
  6
CONTINUOUS
  0
VERTEX
 10
24.800000
 20
30.000000
  8
29
 62
7
  6
CONTINUOUS
  0
SEQEND
  0
POLYLINE
  8
29
 62
7
  6
CONTINUOUS
 70
0
 66
1
  0
VERTEX
 10
0.200000
 20
105.000000
  8
29
 62
7
  6
CONTINUOUS
  0
VERTEX
 10
24.800000
 20
105.000000
  8
29
 62
7
  6
CONTINUOUS
  0
SEQEND
  0
POLYLINE
  8
29
 62
7
  6
CONTINUOUS
 70
0
 66
1
  0
VERTEX
 10
0.200000
 20
60.000000
  8
29
 62
7
  6
CONTINUOUS
  0
VERTEX
 10
24.800000
 20
60.000000
  8
29
 62
7
  6
CONTINUOUS
  0
SEQEND
  0
POLYLINE
  8
29
 62
7
  6
CONTINUOUS
 70
1
 66
1
  0
VERTEX
 10
19.000000
 20
73.000000
 30
0.000000
  8
29
 62
7
  6
CONTINUOUS
  0
VERTEX
 10
19.000000
 20
69.000000
 30
0.000000
  8
29
 62
7
  6
CONTINUOUS
  0
VERTEX
 10
6.000000
 20
69.000000
 30
0.000000
  8
29
 62
7
  6
CONTINUOUS
  0
VERTEX
 10
6.000000
 20
73.000000
 30
0.000000
  8
29
 62
7
  6
CONTINUOUS
  0
SEQEND
  0
POLYLINE
  8
29
 62
7
  6
CONTINUOUS
 70
0
 66
1
  0
VERTEX
 10
12.000000
 20
102.000000
  8
29
 62
7
  6
CONTINUOUS
  0
VERTEX
 10
12.000000
 20
87.000000
  8
29
 62
7
  6
CONTINUOUS
  0
SEQEND
  0
POLYLINE
  8
29
 62
7
  6
CONTINUOUS
 70
0
 66
1
  0
VERTEX
 10
13.000000
 20
102.000000
  8
29
 62
7
  6
CONTINUOUS
  0
VERTEX
 10
13.000000
 20
87.000000
  8
29
 62
7
  6
CONTINUOUS
  0
SEQEND
  0
ARC
  8
29
 62
7
  6
CONTINUOUS
 10
12.500000
 20
101.900000
 30
0.000000
 40
0.500000
 50
11.309932
 51
168.690068
  0
ARC
  8
29
 62
7
  6
CONTINUOUS
 10
12.500000
 20
87.100000
 30
0.000000
 40
0.500000
 50
191.309932
 51
-11.309932
  0
ARC
  8
29
 62
7
  6
CONTINUOUS
 10
12.500000
 20
83.400000
 30
0.000000
 40
0.500000
 50
-11.309932
 51
191.309932
  0
ARC
  8
29
 62
7
  6
CONTINUOUS
 10
12.500000
 20
74.500000
 30
0.000000
 40
0.500000
 50
180.000000
 51
0.000000
  0
POLYLINE
  8
29
 62
7
  6
CONTINUOUS
 70
0
 66
1
  0
VERTEX
 10
12.000000
 20
83.200000
  8
29
 62
7
  6
CONTINUOUS
  0
VERTEX
 10
12.000000
 20
80.000000
  8
29
 62
7
  6
CONTINUOUS
  0
SEQEND
  0
POLYLINE
  8
29
 62
7
  6
CONTINUOUS
 70
0
 66
1
  0
VERTEX
 10
13.000000
 20
83.200000
  8
29
 62
7
  6
CONTINUOUS
  0
VERTEX
 10
13.000000
 20
80.000000
  8
29
 62
7
  6
CONTINUOUS
  0
SEQEND
  0
POLYLINE
  8
29
 62
7
  6
CONTINUOUS
 70
0
 66
1
  0
VERTEX
 10
12.000000
 20
76.800000
  8
29
 62
7
  6
CONTINUOUS
  0
VERTEX
 10
12.000000
 20
74.500000
  8
29
 62
7
  6
CONTINUOUS
  0
SEQEND
  0
POLYLINE
  8
29
 62
7
  6
CONTINUOUS
 70
0
 66
1
  0
VERTEX
 10
13.000000
 20
76.800000
  8
29
 62
7
  6
CONTINUOUS
  0
VERTEX
 10
13.000000
 20
74.500000
  8
29
 62
7
  6
CONTINUOUS
  0
SEQEND
  0
POLYLINE
  8
29
 62
7
  6
CONTINUOUS
 70
0
 66
1
  0
VERTEX
 10
11.500000
 20
80.000000
  8
29
 62
7
  6
CONTINUOUS
  0
VERTEX
 10
11.500000
 20
103.000000
  8
29
 62
7
  6
CONTINUOUS
  0
VERTEX
 10
13.500000
 20
103.000000
  8
29
 62
7
  6
CONTINUOUS
  0
VERTEX
 10
13.500000
 20
80.000000
  8
29
 62
7
  6
CONTINUOUS
  0
SEQEND
  0
POLYLINE
  8
29
 62
7
  6
CONTINUOUS
 70
0
 66
1
  0
VERTEX
 10
11.500000
 20
76.800000
  8
29
 62
7
  6
CONTINUOUS
  0
VERTEX
 10
11.500000
 20
73.000000
  8
29
 62
7
  6
CONTINUOUS
  0
SEQEND
  0
POLYLINE
  8
29
 62
7
  6
CONTINUOUS
 70
0
 66
1
  0
VERTEX
 10
13.500000
 20
76.800000
  8
29
 62
7
  6
CONTINUOUS
  0
VERTEX
 10
13.500000
 20
73.000000
  8
29
 62
7
  6
CONTINUOUS
  0
SEQEND
  0
POLYLINE
  8
29
 62
7
  6
CONTINUOUS
 70
1
 66
1
  0
VERTEX
 10
23.400000
 20
80.000000
 30
0.000000
  8
29
 62
7
  6
CONTINUOUS
  0
VERTEX
 10
23.400000
 20
76.800000
 30
0.000000
  8
29
 62
7
  6
CONTINUOUS
  0
VERTEX
 10
1.600000
 20
76.800000
 30
0.000000
  8
29
 62
7
  6
CONTINUOUS
  0
VERTEX
 10
1.600000
 20
80.000000
 30
0.000000
  8
29
 62
7
  6
CONTINUOUS
  0
SEQEND
  0
CIRCLE
  8
29
 62
7
  6
CONTINUOUS
 10
12.500000
 20
79.100000
 30
0.0
 40
0.500000
  0
LINE
  8
29
 62
7
  6
CONTINUOUS
 10
10.100000
 20
79.200000
 11
2.300000
 21
79.200000
  0
LINE
  8
29
 62
7
  6
CONTINUOUS
 10
10.100000
 20
78.600000
 11
2.300000
 21
78.600000
  0
ARC
  8
29
 62
7
  6
CONTINUOUS
 10
2.400000
 20
78.900000
 30
0.000000
 40
0.300000
 50
108.434949
 51
-108.434949
  0
ARC
  8
29
 62
7
  6
CONTINUOUS
 10
10.500000
 20
78.900000
 30
0.000000
 40
0.500000
 50
216.869898
 51
143.130102
  0
LINE
  8
29
 62
7
  6
CONTINUOUS
 10
14.900000
 20
79.200000
 11
22.700000
 21
79.200000
  0
LINE
  8
29
 62
7
  6
CONTINUOUS
 10
14.900000
 20
78.600000
 11
22.700000
 21
78.600000
  0
ARC
  8
29
 62
7
  6
CONTINUOUS
 10
22.600000
 20
78.900000
 30
0.000000
 40
0.300000
 50
-71.565051
 51
71.565051
  0
ARC
  8
29
 62
7
  6
CONTINUOUS
 10
14.500000
 20
78.900000
 30
0.000000
 40
0.500000
 50
36.869898
 51
-36.869898
  0
LINE
  8
29
 62
7
  6
CONTINUOUS
 10
10.100000
 20
77.700000
 11
2.300000
 21
77.700000
  0
LINE
  8
29
 62
7
  6
CONTINUOUS
 10
10.100000
 20
77.100000
 11
2.300000
 21
77.100000
  0
ARC
  8
29
 62
7
  6
CONTINUOUS
 10
2.400000
 20
77.400000
 30
0.000000
 40
0.300000
 50
108.434949
 51
-108.434949
  0
ARC
  8
29
 62
7
  6
CONTINUOUS
 10
10.500000
 20
77.400000
 30
0.000000
 40
0.500000
 50
216.869898
 51
143.130102
  0
LINE
  8
29
 62
7
  6
CONTINUOUS
 10
14.900000
 20
77.700000
 11
22.700000
 21
77.700000
  0
LINE
  8
29
 62
7
  6
CONTINUOUS
 10
14.900000
 20
77.100000
 11
22.700000
 21
77.100000
  0
ARC
  8
29
 62
7
  6
CONTINUOUS
 10
22.600000
 20
77.400000
 30
0.000000
 40
0.300000
 50
-71.565051
 51
71.565051
  0
ARC
  8
29
 62
7
  6
CONTINUOUS
 10
14.500000
 20
77.400000
 30
0.000000
 40
0.500000
 50
36.869898
 51
-36.869898
  0
CIRCLE
  8
29
 62
7
  6
CONTINUOUS
 10
12.500000
 20
84.600000
 30
0.0
 40
0.400000
  0
POLYLINE
  8
29
 62
7
  6
CONTINUOUS
 70
1
 66
1
  0
VERTEX
 10
16.500000
 20
70.400000
 30
0.000000
  8
29
 62
7
  6
CONTINUOUS
  0
VERTEX
 10
16.500000
 20
73.000000
 30
0.000000
  8
29
 62
7
  6
CONTINUOUS
  0
VERTEX
 10
8.500000
 20
73.000000
 30
0.000000
  8
29
 62
7
  6
CONTINUOUS
  0
VERTEX
 10
8.500000
 20
70.400000
 30
0.000000
  8
29
 62
7
  6
CONTINUOUS
  0
SEQEND
  0
POLYLINE
  8
29
 62
7
  6
CONTINUOUS
 70
0
 66
1
  0
VERTEX
 10
0.200000
 20
45.000000
  8
29
 62
7
  6
CONTINUOUS
  0
VERTEX
 10
24.800000
 20
45.000000
  8
29
 62
7
  6
CONTINUOUS
  0
SEQEND
  0
POLYLINE
  8
29
 62
7
  6
CONTINUOUS
 70
0
 66
1
  0
VERTEX
 10
0.400000
 20
51.300000
  8
29
 62
7
  6
CONTINUOUS
  0
VERTEX
 10
24.600000
 20
51.300000
  8
29
 62
7
  6
CONTINUOUS
  0
SEQEND
  0
POLYLINE
  8
29
 62
7
  6
CONTINUOUS
 70
0
 66
1
  0
VERTEX
 10
0.400000
 20
53.800000
  8
29
 62
7
  6
CONTINUOUS
  0
VERTEX
 10
24.600000
 20
53.800000
  8
29
 62
7
  6
CONTINUOUS
  0
SEQEND
  0
POLYLINE
  8
29
 62
7
  6
CONTINUOUS
 70
1
 66
1
  0
VERTEX
 10
24.600000
 20
50.800000
 30
0.000000
  8
29
 62
7
  6
CONTINUOUS
  0
VERTEX
 10
24.600000
 20
54.300000
 30
0.000000
  8
29
 62
7
  6
CONTINUOUS
  0
VERTEX
 10
0.400000
 20
54.300000
 30
0.000000
  8
29
 62
7
  6
CONTINUOUS
  0
VERTEX
 10
0.400000
 20
50.800000
 30
0.000000
  8
29
 62
7
  6
CONTINUOUS
  0
SEQEND
  0
POLYLINE
  8
29
 62
7
  6
CONTINUOUS
 70
1
 66
1
  0
VERTEX
 10
24.800000
 20
40.000000
  8
29
 62
7
  6
CONTINUOUS
  0
VERTEX
 10
23.300000
 20
40.000000
  8
29
 62
7
  6
CONTINUOUS
  0
VERTEX
 10
23.300000
 20
44.000000
  8
29
 62
7
  6
CONTINUOUS
  0
VERTEX
 10
1.700000
 20
44.000000
  8
29
 62
7
  6
CONTINUOUS
  0
VERTEX
 10
1.700000
 20
40.000000
  8
29
 62
7
  6
CONTINUOUS
  0
VERTEX
 10
0.200000
 20
40.000000
  8
29
 62
7
  6
CONTINUOUS
  0
VERTEX
 10
0.200000
 20
35.000000
  8
29
 62
7
  6
CONTINUOUS
  0
VERTEX
 10
1.700000
 20
35.000000
  8
29
 62
7
  6
CONTINUOUS
  0
VERTEX
 10
1.700000
 20
31.000000
  8
29
 62
7
  6
CONTINUOUS
  0
VERTEX
 10
23.300000
 20
31.000000
  8
29
 62
7
  6
CONTINUOUS
  0
VERTEX
 10
23.300000
 20
35.000000
  8
29
 62
7
  6
CONTINUOUS
  0
VERTEX
 10
24.800000
 20
35.000000
  8
29
 62
7
  6
CONTINUOUS
  0
SEQEND
  0
POLYLINE
  8
29
 62
7
  6
CONTINUOUS
 70
0
 66
1
  0
VERTEX
 10
15.100000
 20
36.300000
  8
29
 62
7
  6
CONTINUOUS
  0
VERTEX
 10
24.600000
 20
36.300000
  8
29
 62
7
  6
CONTINUOUS
  0
SEQEND
  0
POLYLINE
  8
29
 62
7
  6
CONTINUOUS
 70
0
 66
1
  0
VERTEX
 10
15.100000
 20
38.800000
  8
29
 62
7
  6
CONTINUOUS
  0
VERTEX
 10
24.600000
 20
38.800000
  8
29
 62
7
  6
CONTINUOUS
  0
SEQEND
  0
POLYLINE
  8
29
 62
7
  6
CONTINUOUS
 70
1
 66
1
  0
VERTEX
 10
24.600000
 20
35.800000
 30
0.000000
  8
29
 62
7
  6
CONTINUOUS
  0
VERTEX
 10
24.600000
 20
39.300000
 30
0.000000
  8
29
 62
7
  6
CONTINUOUS
  0
VERTEX
 10
15.100000
 20
39.300000
 30
0.000000
  8
29
 62
7
  6
CONTINUOUS
  0
VERTEX
 10
15.100000
 20
35.800000
 30
0.000000
  8
29
 62
7
  6
CONTINUOUS
  0
SEQEND
  0
POLYLINE
  8
29
 62
7
  6
CONTINUOUS
 70
0
 66
1
  0
VERTEX
 10
0.400000
 20
123.800000
  8
29
 62
7
  6
CONTINUOUS
  0
VERTEX
 10
24.600000
 20
123.800000
  8
29
 62
7
  6
CONTINUOUS
  0
SEQEND
  0
POLYLINE
  8
29
 62
7
  6
CONTINUOUS
 70
0
 66
1
  0
VERTEX
 10
0.400000
 20
126.300000
  8
29
 62
7
  6
CONTINUOUS
  0
VERTEX
 10
24.600000
 20
126.300000
  8
29
 62
7
  6
CONTINUOUS
  0
SEQEND
  0
POLYLINE
  8
29
 62
7
  6
CONTINUOUS
 70
1
 66
1
  0
VERTEX
 10
24.600000
 20
123.300000
 30
0.000000
  8
29
 62
7
  6
CONTINUOUS
  0
VERTEX
 10
24.600000
 20
126.800000
 30
0.000000
  8
29
 62
7
  6
CONTINUOUS
  0
VERTEX
 10
0.400000
 20
126.800000
 30
0.000000
  8
29
 62
7
  6
CONTINUOUS
  0
VERTEX
 10
0.400000
 20
123.300000
 30
0.000000
  8
29
 62
7
  6
CONTINUOUS
  0
SEQEND
  0
POLYLINE
  8
29
 62
7
  6
CONTINUOUS
 70
0
 66
1
  0
VERTEX
 10
0.400000
 20
111.300000
  8
29
 62
7
  6
CONTINUOUS
  0
VERTEX
 10
24.600000
 20
111.300000
  8
29
 62
7
  6
CONTINUOUS
  0
SEQEND
  0
POLYLINE
  8
29
 62
7
  6
CONTINUOUS
 70
0
 66
1
  0
VERTEX
 10
0.400000
 20
113.800000
  8
29
 62
7
  6
CONTINUOUS
  0
VERTEX
 10
24.600000
 20
113.800000
  8
29
 62
7
  6
CONTINUOUS
  0
SEQEND
  0
POLYLINE
  8
29
 62
7
  6
CONTINUOUS
 70
1
 66
1
  0
VERTEX
 10
24.600000
 20
110.800000
 30
0.000000
  8
29
 62
7
  6
CONTINUOUS
  0
VERTEX
 10
24.600000
 20
114.300000
 30
0.000000
  8
29
 62
7
  6
CONTINUOUS
  0
VERTEX
 10
0.400000
 20
114.300000
 30
0.000000
  8
29
 62
7
  6
CONTINUOUS
  0
VERTEX
 10
0.400000
 20
110.800000
 30
0.000000
  8
29
 62
7
  6
CONTINUOUS
  0
SEQEND
  0
POLYLINE
  8
56
 62
7
  6
CONTINUOUS
 70
1
 66
1
  0
VERTEX
 10
24.000000
 20
11.000000
 30
0.000000
  8
56
 62
7
  6
CONTINUOUS
  0
VERTEX
 10
24.000000
 20
12.200000
 30
0.000000
  8
56
 62
7
  6
CONTINUOUS
  0
VERTEX
 10
0.800000
 20
12.200000
 30
0.000000
  8
56
 62
7
  6
CONTINUOUS
  0
VERTEX
 10
0.800000
 20
11.000000
 30
0.000000
  8
56
 62
7
  6
CONTINUOUS
  0
SEQEND
  0
POLYLINE
  8
56
 62
7
  6
CONTINUOUS
 70
1
 66
1
  0
VERTEX
 10
24.000000
 20
23.000000
 30
0.000000
  8
56
 62
7
  6
CONTINUOUS
  0
VERTEX
 10
24.000000
 20
24.200000
 30
0.000000
  8
56
 62
7
  6
CONTINUOUS
  0
VERTEX
 10
0.800000
 20
24.200000
 30
0.000000
  8
56
 62
7
  6
CONTINUOUS
  0
VERTEX
 10
0.800000
 20
23.000000
 30
0.000000
  8
56
 62
7
  6
CONTINUOUS
  0
SEQEND
  0
POLYLINE
  8
56
 62
7
  6
CONTINUOUS
 70
1
 66
1
  0
VERTEX
 10
24.000000
 20
7.100000
 30
0.000000
  8
56
 62
7
  6
CONTINUOUS
  0
VERTEX
 10
24.000000
 20
8.300000
 30
0.000000
  8
56
 62
7
  6
CONTINUOUS
  0
VERTEX
 10
0.800000
 20
8.300000
 30
0.000000
  8
56
 62
7
  6
CONTINUOUS
  0
VERTEX
 10
0.800000
 20
7.100000
 30
0.000000
  8
56
 62
7
  6
CONTINUOUS
  0
SEQEND
  0
POLYLINE
  8
56
 62
7
  6
CONTINUOUS
 70
1
 66
1
  0
VERTEX
 10
24.000000
 20
15.000000
 30
0.000000
  8
56
 62
7
  6
CONTINUOUS
  0
VERTEX
 10
24.000000
 20
16.200000
 30
0.000000
  8
56
 62
7
  6
CONTINUOUS
  0
VERTEX
 10
0.800000
 20
16.200000
 30
0.000000
  8
56
 62
7
  6
CONTINUOUS
  0
VERTEX
 10
0.800000
 20
15.000000
 30
0.000000
  8
56
 62
7
  6
CONTINUOUS
  0
SEQEND
  0
POLYLINE
  8
56
 62
7
  6
CONTINUOUS
 70
1
 66
1
  0
VERTEX
 10
24.000000
 20
19.000000
 30
0.000000
  8
56
 62
7
  6
CONTINUOUS
  0
VERTEX
 10
24.000000
 20
20.200000
 30
0.000000
  8
56
 62
7
  6
CONTINUOUS
  0
VERTEX
 10
0.800000
 20
20.200000
 30
0.000000
  8
56
 62
7
  6
CONTINUOUS
  0
VERTEX
 10
0.800000
 20
19.000000
 30
0.000000
  8
56
 62
7
  6
CONTINUOUS
  0
SEQEND
  0
POLYLINE
  8
58
 62
7
  6
CONTINUOUS
 70
1
 66
1
  0
VERTEX
 10
24.000000
 20
11.000000
 30
0.000000
  8
58
 62
7
  6
CONTINUOUS
  0
VERTEX
 10
24.000000
 20
12.200000
 30
0.000000
  8
58
 62
7
  6
CONTINUOUS
  0
VERTEX
 10
0.800000
 20
12.200000
 30
0.000000
  8
58
 62
7
  6
CONTINUOUS
  0
VERTEX
 10
0.800000
 20
11.000000
 30
0.000000
  8
58
 62
7
  6
CONTINUOUS
  0
SEQEND
  0
POLYLINE
  8
58
 62
7
  6
CONTINUOUS
 70
1
 66
1
  0
VERTEX
 10
24.000000
 20
23.000000
 30
0.000000
  8
58
 62
7
  6
CONTINUOUS
  0
VERTEX
 10
24.000000
 20
24.200000
 30
0.000000
  8
58
 62
7
  6
CONTINUOUS
  0
VERTEX
 10
0.800000
 20
24.200000
 30
0.000000
  8
58
 62
7
  6
CONTINUOUS
  0
VERTEX
 10
0.800000
 20
23.000000
 30
0.000000
  8
58
 62
7
  6
CONTINUOUS
  0
SEQEND
  0
POLYLINE
  8
58
 62
7
  6
CONTINUOUS
 70
1
 66
1
  0
VERTEX
 10
24.100000
 20
7.100000
 30
0.000000
  8
58
 62
7
  6
CONTINUOUS
  0
VERTEX
 10
24.100000
 20
8.300000
 30
0.000000
  8
58
 62
7
  6
CONTINUOUS
  0
VERTEX
 10
0.900000
 20
8.300000
 30
0.000000
  8
58
 62
7
  6
CONTINUOUS
  0
VERTEX
 10
0.900000
 20
7.100000
 30
0.000000
  8
58
 62
7
  6
CONTINUOUS
  0
SEQEND
  0
POLYLINE
  8
58
 62
7
  6
CONTINUOUS
 70
1
 66
1
  0
VERTEX
 10
24.000000
 20
15.000000
 30
0.000000
  8
58
 62
7
  6
CONTINUOUS
  0
VERTEX
 10
24.000000
 20
16.200000
 30
0.000000
  8
58
 62
7
  6
CONTINUOUS
  0
VERTEX
 10
0.800000
 20
16.200000
 30
0.000000
  8
58
 62
7
  6
CONTINUOUS
  0
VERTEX
 10
0.800000
 20
15.000000
 30
0.000000
  8
58
 62
7
  6
CONTINUOUS
  0
SEQEND
  0
POLYLINE
  8
58
 62
7
  6
CONTINUOUS
 70
1
 66
1
  0
VERTEX
 10
24.000000
 20
19.000000
 30
0.000000
  8
58
 62
7
  6
CONTINUOUS
  0
VERTEX
 10
24.000000
 20
20.200000
 30
0.000000
  8
58
 62
7
  6
CONTINUOUS
  0
VERTEX
 10
0.800000
 20
20.200000
 30
0.000000
  8
58
 62
7
  6
CONTINUOUS
  0
VERTEX
 10
0.800000
 20
19.000000
 30
0.000000
  8
58
 62
7
  6
CONTINUOUS
  0
SEQEND
  0
POLYLINE
  8
59
 62
7
  6
CONTINUOUS
 70
1
 66
1
  0
VERTEX
 10
24.000000
 20
15.300000
 30
0.000000
  8
59
 62
7
  6
CONTINUOUS
  0
VERTEX
 10
24.000000
 20
15.900000
 30
0.000000
  8
59
 62
7
  6
CONTINUOUS
  0
VERTEX
 10
0.800000
 20
15.900000
 30
0.000000
  8
59
 62
7
  6
CONTINUOUS
  0
VERTEX
 10
0.800000
 20
15.300000
 30
0.000000
  8
59
 62
7
  6
CONTINUOUS
  0
SEQEND
  0
POLYLINE
  8
59
 62
7
  6
CONTINUOUS
 70
1
 66
1
  0
VERTEX
 10
23.600000
 20
14.300000
 30
0.000000
  8
59
 62
7
  6
CONTINUOUS
  0
VERTEX
 10
23.600000
 20
16.900000
 30
0.000000
  8
59
 62
7
  6
CONTINUOUS
  0
VERTEX
 10
24.000000
 20
16.900000
 30
0.000000
  8
59
 62
7
  6
CONTINUOUS
  0
VERTEX
 10
24.000000
 20
14.300000
 30
0.000000
  8
59
 62
7
  6
CONTINUOUS
  0
SEQEND
  0
POLYLINE
  8
59
 62
7
  6
CONTINUOUS
 70
1
 66
1
  0
VERTEX
 10
0.800000
 20
14.300000
 30
0.000000
  8
59
 62
7
  6
CONTINUOUS
  0
VERTEX
 10
0.800000
 20
16.900000
 30
0.000000
  8
59
 62
7
  6
CONTINUOUS
  0
VERTEX
 10
1.200000
 20
16.900000
 30
0.000000
  8
59
 62
7
  6
CONTINUOUS
  0
VERTEX
 10
1.200000
 20
14.300000
 30
0.000000
  8
59
 62
7
  6
CONTINUOUS
  0
SEQEND
  0
LINE
  8
59
 62
7
  6
CONTINUOUS
 10
12.900000
 20
17.600000
 11
11.900000
 21
13.600000
  0
LINE
  8
59
 62
7
  6
CONTINUOUS
 10
10.900000
 20
17.600000
 11
9.900000
 21
13.600000
  0
LINE
  8
59
 62
7
  6
CONTINUOUS
 10
11.900000
 20
17.600000
 11
10.900000
 21
13.600000
  0
LINE
  8
59
 62
7
  6
CONTINUOUS
 10
13.900000
 20
17.600000
 11
12.900000
 21
13.600000
  0
LINE
  8
59
 62
7
  6
CONTINUOUS
 10
14.900000
 20
17.600000
 11
13.900000
 21
13.600000
  0
POLYLINE
  8
60
 62
7
  6
CONTINUOUS
 70
1
 66
1
  0
VERTEX
 10
24.000000
 20
11.000000
 30
0.000000
  8
60
 62
7
  6
CONTINUOUS
  0
VERTEX
 10
24.000000
 20
12.200000
 30
0.000000
  8
60
 62
7
  6
CONTINUOUS
  0
VERTEX
 10
0.800000
 20
12.200000
 30
0.000000
  8
60
 62
7
  6
CONTINUOUS
  0
VERTEX
 10
0.800000
 20
11.000000
 30
0.000000
  8
60
 62
7
  6
CONTINUOUS
  0
SEQEND
  0
POLYLINE
  8
60
 62
7
  6
CONTINUOUS
 70
1
 66
1
  0
VERTEX
 10
24.000000
 20
23.000000
 30
0.000000
  8
60
 62
7
  6
CONTINUOUS
  0
VERTEX
 10
24.000000
 20
24.200000
 30
0.000000
  8
60
 62
7
  6
CONTINUOUS
  0
VERTEX
 10
0.800000
 20
24.200000
 30
0.000000
  8
60
 62
7
  6
CONTINUOUS
  0
VERTEX
 10
0.800000
 20
23.000000
 30
0.000000
  8
60
 62
7
  6
CONTINUOUS
  0
SEQEND
  0
POLYLINE
  8
60
 62
7
  6
CONTINUOUS
 70
1
 66
1
  0
VERTEX
 10
24.000000
 20
7.100000
 30
0.000000
  8
60
 62
7
  6
CONTINUOUS
  0
VERTEX
 10
24.000000
 20
8.300000
 30
0.000000
  8
60
 62
7
  6
CONTINUOUS
  0
VERTEX
 10
0.800000
 20
8.300000
 30
0.000000
  8
60
 62
7
  6
CONTINUOUS
  0
VERTEX
 10
0.800000
 20
7.100000
 30
0.000000
  8
60
 62
7
  6
CONTINUOUS
  0
SEQEND
  0
POLYLINE
  8
60
 62
7
  6
CONTINUOUS
 70
1
 66
1
  0
VERTEX
 10
24.000000
 20
15.000000
 30
0.000000
  8
60
 62
7
  6
CONTINUOUS
  0
VERTEX
 10
24.000000
 20
16.200000
 30
0.000000
  8
60
 62
7
  6
CONTINUOUS
  0
VERTEX
 10
0.800000
 20
16.200000
 30
0.000000
  8
60
 62
7
  6
CONTINUOUS
  0
VERTEX
 10
0.800000
 20
15.000000
 30
0.000000
  8
60
 62
7
  6
CONTINUOUS
  0
SEQEND
  0
POLYLINE
  8
60
 62
7
  6
CONTINUOUS
 70
1
 66
1
  0
VERTEX
 10
24.000000
 20
19.000000
 30
0.000000
  8
60
 62
7
  6
CONTINUOUS
  0
VERTEX
 10
24.000000
 20
20.200000
 30
0.000000
  8
60
 62
7
  6
CONTINUOUS
  0
VERTEX
 10
0.800000
 20
20.200000
 30
0.000000
  8
60
 62
7
  6
CONTINUOUS
  0
VERTEX
 10
0.800000
 20
19.000000
 30
0.000000
  8
60
 62
7
  6
CONTINUOUS
  0
SEQEND
  0
POLYLINE
  8
38
 62
7
  6
CONTINUOUS
 70
1
 66
1
  0
VERTEX
 10
17.800000
 20
33.700000
 30
0.000000
  8
38
 62
7
  6
CONTINUOUS
  0
VERTEX
 10
17.800000
 20
41.300000
 30
0.000000
  8
38
 62
7
  6
CONTINUOUS
  0
VERTEX
 10
15.100000
 20
41.300000
 30
0.000000
  8
38
 62
7
  6
CONTINUOUS
  0
VERTEX
 10
15.100000
 20
33.700000
 30
0.000000
  8
38
 62
7
  6
CONTINUOUS
  0
SEQEND
  0
POLYLINE
  8
38
 62
7
  6
CONTINUOUS
 70
0
 66
1
  0
VERTEX
 10
15.300000
 20
39.800000
  8
38
 62
7
  6
CONTINUOUS
  0
VERTEX
 10
15.300000
 20
41.100000
  8
38
 62
7
  6
CONTINUOUS
  0
VERTEX
 10
17.600000
 20
41.100000
  8
38
 62
7
  6
CONTINUOUS
  0
VERTEX
 10
17.600000
 20
39.800000
  8
38
 62
7
  6
CONTINUOUS
  0
SEQEND
  0
POLYLINE
  8
38
 62
7
  6
CONTINUOUS
 70
0
 66
1
  0
VERTEX
 10
17.400000
 20
39.800000
  8
38
 62
7
  6
CONTINUOUS
  0
VERTEX
 10
17.400000
 20
41.100000
  8
38
 62
7
  6
CONTINUOUS
  0
SEQEND
  0
POLYLINE
  8
38
 62
7
  6
CONTINUOUS
 70
0
 66
1
  0
VERTEX
 10
15.500000
 20
41.100000
  8
38
 62
7
  6
CONTINUOUS
  0
VERTEX
 10
15.500000
 20
39.800000
  8
38
 62
7
  6
CONTINUOUS
  0
SEQEND
  0
POLYLINE
  8
38
 62
7
  6
CONTINUOUS
 70
0
 66
1
  0
VERTEX
 10
15.300000
 20
35.200000
  8
38
 62
7
  6
CONTINUOUS
  0
VERTEX
 10
15.300000
 20
33.900000
  8
38
 62
7
  6
CONTINUOUS
  0
VERTEX
 10
17.600000
 20
33.900000
  8
38
 62
7
  6
CONTINUOUS
  0
VERTEX
 10
17.600000
 20
35.200000
  8
38
 62
7
  6
CONTINUOUS
  0
SEQEND
  0
POLYLINE
  8
38
 62
7
  6
CONTINUOUS
 70
0
 66
1
  0
VERTEX
 10
17.400000
 20
35.200000
  8
38
 62
7
  6
CONTINUOUS
  0
VERTEX
 10
17.400000
 20
33.900000
  8
38
 62
7
  6
CONTINUOUS
  0
SEQEND
  0
POLYLINE
  8
38
 62
7
  6
CONTINUOUS
 70
0
 66
1
  0
VERTEX
 10
15.500000
 20
33.900000
  8
38
 62
7
  6
CONTINUOUS
  0
VERTEX
 10
15.500000
 20
35.200000
  8
38
 62
7
  6
CONTINUOUS
  0
SEQEND
  0
POLYLINE
  8
38
 62
7
  6
CONTINUOUS
 70
1
 66
1
  0
VERTEX
 10
20.500000
 20
33.700000
 30
0.000000
  8
38
 62
7
  6
CONTINUOUS
  0
VERTEX
 10
20.500000
 20
41.300000
 30
0.000000
  8
38
 62
7
  6
CONTINUOUS
  0
VERTEX
 10
17.800000
 20
41.300000
 30
0.000000
  8
38
 62
7
  6
CONTINUOUS
  0
VERTEX
 10
17.800000
 20
33.700000
 30
0.000000
  8
38
 62
7
  6
CONTINUOUS
  0
SEQEND
  0
POLYLINE
  8
38
 62
7
  6
CONTINUOUS
 70
0
 66
1
  0
VERTEX
 10
18.000000
 20
39.800000
  8
38
 62
7
  6
CONTINUOUS
  0
VERTEX
 10
18.000000
 20
41.100000
  8
38
 62
7
  6
CONTINUOUS
  0
VERTEX
 10
20.300000
 20
41.100000
  8
38
 62
7
  6
CONTINUOUS
  0
VERTEX
 10
20.300000
 20
39.800000
  8
38
 62
7
  6
CONTINUOUS
  0
SEQEND
  0
POLYLINE
  8
38
 62
7
  6
CONTINUOUS
 70
0
 66
1
  0
VERTEX
 10
20.100000
 20
39.800000
  8
38
 62
7
  6
CONTINUOUS
  0
VERTEX
 10
20.100000
 20
41.100000
  8
38
 62
7
  6
CONTINUOUS
  0
SEQEND
  0
POLYLINE
  8
38
 62
7
  6
CONTINUOUS
 70
0
 66
1
  0
VERTEX
 10
18.200000
 20
41.100000
  8
38
 62
7
  6
CONTINUOUS
  0
VERTEX
 10
18.200000
 20
39.800000
  8
38
 62
7
  6
CONTINUOUS
  0
SEQEND
  0
POLYLINE
  8
38
 62
7
  6
CONTINUOUS
 70
0
 66
1
  0
VERTEX
 10
18.000000
 20
35.200000
  8
38
 62
7
  6
CONTINUOUS
  0
VERTEX
 10
18.000000
 20
33.900000
  8
38
 62
7
  6
CONTINUOUS
  0
VERTEX
 10
20.300000
 20
33.900000
  8
38
 62
7
  6
CONTINUOUS
  0
VERTEX
 10
20.300000
 20
35.200000
  8
38
 62
7
  6
CONTINUOUS
  0
SEQEND
  0
POLYLINE
  8
38
 62
7
  6
CONTINUOUS
 70
0
 66
1
  0
VERTEX
 10
20.100000
 20
35.200000
  8
38
 62
7
  6
CONTINUOUS
  0
VERTEX
 10
20.100000
 20
33.900000
  8
38
 62
7
  6
CONTINUOUS
  0
SEQEND
  0
POLYLINE
  8
38
 62
7
  6
CONTINUOUS
 70
0
 66
1
  0
VERTEX
 10
18.200000
 20
33.900000
  8
38
 62
7
  6
CONTINUOUS
  0
VERTEX
 10
18.200000
 20
35.200000
  8
38
 62
7
  6
CONTINUOUS
  0
SEQEND
  0
POLYLINE
  8
38
 62
7
  6
CONTINUOUS
 70
1
 66
1
  0
VERTEX
 10
23.200000
 20
33.700000
 30
0.000000
  8
38
 62
7
  6
CONTINUOUS
  0
VERTEX
 10
23.200000
 20
41.300000
 30
0.000000
  8
38
 62
7
  6
CONTINUOUS
  0
VERTEX
 10
20.500000
 20
41.300000
 30
0.000000
  8
38
 62
7
  6
CONTINUOUS
  0
VERTEX
 10
20.500000
 20
33.700000
 30
0.000000
  8
38
 62
7
  6
CONTINUOUS
  0
SEQEND
  0
POLYLINE
  8
38
 62
7
  6
CONTINUOUS
 70
0
 66
1
  0
VERTEX
 10
20.700000
 20
39.800000
  8
38
 62
7
  6
CONTINUOUS
  0
VERTEX
 10
20.700000
 20
41.100000
  8
38
 62
7
  6
CONTINUOUS
  0
VERTEX
 10
23.000000
 20
41.100000
  8
38
 62
7
  6
CONTINUOUS
  0
VERTEX
 10
23.000000
 20
39.800000
  8
38
 62
7
  6
CONTINUOUS
  0
SEQEND
  0
POLYLINE
  8
38
 62
7
  6
CONTINUOUS
 70
0
 66
1
  0
VERTEX
 10
22.800000
 20
39.800000
  8
38
 62
7
  6
CONTINUOUS
  0
VERTEX
 10
22.800000
 20
41.100000
  8
38
 62
7
  6
CONTINUOUS
  0
SEQEND
  0
POLYLINE
  8
38
 62
7
  6
CONTINUOUS
 70
0
 66
1
  0
VERTEX
 10
20.900000
 20
41.100000
  8
38
 62
7
  6
CONTINUOUS
  0
VERTEX
 10
20.900000
 20
39.800000
  8
38
 62
7
  6
CONTINUOUS
  0
SEQEND
  0
POLYLINE
  8
38
 62
7
  6
CONTINUOUS
 70
0
 66
1
  0
VERTEX
 10
20.700000
 20
35.200000
  8
38
 62
7
  6
CONTINUOUS
  0
VERTEX
 10
20.700000
 20
33.900000
  8
38
 62
7
  6
CONTINUOUS
  0
VERTEX
 10
23.000000
 20
33.900000
  8
38
 62
7
  6
CONTINUOUS
  0
VERTEX
 10
23.000000
 20
35.200000
  8
38
 62
7
  6
CONTINUOUS
  0
SEQEND
  0
POLYLINE
  8
38
 62
7
  6
CONTINUOUS
 70
0
 66
1
  0
VERTEX
 10
22.800000
 20
35.200000
  8
38
 62
7
  6
CONTINUOUS
  0
VERTEX
 10
22.800000
 20
33.900000
  8
38
 62
7
  6
CONTINUOUS
  0
SEQEND
  0
POLYLINE
  8
38
 62
7
  6
CONTINUOUS
 70
0
 66
1
  0
VERTEX
 10
20.900000
 20
33.900000
  8
38
 62
7
  6
CONTINUOUS
  0
VERTEX
 10
20.900000
 20
35.200000
  8
38
 62
7
  6
CONTINUOUS
  0
SEQEND
  0
POLYLINE
  8
38
 62
7
  6
CONTINUOUS
 70
1
 66
1
  0
VERTEX
 10
7.700000
 20
43.000000
 30
0.000000
  8
38
 62
7
  6
CONTINUOUS
  0
VERTEX
 10
7.700000
 20
39.000000
 30
0.000000
  8
38
 62
7
  6
CONTINUOUS
  0
VERTEX
 10
1.700000
 20
39.000000
 30
0.000000
  8
38
 62
7
  6
CONTINUOUS
  0
VERTEX
 10
1.700000
 20
43.000000
 30
0.000000
  8
38
 62
7
  6
CONTINUOUS
  0
SEQEND
  0
TEXT
  8
38
 62
7
  6
L010100020032000000
 10
4.600000
 20
40.200000
 40
3.000000
  1
W
 50
0.000000
 51
0.000000
 72
1
 73
0
 11
4.600000
 21
40.200000
  0
POLYLINE
  8
38
 62
7
  6
CONTINUOUS
 70
1
 66
1
  0
VERTEX
 10
11.200000
 20
36.000000
 30
0.000000
  8
38
 62
7
  6
CONTINUOUS
  0
VERTEX
 10
11.200000
 20
32.000000
 30
0.000000
  8
38
 62
7
  6
CONTINUOUS
  0
VERTEX
 10
5.200000
 20
32.000000
 30
0.000000
  8
38
 62
7
  6
CONTINUOUS
  0
VERTEX
 10
5.200000
 20
36.000000
 30
0.000000
  8
38
 62
7
  6
CONTINUOUS
  0
SEQEND
  0
TEXT
  8
38
 62
7
  6
L010100020032000000
 10
8.200000
 20
33.200000
 40
3.000000
  1
W
 50
0.000000
 51
0.000000
 72
1
 73
0
 11
8.200000
 21
33.200000
  0
POLYLINE
  8
38
 62
7
  6
CONTINUOUS
 70
1
 66
1
  0
VERTEX
 10
14.700000
 20
43.000000
 30
0.000000
  8
38
 62
7
  6
CONTINUOUS
  0
VERTEX
 10
14.700000
 20
39.000000
 30
0.000000
  8
38
 62
7
  6
CONTINUOUS
  0
VERTEX
 10
8.700000
 20
39.000000
 30
0.000000
  8
38
 62
7
  6
CONTINUOUS
  0
VERTEX
 10
8.700000
 20
43.000000
 30
0.000000
  8
38
 62
7
  6
CONTINUOUS
  0
SEQEND
  0
TEXT
  8
38
 62
7
  6
L010100020032000000
 10
11.700000
 20
40.200000
 40
3.000000
  1
W
 50
0.000000
 51
0.000000
 72
1
 73
0
 11
11.700000
 21
40.200000
  0
POLYLINE
  8
38
 62
7
  6
CONTINUOUS
 70
1
 66
1
  0
VERTEX
 10
10.000000
 20
109.700000
 30
0.000000
  8
38
 62
7
  6
CONTINUOUS
  0
VERTEX
 10
10.000000
 20
115.300000
 30
0.000000
  8
38
 62
7
  6
CONTINUOUS
  0
VERTEX
 10
7.400000
 20
115.300000
 30
0.000000
  8
38
 62
7
  6
CONTINUOUS
  0
VERTEX
 10
7.400000
 20
109.700000
 30
0.000000
  8
38
 62
7
  6
CONTINUOUS
  0
SEQEND
  0
CIRCLE
  8
38
 62
7
  6
CONTINUOUS
 10
8.700000
 20
113.600000
 30
0.0
 40
0.500000
  0
CIRCLE
  8
38
 62
7
  6
CONTINUOUS
 10
8.700000
 20
111.400000
 30
0.0
 40
0.500000
  0
POLYLINE
  8
38
 62
7
  6
CONTINUOUS
 70
1
 66
1
  0
VERTEX
 10
7.400000
 20
116.500000
  8
38
 62
7
  6
CONTINUOUS
  0
VERTEX
 10
7.900000
 20
116.700000
  8
38
 62
7
  6
CONTINUOUS
  0
VERTEX
 10
9.500000
 20
116.700000
  8
38
 62
7
  6
CONTINUOUS
  0
VERTEX
 10
10.000000
 20
116.500000
  8
38
 62
7
  6
CONTINUOUS
  0
VERTEX
 10
10.000000
 20
108.500000
  8
38
 62
7
  6
CONTINUOUS
  0
VERTEX
 10
9.500000
 20
108.300000
  8
38
 62
7
  6
CONTINUOUS
  0
VERTEX
 10
7.900000
 20
108.300000
  8
38
 62
7
  6
CONTINUOUS
  0
VERTEX
 10
7.400000
 20
108.500000
  8
38
 62
7
  6
CONTINUOUS
  0
SEQEND
  0
POLYLINE
  8
38
 62
7
  6
CONTINUOUS
 70
1
 66
1
  0
VERTEX
 10
17.900000
 20
109.700000
 30
0.000000
  8
38
 62
7
  6
CONTINUOUS
  0
VERTEX
 10
17.900000
 20
115.300000
 30
0.000000
  8
38
 62
7
  6
CONTINUOUS
  0
VERTEX
 10
15.300000
 20
115.300000
 30
0.000000
  8
38
 62
7
  6
CONTINUOUS
  0
VERTEX
 10
15.300000
 20
109.700000
 30
0.000000
  8
38
 62
7
  6
CONTINUOUS
  0
SEQEND
  0
CIRCLE
  8
38
 62
7
  6
CONTINUOUS
 10
16.600000
 20
113.600000
 30
0.0
 40
0.500000
  0
CIRCLE
  8
38
 62
7
  6
CONTINUOUS
 10
16.600000
 20
111.400000
 30
0.0
 40
0.500000
  0
POLYLINE
  8
38
 62
7
  6
CONTINUOUS
 70
1
 66
1
  0
VERTEX
 10
15.300000
 20
116.500000
  8
38
 62
7
  6
CONTINUOUS
  0
VERTEX
 10
15.800000
 20
116.700000
  8
38
 62
7
  6
CONTINUOUS
  0
VERTEX
 10
17.400000
 20
116.700000
  8
38
 62
7
  6
CONTINUOUS
  0
VERTEX
 10
17.900000
 20
116.500000
  8
38
 62
7
  6
CONTINUOUS
  0
VERTEX
 10
17.900000
 20
108.500000
  8
38
 62
7
  6
CONTINUOUS
  0
VERTEX
 10
17.400000
 20
108.300000
  8
38
 62
7
  6
CONTINUOUS
  0
VERTEX
 10
15.800000
 20
108.300000
  8
38
 62
7
  6
CONTINUOUS
  0
VERTEX
 10
15.300000
 20
108.500000
  8
38
 62
7
  6
CONTINUOUS
  0
SEQEND
  0
POLYLINE
  8
38
 62
7
  6
CONTINUOUS
 70
1
 66
1
  0
VERTEX
 10
15.300000
 20
107.900000
 30
0.000000
  8
38
 62
7
  6
CONTINUOUS
  0
VERTEX
 10
15.300000
 20
116.900000
 30
0.000000
  8
38
 62
7
  6
CONTINUOUS
  0
VERTEX
 10
10.000000
 20
116.900000
 30
0.000000
  8
38
 62
7
  6
CONTINUOUS
  0
VERTEX
 10
10.000000
 20
107.900000
 30
0.000000
  8
38
 62
7
  6
CONTINUOUS
  0
SEQEND
  0
POLYLINE
  8
38
 62
7
  6
CONTINUOUS
 70
1
 66
1
  0
VERTEX
 10
15.300000
 20
110.100000
 30
0.000000
  8
38
 62
7
  6
CONTINUOUS
  0
VERTEX
 10
15.300000
 20
114.700000
 30
0.000000
  8
38
 62
7
  6
CONTINUOUS
  0
VERTEX
 10
10.000000
 20
114.700000
 30
0.000000
  8
38
 62
7
  6
CONTINUOUS
  0
VERTEX
 10
10.000000
 20
110.100000
 30
0.000000
  8
38
 62
7
  6
CONTINUOUS
  0
SEQEND
  0
CIRCLE
  8
38
 62
7
  6
CONTINUOUS
 10
14.200000
 20
115.900000
 30
0.0
 40
0.300000
  0
CIRCLE
  8
38
 62
7
  6
CONTINUOUS
 10
12.500000
 20
115.900000
 30
0.0
 40
0.300000
  0
CIRCLE
  8
38
 62
7
  6
CONTINUOUS
 10
10.800000
 20
115.900000
 30
0.0
 40
0.300000
  0
CIRCLE
  8
38
 62
7
  6
CONTINUOUS
 10
14.200000
 20
108.900000
 30
0.0
 40
0.300000
  0
CIRCLE
  8
38
 62
7
  6
CONTINUOUS
 10
10.800000
 20
108.900000
 30
0.0
 40
0.300000
  0
CIRCLE
  8
38
 62
7
  6
CONTINUOUS
 10
12.500000
 20
108.900000
 30
0.0
 40
0.300000
  0
POLYLINE
  8
2
 62
7
  6
CONTINUOUS
 70
1
 66
1
  0
VERTEX
 10
12.000000
 20
9.000000
  8
2
 62
7
  6
CONTINUOUS
  0
VERTEX
 10
11.000000
 20
9.000000
  8
2
 62
7
  6
CONTINUOUS
  0
VERTEX
 10
11.000000
 20
8.000000
  8
2
 62
7
  6
CONTINUOUS
  0
VERTEX
 10
10.000000
 20
8.000000
  8
2
 62
7
  6
CONTINUOUS
  0
VERTEX
 10
10.000000
 20
9.000000
  8
2
 62
7
  6
CONTINUOUS
  0
VERTEX
 10
9.000000
 20
9.000000
  8
2
 62
7
  6
CONTINUOUS
  0
VERTEX
 10
9.000000
 20
8.000000
  8
2
 62
7
  6
CONTINUOUS
  0
VERTEX
 10
8.500000
 20
8.000000
  8
2
 62
7
  6
CONTINUOUS
  0
VERTEX
 10
8.500000
 20
13.000000
  8
2
 62
7
  6
CONTINUOUS
  0
VERTEX
 10
7.500000
 20
13.000000
  8
2
 62
7
  6
CONTINUOUS
  0
VERTEX
 10
7.500000
 20
12.000000
  8
2
 62
7
  6
CONTINUOUS
  0
VERTEX
 10
6.500000
 20
12.000000
  8
2
 62
7
  6
CONTINUOUS
  0
VERTEX
 10
6.500000
 20
13.000000
  8
2
 62
7
  6
CONTINUOUS
  0
VERTEX
 10
5.500000
 20
13.000000
  8
2
 62
7
  6
CONTINUOUS
  0
VERTEX
 10
5.500000
 20
12.000000
  8
2
 62
7
  6
CONTINUOUS
  0
VERTEX
 10
5.000000
 20
12.000000
  8
2
 62
7
  6
CONTINUOUS
  0
VERTEX
 10
5.000000
 20
17.000000
  8
2
 62
7
  6
CONTINUOUS
  0
VERTEX
 10
4.000000
 20
17.000000
  8
2
 62
7
  6
CONTINUOUS
  0
VERTEX
 10
4.000000
 20
16.000000
  8
2
 62
7
  6
CONTINUOUS
  0
VERTEX
 10
3.000000
 20
16.000000
  8
2
 62
7
  6
CONTINUOUS
  0
VERTEX
 10
3.000000
 20
17.000000
  8
2
 62
7
  6
CONTINUOUS
  0
VERTEX
 10
3.000000
 20
17.000000
  8
2
 62
7
  6
CONTINUOUS
  0
VERTEX
 10
2.000000
 20
17.000000
  8
2
 62
7
  6
CONTINUOUS
  0
VERTEX
 10
2.000000
 20
23.000000
  8
2
 62
7
  6
CONTINUOUS
  0
VERTEX
 10
3.000000
 20
23.000000
  8
2
 62
7
  6
CONTINUOUS
  0
VERTEX
 10
3.000000
 20
24.000000
  8
2
 62
7
  6
CONTINUOUS
  0
VERTEX
 10
4.000000
 20
24.000000
  8
2
 62
7
  6
CONTINUOUS
  0
VERTEX
 10
4.000000
 20
23.000000
  8
2
 62
7
  6
CONTINUOUS
  0
VERTEX
 10
5.000000
 20
23.000000
  8
2
 62
7
  6
CONTINUOUS
  0
VERTEX
 10
5.000000
 20
24.000000
  8
2
 62
7
  6
CONTINUOUS
  0
VERTEX
 10
5.500000
 20
24.000000
  8
2
 62
7
  6
CONTINUOUS
  0
VERTEX
 10
5.500000
 20
19.000000
  8
2
 62
7
  6
CONTINUOUS
  0
VERTEX
 10
6.500000
 20
19.000000
  8
2
 62
7
  6
CONTINUOUS
  0
VERTEX
 10
6.500000
 20
20.000000
  8
2
 62
7
  6
CONTINUOUS
  0
VERTEX
 10
7.500000
 20
20.000000
  8
2
 62
7
  6
CONTINUOUS
  0
VERTEX
 10
7.500000
 20
19.000000
  8
2
 62
7
  6
CONTINUOUS
  0
VERTEX
 10
8.500000
 20
19.000000
  8
2
 62
7
  6
CONTINUOUS
  0
VERTEX
 10
8.500000
 20
20.000000
  8
2
 62
7
  6
CONTINUOUS
  0
VERTEX
 10
9.000000
 20
20.000000
  8
2
 62
7
  6
CONTINUOUS
  0
VERTEX
 10
9.000000
 20
15.000000
  8
2
 62
7
  6
CONTINUOUS
  0
VERTEX
 10
10.000000
 20
15.000000
  8
2
 62
7
  6
CONTINUOUS
  0
VERTEX
 10
10.000000
 20
16.000000
  8
2
 62
7
  6
CONTINUOUS
  0
VERTEX
 10
11.000000
 20
16.000000
  8
2
 62
7
  6
CONTINUOUS
  0
VERTEX
 10
11.000000
 20
15.000000
  8
2
 62
7
  6
CONTINUOUS
  0
VERTEX
 10
12.000000
 20
15.000000
  8
2
 62
7
  6
CONTINUOUS
  0
VERTEX
 10
12.000000
 20
9.000000
  8
2
 62
7
  6
CONTINUOUS
  0
SEQEND
  0
POLYLINE
  8
2
 62
7
  6
CONTINUOUS
 70
1
 66
1
  0
VERTEX
 10
12.000000
 20
9.000000
  8
2
 62
7
  6
CONTINUOUS
  0
VERTEX
 10
11.000000
 20
9.000000
  8
2
 62
7
  6
CONTINUOUS
  0
VERTEX
 10
11.000000
 20
8.000000
  8
2
 62
7
  6
CONTINUOUS
  0
VERTEX
 10
10.000000
 20
8.000000
  8
2
 62
7
  6
CONTINUOUS
  0
VERTEX
 10
10.000000
 20
9.000000
  8
2
 62
7
  6
CONTINUOUS
  0
VERTEX
 10
9.000000
 20
9.000000
  8
2
 62
7
  6
CONTINUOUS
  0
VERTEX
 10
9.000000
 20
8.000000
  8
2
 62
7
  6
CONTINUOUS
  0
VERTEX
 10
8.500000
 20
8.000000
  8
2
 62
7
  6
CONTINUOUS
  0
VERTEX
 10
8.500000
 20
13.000000
  8
2
 62
7
  6
CONTINUOUS
  0
VERTEX
 10
7.500000
 20
13.000000
  8
2
 62
7
  6
CONTINUOUS
  0
VERTEX
 10
7.500000
 20
12.000000
  8
2
 62
7
  6
CONTINUOUS
  0
VERTEX
 10
6.500000
 20
12.000000
  8
2
 62
7
  6
CONTINUOUS
  0
VERTEX
 10
6.500000
 20
13.000000
  8
2
 62
7
  6
CONTINUOUS
  0
VERTEX
 10
5.500000
 20
13.000000
  8
2
 62
7
  6
CONTINUOUS
  0
VERTEX
 10
5.500000
 20
12.000000
  8
2
 62
7
  6
CONTINUOUS
  0
VERTEX
 10
5.000000
 20
12.000000
  8
2
 62
7
  6
CONTINUOUS
  0
VERTEX
 10
5.000000
 20
17.000000
  8
2
 62
7
  6
CONTINUOUS
  0
VERTEX
 10
4.000000
 20
17.000000
  8
2
 62
7
  6
CONTINUOUS
  0
VERTEX
 10
4.000000
 20
16.000000
  8
2
 62
7
  6
CONTINUOUS
  0
VERTEX
 10
3.000000
 20
16.000000
  8
2
 62
7
  6
CONTINUOUS
  0
VERTEX
 10
3.000000
 20
17.000000
  8
2
 62
7
  6
CONTINUOUS
  0
VERTEX
 10
3.000000
 20
17.000000
  8
2
 62
7
  6
CONTINUOUS
  0
VERTEX
 10
2.000000
 20
17.000000
  8
2
 62
7
  6
CONTINUOUS
  0
VERTEX
 10
2.000000
 20
23.000000
  8
2
 62
7
  6
CONTINUOUS
  0
VERTEX
 10
3.000000
 20
23.000000
  8
2
 62
7
  6
CONTINUOUS
  0
VERTEX
 10
3.000000
 20
24.000000
  8
2
 62
7
  6
CONTINUOUS
  0
VERTEX
 10
4.000000
 20
24.000000
  8
2
 62
7
  6
CONTINUOUS
  0
VERTEX
 10
4.000000
 20
23.000000
  8
2
 62
7
  6
CONTINUOUS
  0
VERTEX
 10
5.000000
 20
23.000000
  8
2
 62
7
  6
CONTINUOUS
  0
VERTEX
 10
5.000000
 20
24.000000
  8
2
 62
7
  6
CONTINUOUS
  0
VERTEX
 10
5.500000
 20
24.000000
  8
2
 62
7
  6
CONTINUOUS
  0
VERTEX
 10
5.500000
 20
19.000000
  8
2
 62
7
  6
CONTINUOUS
  0
VERTEX
 10
6.500000
 20
19.000000
  8
2
 62
7
  6
CONTINUOUS
  0
VERTEX
 10
6.500000
 20
20.000000
  8
2
 62
7
  6
CONTINUOUS
  0
VERTEX
 10
7.500000
 20
20.000000
  8
2
 62
7
  6
CONTINUOUS
  0
VERTEX
 10
7.500000
 20
19.000000
  8
2
 62
7
  6
CONTINUOUS
  0
VERTEX
 10
8.500000
 20
19.000000
  8
2
 62
7
  6
CONTINUOUS
  0
VERTEX
 10
8.500000
 20
20.000000
  8
2
 62
7
  6
CONTINUOUS
  0
VERTEX
 10
9.000000
 20
20.000000
  8
2
 62
7
  6
CONTINUOUS
  0
VERTEX
 10
9.000000
 20
15.000000
  8
2
 62
7
  6
CONTINUOUS
  0
VERTEX
 10
10.000000
 20
15.000000
  8
2
 62
7
  6
CONTINUOUS
  0
VERTEX
 10
10.000000
 20
16.000000
  8
2
 62
7
  6
CONTINUOUS
  0
VERTEX
 10
11.000000
 20
16.000000
  8
2
 62
7
  6
CONTINUOUS
  0
VERTEX
 10
11.000000
 20
15.000000
  8
2
 62
7
  6
CONTINUOUS
  0
VERTEX
 10
12.000000
 20
15.000000
  8
2
 62
7
  6
CONTINUOUS
  0
VERTEX
 10
12.000000
 20
9.000000
  8
2
 62
7
  6
CONTINUOUS
  0
SEQEND
  0
POLYLINE
  8
2
 62
7
  6
CONTINUOUS
 70
1
 66
1
  0
VERTEX
 10
17.800000
 20
35.200000
 30
0.000000
  8
2
 62
7
  6
CONTINUOUS
  0
VERTEX
 10
17.800000
 20
39.800000
 30
0.000000
  8
2
 62
7
  6
CONTINUOUS
  0
VERTEX
 10
15.100000
 20
39.800000
 30
0.000000
  8
2
 62
7
  6
CONTINUOUS
  0
VERTEX
 10
15.100000
 20
35.200000
 30
0.000000
  8
2
 62
7
  6
CONTINUOUS
  0
SEQEND
  0
CIRCLE
  8
2
 62
7
  6
CONTINUOUS
 10
16.500000
 20
37.500000
 30
0.0
 40
1.000000
  0
POLYLINE
  8
2
 62
7
  6
CONTINUOUS
 70
1
 66
1
  0
VERTEX
 10
20.500000
 20
35.200000
 30
0.000000
  8
2
 62
7
  6
CONTINUOUS
  0
VERTEX
 10
20.500000
 20
39.800000
 30
0.000000
  8
2
 62
7
  6
CONTINUOUS
  0
VERTEX
 10
17.800000
 20
39.800000
 30
0.000000
  8
2
 62
7
  6
CONTINUOUS
  0
VERTEX
 10
17.800000
 20
35.200000
 30
0.000000
  8
2
 62
7
  6
CONTINUOUS
  0
SEQEND
  0
CIRCLE
  8
2
 62
7
  6
CONTINUOUS
 10
19.200000
 20
37.500000
 30
0.0
 40
1.000000
  0
POLYLINE
  8
2
 62
7
  6
CONTINUOUS
 70
1
 66
1
  0
VERTEX
 10
23.200000
 20
35.200000
 30
0.000000
  8
2
 62
7
  6
CONTINUOUS
  0
VERTEX
 10
23.200000
 20
39.800000
 30
0.000000
  8
2
 62
7
  6
CONTINUOUS
  0
VERTEX
 10
20.500000
 20
39.800000
 30
0.000000
  8
2
 62
7
  6
CONTINUOUS
  0
VERTEX
 10
20.500000
 20
35.200000
 30
0.000000
  8
2
 62
7
  6
CONTINUOUS
  0
SEQEND
  0
CIRCLE
  8
2
 62
7
  6
CONTINUOUS
 10
21.900000
 20
37.500000
 30
0.0
 40
1.000000
  0
POLYLINE
  8
2
 62
7
  6
L014100020032000000
 70
1
 66
1
  0
VERTEX
 10
7.700000
 20
43.000000
 30
0.000000
  8
2
 62
7
  6
L014100020032000000
  0
VERTEX
 10
7.700000
 20
39.000000
 30
0.000000
  8
2
 62
7
  6
L014100020032000000
  0
VERTEX
 10
1.700000
 20
39.000000
 30
0.000000
  8
2
 62
7
  6
L014100020032000000
  0
VERTEX
 10
1.700000
 20
43.000000
 30
0.000000
  8
2
 62
7
  6
L014100020032000000
  0
SEQEND
  0
TEXT
  8
2
 62
7
  6
L010100020032000000
 10
4.700000
 20
40.200000
 40
3.000000
  1
W
 50
0.000000
 51
0.000000
 72
1
 73
0
 11
4.700000
 21
40.200000
  0
POLYLINE
  8
2
 62
7
  6
L014100020032000000
 70
1
 66
1
  0
VERTEX
 10
11.200000
 20
36.000000
 30
0.000000
  8
2
 62
7
  6
L014100020032000000
  0
VERTEX
 10
11.200000
 20
32.000000
 30
0.000000
  8
2
 62
7
  6
L014100020032000000
  0
VERTEX
 10
5.200000
 20
32.000000
 30
0.000000
  8
2
 62
7
  6
L014100020032000000
  0
VERTEX
 10
5.200000
 20
36.000000
 30
0.000000
  8
2
 62
7
  6
L014100020032000000
  0
SEQEND
  0
TEXT
  8
2
 62
7
  6
L010100020032000000
 10
8.200000
 20
33.200000
 40
3.000000
  1
W
 50
0.000000
 51
0.000000
 72
1
 73
0
 11
8.200000
 21
33.200000
  0
POLYLINE
  8
2
 62
7
  6
L014100020032000000
 70
1
 66
1
  0
VERTEX
 10
14.700000
 20
43.000000
 30
0.000000
  8
2
 62
7
  6
L014100020032000000
  0
VERTEX
 10
14.700000
 20
39.000000
 30
0.000000
  8
2
 62
7
  6
L014100020032000000
  0
VERTEX
 10
8.700000
 20
39.000000
 30
0.000000
  8
2
 62
7
  6
L014100020032000000
  0
VERTEX
 10
8.700000
 20
43.000000
 30
0.000000
  8
2
 62
7
  6
L014100020032000000
  0
SEQEND
  0
TEXT
  8
2
 62
7
  6
L010100020032000000
 10
11.700000
 20
40.200000
 40
3.000000
  1
W
 50
0.000000
 51
0.000000
 72
1
 73
0
 11
11.700000
 21
40.200000
  0
POLYLINE
  8
2
 62
7
  6
L00F10002001E000000
 70
1
 66
1
  0
VERTEX
 10
10.000000
 20
109.700000
 30
0.000000
  8
2
 62
7
  6
L00F10002001E000000
  0
VERTEX
 10
10.000000
 20
115.300000
 30
0.000000
  8
2
 62
7
  6
L00F10002001E000000
  0
VERTEX
 10
7.400000
 20
115.300000
 30
0.000000
  8
2
 62
7
  6
L00F10002001E000000
  0
VERTEX
 10
7.400000
 20
109.700000
 30
0.000000
  8
2
 62
7
  6
L00F10002001E000000
  0
SEQEND
  0
CIRCLE
  8
2
 62
7
  6
L014100020032000000
 10
8.700000
 20
113.600000
 30
0.0
 40
0.500000
  0
CIRCLE
  8
2
 62
7
  6
L014100020032000000
 10
8.700000
 20
111.400000
 30
0.0
 40
0.500000
  0
POLYLINE
  8
2
 62
7
  6
L014100020032000000
 70
1
 66
1
  0
VERTEX
 10
7.400000
 20
116.500000
  8
2
 62
7
  6
L014100020032000000
  0
VERTEX
 10
7.900000
 20
116.700000
  8
2
 62
7
  6
L014100020032000000
  0
VERTEX
 10
9.500000
 20
116.700000
  8
2
 62
7
  6
L014100020032000000
  0
VERTEX
 10
10.000000
 20
116.500000
  8
2
 62
7
  6
L014100020032000000
  0
VERTEX
 10
10.000000
 20
108.500000
  8
2
 62
7
  6
L014100020032000000
  0
VERTEX
 10
9.500000
 20
108.300000
  8
2
 62
7
  6
L014100020032000000
  0
VERTEX
 10
7.900000
 20
108.300000
  8
2
 62
7
  6
L014100020032000000
  0
VERTEX
 10
7.400000
 20
108.500000
  8
2
 62
7
  6
L014100020032000000
  0
SEQEND
  0
POLYLINE
  8
2
 62
7
  6
L00F10002001E000000
 70
1
 66
1
  0
VERTEX
 10
17.900000
 20
109.700000
 30
0.000000
  8
2
 62
7
  6
L00F10002001E000000
  0
VERTEX
 10
17.900000
 20
115.300000
 30
0.000000
  8
2
 62
7
  6
L00F10002001E000000
  0
VERTEX
 10
15.300000
 20
115.300000
 30
0.000000
  8
2
 62
7
  6
L00F10002001E000000
  0
VERTEX
 10
15.300000
 20
109.700000
 30
0.000000
  8
2
 62
7
  6
L00F10002001E000000
  0
SEQEND
  0
CIRCLE
  8
2
 62
7
  6
L014100020032000000
 10
16.600000
 20
113.600000
 30
0.0
 40
0.500000
  0
CIRCLE
  8
2
 62
7
  6
L014100020032000000
 10
16.600000
 20
111.400000
 30
0.0
 40
0.500000
  0
POLYLINE
  8
2
 62
7
  6
L014100020032000000
 70
1
 66
1
  0
VERTEX
 10
15.300000
 20
116.500000
  8
2
 62
7
  6
L014100020032000000
  0
VERTEX
 10
15.800000
 20
116.700000
  8
2
 62
7
  6
L014100020032000000
  0
VERTEX
 10
17.400000
 20
116.700000
  8
2
 62
7
  6
L014100020032000000
  0
VERTEX
 10
17.900000
 20
116.500000
  8
2
 62
7
  6
L014100020032000000
  0
VERTEX
 10
17.900000
 20
108.500000
  8
2
 62
7
  6
L014100020032000000
  0
VERTEX
 10
17.400000
 20
108.300000
  8
2
 62
7
  6
L014100020032000000
  0
VERTEX
 10
15.800000
 20
108.300000
  8
2
 62
7
  6
L014100020032000000
  0
VERTEX
 10
15.300000
 20
108.500000
  8
2
 62
7
  6
L014100020032000000
  0
SEQEND
  0
POLYLINE
  8
2
 62
7
  6
CONTINUOUS
 70
1
 66
1
  0
VERTEX
 10
15.300000
 20
110.100000
 30
0.000000
  8
2
 62
7
  6
CONTINUOUS
  0
VERTEX
 10
15.300000
 20
114.700000
 30
0.000000
  8
2
 62
7
  6
CONTINUOUS
  0
VERTEX
 10
10.000000
 20
114.700000
 30
0.000000
  8
2
 62
7
  6
CONTINUOUS
  0
VERTEX
 10
10.000000
 20
110.100000
 30
0.000000
  8
2
 62
7
  6
CONTINUOUS
  0
SEQEND
  0
POLYLINE
  8
2
 62
7
  6
CONTINUOUS
 70
1
 66
1
  0
VERTEX
 10
15.200000
 20
114.100000
 30
0.000000
  8
2
 62
7
  6
CONTINUOUS
  0
VERTEX
 10
15.200000
 20
114.600000
 30
0.000000
  8
2
 62
7
  6
CONTINUOUS
  0
VERTEX
 10
10.100000
 20
114.600000
 30
0.000000
  8
2
 62
7
  6
CONTINUOUS
  0
VERTEX
 10
10.100000
 20
114.100000
 30
0.000000
  8
2
 62
7
  6
CONTINUOUS
  0
SEQEND
  0
POLYLINE
  8
2
 62
7
  6
CONTINUOUS
 70
1
 66
1
  0
VERTEX
 10
12.700000
 20
112.300000
 30
0.000000
  8
2
 62
7
  6
CONTINUOUS
  0
VERTEX
 10
12.700000
 20
112.700000
 30
0.000000
  8
2
 62
7
  6
CONTINUOUS
  0
VERTEX
 10
12.300000
 20
112.700000
 30
0.000000
  8
2
 62
7
  6
CONTINUOUS
  0
VERTEX
 10
12.300000
 20
112.300000
 30
0.000000
  8
2
 62
7
  6
CONTINUOUS
  0
SEQEND
  0
POLYLINE
  8
2
 62
7
  6
CONTINUOUS
 70
1
 66
1
  0
VERTEX
 10
15.000000
 20
112.000000
 30
0.000000
  8
2
 62
7
  6
CONTINUOUS
  0
VERTEX
 10
15.000000
 20
113.100000
 30
0.000000
  8
2
 62
7
  6
CONTINUOUS
  0
VERTEX
 10
11.600000
 20
113.100000
 30
0.000000
  8
2
 62
7
  6
CONTINUOUS
  0
VERTEX
 10
11.600000
 20
112.000000
 30
0.000000
  8
2
 62
7
  6
CONTINUOUS
  0
SEQEND
  0
TEXT
  8
2
 62
7
  6
CONTINUOUS
 10
14.100000
 20
113.566667
 40
0.400000
  1
I
 50
0.000000
 51
0.000000
 72
1
 73
0
 11
14.100000
 21
113.566667
  0
TEXT
  8
2
 62
7
  6
CONTINUOUS
 10
14.100000
 20
113.166667
 40
0.400000
  1
ON
 50
0.000000
 51
0.000000
 72
1
 73
0
 11
14.100000
 21
113.166667
  0
TEXT
  8
2
 62
7
  6
CONTINUOUS
 10
10.900000
 20
112.566667
 40
0.400000
  1
O
 50
0.000000
 51
0.000000
 72
1
 73
0
 11
10.900000
 21
112.566667
  0
TEXT
  8
2
 62
7
  6
CONTINUOUS
 10
10.900000
 20
112.166667
 40
0.400000
  1
OFF
 50
0.000000
 51
0.000000
 72
1
 73
0
 11
10.900000
 21
112.166667
  0
POLYLINE
  8
30
 62
7
  6
CONTINUOUS
 70
1
 66
1
  0
VERTEX
 10
24.500000
 20
5.100000
 30
0.000000
  8
30
 62
7
  6
CONTINUOUS
  0
VERTEX
 10
24.500000
 20
26.100000
 30
0.000000
  8
30
 62
7
  6
CONTINUOUS
  0
VERTEX
 10
23.000000
 20
26.100000
 30
0.000000
  8
30
 62
7
  6
CONTINUOUS
  0
VERTEX
 10
23.000000
 20
5.100000
 30
0.000000
  8
30
 62
7
  6
CONTINUOUS
  0
SEQEND
  0
POLYLINE
  8
30
 62
7
  6
CONTINUOUS
 70
1
 66
1
  0
VERTEX
 10
2.000000
 20
5.100000
 30
0.000000
  8
30
 62
7
  6
CONTINUOUS
  0
VERTEX
 10
2.000000
 20
26.100000
 30
0.000000
  8
30
 62
7
  6
CONTINUOUS
  0
VERTEX
 10
0.500000
 20
26.100000
 30
0.000000
  8
30
 62
7
  6
CONTINUOUS
  0
VERTEX
 10
0.500000
 20
5.100000
 30
0.000000
  8
30
 62
7
  6
CONTINUOUS
  0
SEQEND
  0
POLYLINE
  8
157
 62
7
  6
L00F10002001E000000
 70
1
 66
1
  0
VERTEX
 10
10.000000
 20
109.700000
 30
0.000000
  8
157
 62
7
  6
L00F10002001E000000
  0
VERTEX
 10
10.000000
 20
115.300000
 30
0.000000
  8
157
 62
7
  6
L00F10002001E000000
  0
VERTEX
 10
7.400000
 20
115.300000
 30
0.000000
  8
157
 62
7
  6
L00F10002001E000000
  0
VERTEX
 10
7.400000
 20
109.700000
 30
0.000000
  8
157
 62
7
  6
L00F10002001E000000
  0
SEQEND
  0
POLYLINE
  8
157
 62
7
  6
L00F10002001E000000
 70
1
 66
1
  0
VERTEX
 10
17.900000
 20
109.700000
 30
0.000000
  8
157
 62
7
  6
L00F10002001E000000
  0
VERTEX
 10
17.900000
 20
115.300000
 30
0.000000
  8
157
 62
7
  6
L00F10002001E000000
  0
VERTEX
 10
15.300000
 20
115.300000
 30
0.000000
  8
157
 62
7
  6
L00F10002001E000000
  0
VERTEX
 10
15.300000
 20
109.700000
 30
0.000000
  8
157
 62
7
  6
L00F10002001E000000
  0
SEQEND
  0
ENDBLK
  0
ENDSEC
  0
SECTION
  2
ENTITIES
  0
INSERT
  8
0
 2
ka4298
 10
0.000000
 20
0.000000
 30
0.0
 50
0.0
  0
ENDSEC
  0
EOF
