  0
SECTION
  2
HEADER
  9
$ACADVER
  1
AC1009
  9
$INSBASE
 10
0.0
 20
0.0
 30
0.0
  9
$EXTMIN
 10
0.0
 20
0.0
 30
0.0
  9
$EXTMAX
 10
0.000000
 20
0.000000
 30
0.0
  9
$LIMMIN
 10
0.0
 20
0.0
  9
$LIMMAX
 10
0.000000
 20
0.000000
  0
ENDSEC
  0
SECTION
  2
TABLES
  0
TABLE
  2
LTYPE
 70
4
  0
LTYPE
  2
CONTINUOUS
 70
64
  3
Solid line
 72
65
 73
0
 40
0.000000
  0
LTYPE
  2
L000000020000FFFFFF
 70
64
  3
Solid line
 72
65
 73
0
 40
0.000000
  0
LTYPE
  2
L000000000000000000
 70
64
  3
Solid line
 72
65
 73
0
 40
0.000000
  0
LTYPE
  2
L014100020032000000
 70
64
  3
- - - - - - - -
 72
65
 73
2
 40
0.500000
 49
0.300000
 49
-0.200000
  0
ENDTAB
  0
TABLE
  2
LAYER
 70
8
  0
LAYER
  2
0
 70
64
 62
7
  6
CONTINUOUS
  0
LAYER
  2
1
 70
64
 62
7
  6
CONTINUOUS
  0
LAYER
  2
2
 70
64
 62
7
  6
CONTINUOUS
  0
LAYER
  2
3
 70
64
 62
-7
  6
CONTINUOUS
  0
LAYER
  2
4
 70
64
 62
7
  6
CONTINUOUS
  0
LAYER
  2
5
 70
64
 62
7
  6
CONTINUOUS
  0
LAYER
  2
6
 70
64
 62
7
  6
CONTINUOUS
  0
LAYER
  2
7
 70
64
 62
7
  6
CONTINUOUS
  0
LAYER
  2
8
 70
64
 62
7
  6
CONTINUOUS
  0
LAYER
  2
9
 70
64
 62
7
  6
CONTINUOUS
  0
LAYER
  2
10
 70
64
 62
7
  6
CONTINUOUS
  0
LAYER
  2
11
 70
64
 62
7
  6
CONTINUOUS
  0
LAYER
  2
12
 70
64
 62
7
  6
CONTINUOUS
  0
LAYER
  2
13
 70
64
 62
7
  6
CONTINUOUS
  0
LAYER
  2
14
 70
64
 62
7
  6
CONTINUOUS
  0
LAYER
  2
15
 70
64
 62
-7
  6
CONTINUOUS
  0
LAYER
  2
16
 70
64
 62
7
  6
CONTINUOUS
  0
LAYER
  2
17
 70
64
 62
7
  6
CONTINUOUS
  0
LAYER
  2
18
 70
64
 62
7
  6
CONTINUOUS
  0
LAYER
  2
19
 70
64
 62
7
  6
CONTINUOUS
  0
LAYER
  2
20
 70
64
 62
7
  6
CONTINUOUS
  0
LAYER
  2
21
 70
64
 62
7
  6
CONTINUOUS
  0
LAYER
  2
22
 70
64
 62
7
  6
CONTINUOUS
  0
LAYER
  2
23
 70
64
 62
7
  6
CONTINUOUS
  0
LAYER
  2
24
 70
64
 62
7
  6
CONTINUOUS
  0
LAYER
  2
25
 70
64
 62
7
  6
CONTINUOUS
  0
LAYER
  2
26
 70
64
 62
7
  6
CONTINUOUS
  0
LAYER
  2
27
 70
64
 62
7
  6
CONTINUOUS
  0
LAYER
  2
28
 70
64
 62
7
  6
CONTINUOUS
  0
LAYER
  2
29
 70
64
 62
-7
  6
CONTINUOUS
  0
LAYER
  2
30
 70
64
 62
7
  6
CONTINUOUS
  0
LAYER
  2
31
 70
64
 62
7
  6
CONTINUOUS
  0
LAYER
  2
32
 70
64
 62
7
  6
CONTINUOUS
  0
LAYER
  2
33
 70
64
 62
7
  6
CONTINUOUS
  0
LAYER
  2
34
 70
64
 62
7
  6
CONTINUOUS
  0
LAYER
  2
35
 70
64
 62
7
  6
CONTINUOUS
  0
LAYER
  2
36
 70
64
 62
7
  6
CONTINUOUS
  0
LAYER
  2
37
 70
64
 62
7
  6
CONTINUOUS
  0
LAYER
  2
38
 70
64
 62
-7
  6
CONTINUOUS
  0
LAYER
  2
39
 70
64
 62
-7
  6
CONTINUOUS
  0
LAYER
  2
40
 70
64
 62
7
  6
CONTINUOUS
  0
LAYER
  2
41
 70
64
 62
7
  6
CONTINUOUS
  0
LAYER
  2
42
 70
64
 62
7
  6
CONTINUOUS
  0
LAYER
  2
43
 70
64
 62
7
  6
CONTINUOUS
  0
LAYER
  2
44
 70
64
 62
7
  6
CONTINUOUS
  0
LAYER
  2
45
 70
64
 62
7
  6
CONTINUOUS
  0
LAYER
  2
46
 70
64
 62
7
  6
CONTINUOUS
  0
LAYER
  2
47
 70
64
 62
-7
  6
CONTINUOUS
  0
LAYER
  2
48
 70
64
 62
-7
  6
CONTINUOUS
  0
LAYER
  2
49
 70
64
 62
-7
  6
CONTINUOUS
  0
LAYER
  2
50
 70
64
 62
-7
  6
CONTINUOUS
  0
LAYER
  2
51
 70
64
 62
-7
  6
CONTINUOUS
  0
LAYER
  2
52
 70
64
 62
-7
  6
CONTINUOUS
  0
LAYER
  2
53
 70
64
 62
-7
  6
CONTINUOUS
  0
LAYER
  2
54
 70
64
 62
-7
  6
CONTINUOUS
  0
LAYER
  2
55
 70
64
 62
-7
  6
CONTINUOUS
  0
LAYER
  2
56
 70
64
 62
-7
  6
CONTINUOUS
  0
LAYER
  2
57
 70
64
 62
-7
  6
CONTINUOUS
  0
LAYER
  2
58
 70
64
 62
7
  6
CONTINUOUS
  0
LAYER
  2
59
 70
64
 62
-7
  6
CONTINUOUS
  0
LAYER
  2
60
 70
64
 62
-7
  6
CONTINUOUS
  0
LAYER
  2
61
 70
64
 62
7
  6
CONTINUOUS
  0
LAYER
  2
62
 70
64
 62
7
  6
CONTINUOUS
  0
LAYER
  2
63
 70
64
 62
7
  6
CONTINUOUS
  0
LAYER
  2
64
 70
64
 62
7
  6
CONTINUOUS
  0
LAYER
  2
65
 70
64
 62
7
  6
CONTINUOUS
  0
LAYER
  2
66
 70
64
 62
7
  6
CONTINUOUS
  0
LAYER
  2
67
 70
64
 62
7
  6
CONTINUOUS
  0
LAYER
  2
68
 70
64
 62
7
  6
CONTINUOUS
  0
LAYER
  2
69
 70
64
 62
7
  6
CONTINUOUS
  0
LAYER
  2
70
 70
64
 62
7
  6
CONTINUOUS
  0
LAYER
  2
71
 70
64
 62
7
  6
CONTINUOUS
  0
LAYER
  2
72
 70
64
 62
7
  6
CONTINUOUS
  0
LAYER
  2
73
 70
64
 62
7
  6
CONTINUOUS
  0
LAYER
  2
74
 70
64
 62
7
  6
CONTINUOUS
  0
LAYER
  2
75
 70
64
 62
7
  6
CONTINUOUS
  0
LAYER
  2
76
 70
64
 62
7
  6
CONTINUOUS
  0
LAYER
  2
77
 70
64
 62
7
  6
CONTINUOUS
  0
LAYER
  2
78
 70
64
 62
7
  6
CONTINUOUS
  0
LAYER
  2
79
 70
64
 62
7
  6
CONTINUOUS
  0
LAYER
  2
80
 70
64
 62
7
  6
CONTINUOUS
  0
LAYER
  2
81
 70
64
 62
7
  6
CONTINUOUS
  0
LAYER
  2
82
 70
64
 62
7
  6
CONTINUOUS
  0
LAYER
  2
83
 70
64
 62
7
  6
CONTINUOUS
  0
LAYER
  2
84
 70
64
 62
7
  6
CONTINUOUS
  0
LAYER
  2
85
 70
64
 62
7
  6
CONTINUOUS
  0
LAYER
  2
86
 70
64
 62
7
  6
CONTINUOUS
  0
LAYER
  2
87
 70
64
 62
7
  6
CONTINUOUS
  0
LAYER
  2
88
 70
64
 62
7
  6
CONTINUOUS
  0
LAYER
  2
89
 70
64
 62
7
  6
CONTINUOUS
  0
LAYER
  2
90
 70
64
 62
7
  6
CONTINUOUS
  0
LAYER
  2
91
 70
64
 62
7
  6
CONTINUOUS
  0
LAYER
  2
92
 70
64
 62
7
  6
CONTINUOUS
  0
LAYER
  2
93
 70
64
 62
7
  6
CONTINUOUS
  0
LAYER
  2
94
 70
64
 62
7
  6
CONTINUOUS
  0
LAYER
  2
95
 70
64
 62
7
  6
CONTINUOUS
  0
LAYER
  2
96
 70
64
 62
7
  6
CONTINUOUS
  0
LAYER
  2
97
 70
64
 62
7
  6
CONTINUOUS
  0
LAYER
  2
98
 70
64
 62
7
  6
CONTINUOUS
  0
LAYER
  2
99
 70
64
 62
7
  6
CONTINUOUS
  0
LAYER
  2
100
 70
64
 62
7
  6
CONTINUOUS
  0
LAYER
  2
101
 70
64
 62
7
  6
CONTINUOUS
  0
LAYER
  2
102
 70
64
 62
7
  6
CONTINUOUS
  0
LAYER
  2
103
 70
64
 62
7
  6
CONTINUOUS
  0
LAYER
  2
104
 70
64
 62
7
  6
CONTINUOUS
  0
LAYER
  2
105
 70
64
 62
7
  6
CONTINUOUS
  0
LAYER
  2
106
 70
64
 62
7
  6
CONTINUOUS
  0
LAYER
  2
107
 70
64
 62
7
  6
CONTINUOUS
  0
LAYER
  2
108
 70
64
 62
7
  6
CONTINUOUS
  0
LAYER
  2
109
 70
64
 62
7
  6
CONTINUOUS
  0
LAYER
  2
110
 70
64
 62
7
  6
CONTINUOUS
  0
LAYER
  2
111
 70
64
 62
7
  6
CONTINUOUS
  0
LAYER
  2
112
 70
64
 62
7
  6
CONTINUOUS
  0
LAYER
  2
113
 70
64
 62
7
  6
CONTINUOUS
  0
LAYER
  2
114
 70
64
 62
7
  6
CONTINUOUS
  0
LAYER
  2
115
 70
64
 62
7
  6
CONTINUOUS
  0
LAYER
  2
116
 70
64
 62
7
  6
CONTINUOUS
  0
LAYER
  2
117
 70
64
 62
7
  6
CONTINUOUS
  0
LAYER
  2
118
 70
64
 62
7
  6
CONTINUOUS
  0
LAYER
  2
119
 70
64
 62
7
  6
CONTINUOUS
  0
LAYER
  2
120
 70
64
 62
7
  6
CONTINUOUS
  0
LAYER
  2
121
 70
64
 62
7
  6
CONTINUOUS
  0
LAYER
  2
122
 70
64
 62
7
  6
CONTINUOUS
  0
LAYER
  2
123
 70
64
 62
7
  6
CONTINUOUS
  0
LAYER
  2
124
 70
64
 62
7
  6
CONTINUOUS
  0
LAYER
  2
125
 70
64
 62
7
  6
CONTINUOUS
  0
LAYER
  2
126
 70
64
 62
7
  6
CONTINUOUS
  0
LAYER
  2
127
 70
64
 62
7
  6
CONTINUOUS
  0
LAYER
  2
128
 70
64
 62
7
  6
CONTINUOUS
  0
LAYER
  2
129
 70
64
 62
7
  6
CONTINUOUS
  0
LAYER
  2
130
 70
64
 62
7
  6
CONTINUOUS
  0
LAYER
  2
131
 70
64
 62
7
  6
CONTINUOUS
  0
LAYER
  2
132
 70
64
 62
7
  6
CONTINUOUS
  0
LAYER
  2
133
 70
64
 62
7
  6
CONTINUOUS
  0
LAYER
  2
134
 70
64
 62
7
  6
CONTINUOUS
  0
LAYER
  2
135
 70
64
 62
7
  6
CONTINUOUS
  0
LAYER
  2
136
 70
64
 62
7
  6
CONTINUOUS
  0
LAYER
  2
137
 70
64
 62
7
  6
CONTINUOUS
  0
LAYER
  2
138
 70
64
 62
7
  6
CONTINUOUS
  0
LAYER
  2
139
 70
64
 62
7
  6
CONTINUOUS
  0
LAYER
  2
140
 70
64
 62
7
  6
CONTINUOUS
  0
LAYER
  2
141
 70
64
 62
7
  6
CONTINUOUS
  0
LAYER
  2
142
 70
64
 62
7
  6
CONTINUOUS
  0
LAYER
  2
143
 70
64
 62
7
  6
CONTINUOUS
  0
LAYER
  2
144
 70
64
 62
7
  6
CONTINUOUS
  0
LAYER
  2
145
 70
64
 62
7
  6
CONTINUOUS
  0
LAYER
  2
146
 70
64
 62
7
  6
CONTINUOUS
  0
LAYER
  2
147
 70
64
 62
7
  6
CONTINUOUS
  0
LAYER
  2
148
 70
64
 62
7
  6
CONTINUOUS
  0
LAYER
  2
149
 70
64
 62
7
  6
CONTINUOUS
  0
LAYER
  2
150
 70
64
 62
7
  6
CONTINUOUS
  0
LAYER
  2
151
 70
64
 62
7
  6
CONTINUOUS
  0
LAYER
  2
152
 70
64
 62
7
  6
CONTINUOUS
  0
LAYER
  2
153
 70
64
 62
7
  6
CONTINUOUS
  0
LAYER
  2
154
 70
64
 62
7
  6
CONTINUOUS
  0
LAYER
  2
155
 70
64
 62
-7
  6
CONTINUOUS
  0
LAYER
  2
156
 70
64
 62
-7
  6
CONTINUOUS
  0
LAYER
  2
157
 70
64
 62
-7
  6
CONTINUOUS
  0
LAYER
  2
158
 70
64
 62
-7
  6
CONTINUOUS
  0
LAYER
  2
159
 70
64
 62
-7
  6
CONTINUOUS
  0
LAYER
  2
160
 70
64
 62
-7
  6
CONTINUOUS
  0
LAYER
  2
161
 70
64
 62
-7
  6
CONTINUOUS
  0
LAYER
  2
162
 70
64
 62
-7
  6
CONTINUOUS
  0
LAYER
  2
163
 70
64
 62
-7
  6
CONTINUOUS
  0
LAYER
  2
164
 70
64
 62
7
  6
CONTINUOUS
  0
LAYER
  2
165
 70
64
 62
7
  6
CONTINUOUS
  0
LAYER
  2
166
 70
64
 62
7
  6
CONTINUOUS
  0
LAYER
  2
167
 70
64
 62
7
  6
CONTINUOUS
  0
LAYER
  2
168
 70
64
 62
7
  6
CONTINUOUS
  0
LAYER
  2
169
 70
64
 62
7
  6
CONTINUOUS
  0
LAYER
  2
170
 70
64
 62
7
  6
CONTINUOUS
  0
LAYER
  2
171
 70
64
 62
7
  6
CONTINUOUS
  0
LAYER
  2
172
 70
64
 62
7
  6
CONTINUOUS
  0
LAYER
  2
173
 70
64
 62
7
  6
CONTINUOUS
  0
LAYER
  2
174
 70
64
 62
7
  6
CONTINUOUS
  0
LAYER
  2
175
 70
64
 62
7
  6
CONTINUOUS
  0
LAYER
  2
176
 70
64
 62
7
  6
CONTINUOUS
  0
LAYER
  2
177
 70
64
 62
7
  6
CONTINUOUS
  0
LAYER
  2
178
 70
64
 62
7
  6
CONTINUOUS
  0
LAYER
  2
179
 70
64
 62
7
  6
CONTINUOUS
  0
LAYER
  2
180
 70
64
 62
7
  6
CONTINUOUS
  0
LAYER
  2
181
 70
64
 62
7
  6
CONTINUOUS
  0
LAYER
  2
182
 70
64
 62
7
  6
CONTINUOUS
  0
LAYER
  2
183
 70
64
 62
7
  6
CONTINUOUS
  0
LAYER
  2
184
 70
64
 62
7
  6
CONTINUOUS
  0
LAYER
  2
185
 70
64
 62
7
  6
CONTINUOUS
  0
LAYER
  2
186
 70
64
 62
7
  6
CONTINUOUS
  0
LAYER
  2
187
 70
64
 62
7
  6
CONTINUOUS
  0
LAYER
  2
188
 70
64
 62
7
  6
CONTINUOUS
  0
LAYER
  2
189
 70
64
 62
7
  6
CONTINUOUS
  0
LAYER
  2
190
 70
64
 62
7
  6
CONTINUOUS
  0
LAYER
  2
191
 70
64
 62
7
  6
CONTINUOUS
  0
LAYER
  2
192
 70
64
 62
7
  6
CONTINUOUS
  0
LAYER
  2
193
 70
64
 62
7
  6
CONTINUOUS
  0
LAYER
  2
194
 70
64
 62
7
  6
CONTINUOUS
  0
LAYER
  2
195
 70
64
 62
7
  6
CONTINUOUS
  0
LAYER
  2
196
 70
64
 62
7
  6
CONTINUOUS
  0
LAYER
  2
197
 70
64
 62
7
  6
CONTINUOUS
  0
LAYER
  2
198
 70
64
 62
7
  6
CONTINUOUS
  0
LAYER
  2
199
 70
64
 62
7
  6
CONTINUOUS
  0
ENDTAB
  0
ENDSEC
  0
SECTION
  2
BLOCKS
  0
BLOCK
  8
0
  2
bayern_stand
 70
 0
 10
0.0
 20
0.0
 30
0.0
  0
SOLID
  8
0
 62
255
  6
CONTINUOUS
 10
77.500000
 20
182.500000
 11
77.500000
 21
-2.500000
 12
-2.500000
 22
182.500000
 13
-2.500000
 23
-2.500000
  0
POLYLINE
  8
0
 62
7
  6
CONTINUOUS
 70
1
 66
1
  0
VERTEX
 10
77.500000
 20
182.500000
 30
0.000000
  8
0
 62
7
  6
CONTINUOUS
  0
VERTEX
 10
77.500000
 20
-2.500000
 30
0.000000
  8
0
 62
7
  6
CONTINUOUS
  0
VERTEX
 10
-2.500000
 20
-2.500000
 30
0.000000
  8
0
 62
7
  6
CONTINUOUS
  0
VERTEX
 10
-2.500000
 20
182.500000
 30
0.000000
  8
0
 62
7
  6
CONTINUOUS
  0
SEQEND
  0
POLYLINE
  8
0
 62
7
  6
CONTINUOUS
 70
1
 66
1
  0
VERTEX
 10
75.500000
 20
100.500000
 30
0.000000
  8
0
 62
7
  6
CONTINUOUS
  0
VERTEX
 10
75.500000
 20
-0.500000
 30
0.000000
  8
0
 62
7
  6
CONTINUOUS
  0
VERTEX
 10
39.500000
 20
-0.500000
 30
0.000000
  8
0
 62
7
  6
CONTINUOUS
  0
VERTEX
 10
39.500000
 20
100.500000
 30
0.000000
  8
0
 62
7
  6
CONTINUOUS
  0
SEQEND
  0
POLYLINE
  8
0
 62
7
  6
CONTINUOUS
 70
1
 66
1
  0
VERTEX
 10
35.500000
 20
100.500000
 30
0.000000
  8
0
 62
7
  6
CONTINUOUS
  0
VERTEX
 10
35.500000
 20
-0.500000
 30
0.000000
  8
0
 62
7
  6
CONTINUOUS
  0
VERTEX
 10
-0.500000
 20
-0.500000
 30
0.000000
  8
0
 62
7
  6
CONTINUOUS
  0
VERTEX
 10
-0.500000
 20
100.500000
 30
0.000000
  8
0
 62
7
  6
CONTINUOUS
  0
SEQEND
  0
POLYLINE
  8
0
 62
7
  6
CONTINUOUS
 70
1
 66
1
  0
VERTEX
 10
75.500000
 20
180.500000
 30
0.000000
  8
0
 62
7
  6
CONTINUOUS
  0
VERTEX
 10
75.500000
 20
104.500000
 30
0.000000
  8
0
 62
7
  6
CONTINUOUS
  0
VERTEX
 10
-0.500000
 20
104.500000
 30
0.000000
  8
0
 62
7
  6
CONTINUOUS
  0
VERTEX
 10
-0.500000
 20
180.500000
 30
0.000000
  8
0
 62
7
  6
CONTINUOUS
  0
SEQEND
  0
LINE
  8
0
 62
7
  6
L014100020032000000
 10
77.500000
 20
102.500000
 11
-2.500000
 21
102.500000
  0
LINE
  8
0
 62
7
  6
L014100020032000000
 10
37.500000
 20
102.500000
 11
37.500000
 21
-2.500000
  0
CIRCLE
  8
0
 62
7
  6
L014100020032000000
 10
2.500000
 20
107.500000
 30
0.0
 40
0.500000
  0
CIRCLE
  8
0
 62
7
  6
L014100020032000000
 10
72.500000
 20
107.500000
 30
0.0
 40
0.500000
  0
CIRCLE
  8
0
 62
7
  6
L014100020032000000
 10
72.500000
 20
177.500000
 30
0.0
 40
0.500000
  0
CIRCLE
  8
0
 62
7
  6
L014100020032000000
 10
2.500000
 20
177.500000
 30
0.0
 40
0.500000
  0
LINE
  8
0
 62
7
  6
L014100020032000000
 10
15.000000
 20
104.500000
 11
15.000000
 21
100.500000
  0
LINE
  8
0
 62
7
  6
L014100020032000000
 10
20.000000
 20
104.500000
 11
20.000000
 21
100.500000
  0
LINE
  8
0
 62
7
  6
L014100020032000000
 10
60.000000
 20
104.500000
 11
60.000000
 21
100.500000
  0
LINE
  8
0
 62
7
  6
L014100020032000000
 10
55.000000
 20
104.500000
 11
55.000000
 21
100.500000
  0
POLYLINE
  8
0
 62
7
  6
CONTINUOUS
 70
1
 66
1
  0
VERTEX
 10
8.700000
 20
-4.500000
  8
0
 62
7
  6
CONTINUOUS
  0
VERTEX
 10
16.300000
 20
-4.500000
  8
0
 62
7
  6
CONTINUOUS
  0
VERTEX
 10
16.300000
 20
-4.000000
  8
0
 62
7
  6
CONTINUOUS
  0
VERTEX
 10
16.800000
 20
-4.000000
  8
0
 62
7
  6
CONTINUOUS
  0
VERTEX
 10
16.800000
 20
-2.800000
  8
0
 62
7
  6
CONTINUOUS
  0
VERTEX
 10
16.300000
 20
-2.800000
  8
0
 62
7
  6
CONTINUOUS
  0
VERTEX
 10
16.300000
 20
-2.500000
  8
0
 62
7
  6
CONTINUOUS
  0
VERTEX
 10
16.800000
 20
-2.500000
  8
0
 62
7
  6
CONTINUOUS
  0
VERTEX
 10
16.800000
 20
-0.500000
  8
0
 62
7
  6
CONTINUOUS
  0
VERTEX
 10
13.300000
 20
7.500000
  8
0
 62
7
  6
CONTINUOUS
  0
VERTEX
 10
11.700000
 20
7.500000
  8
0
 62
7
  6
CONTINUOUS
  0
VERTEX
 10
8.200000
 20
-0.500000
  8
0
 62
7
  6
CONTINUOUS
  0
VERTEX
 10
8.200000
 20
-2.500000
  8
0
 62
7
  6
CONTINUOUS
  0
VERTEX
 10
8.700000
 20
-2.500000
  8
0
 62
7
  6
CONTINUOUS
  0
VERTEX
 10
8.700000
 20
-2.800000
  8
0
 62
7
  6
CONTINUOUS
  0
VERTEX
 10
8.200000
 20
-2.800000
  8
0
 62
7
  6
CONTINUOUS
  0
VERTEX
 10
8.200000
 20
-4.000000
  8
0
 62
7
  6
CONTINUOUS
  0
VERTEX
 10
8.700000
 20
-4.000000
  8
0
 62
7
  6
CONTINUOUS
  0
SEQEND
  0
LINE
  8
0
 62
7
  6
CONTINUOUS
 10
16.800000
 20
-0.500000
 11
8.200000
 21
-0.500000
  0
LINE
  8
0
 62
7
  6
CONTINUOUS
 10
16.300000
 20
0.500000
 11
8.700000
 21
0.500000
  0
LINE
  8
0
 62
7
  6
CONTINUOUS
 10
15.900000
 20
1.500000
 11
9.100000
 21
1.500000
  0
LINE
  8
0
 62
7
  6
CONTINUOUS
 10
15.500000
 20
2.500000
 11
9.500000
 21
2.500000
  0
LINE
  8
0
 62
7
  6
CONTINUOUS
 10
15.000000
 20
3.500000
 11
10.000000
 21
3.500000
  0
LINE
  8
0
 62
7
  6
CONTINUOUS
 10
14.600000
 20
4.500000
 11
10.400000
 21
4.500000
  0
LINE
  8
0
 62
7
  6
CONTINUOUS
 10
14.200000
 20
5.500000
 11
10.800000
 21
5.500000
  0
LINE
  8
0
 62
7
  6
CONTINUOUS
 10
13.700000
 20
6.500000
 11
11.300000
 21
6.500000
  0
LINE
  8
0
 62
7
  6
CONTINUOUS
 10
16.800000
 20
-4.000000
 11
8.200000
 21
-4.000000
  0
LINE
  8
0
 62
7
  6
CONTINUOUS
 10
16.800000
 20
-2.800000
 11
8.200000
 21
-2.800000
  0
LINE
  8
0
 62
7
  6
CONTINUOUS
 10
16.800000
 20
-2.500000
 11
8.200000
 21
-2.500000
  0
LINE
  8
0
 62
7
  6
CONTINUOUS
 10
16.800000
 20
-1.500000
 11
8.200000
 21
-1.500000
  0
POLYLINE
  8
0
 62
7
  6
CONTINUOUS
 70
1
 66
1
  0
VERTEX
 10
18.700000
 20
-4.500000
  8
0
 62
7
  6
CONTINUOUS
  0
VERTEX
 10
26.300000
 20
-4.500000
  8
0
 62
7
  6
CONTINUOUS
  0
VERTEX
 10
26.300000
 20
-4.000000
  8
0
 62
7
  6
CONTINUOUS
  0
VERTEX
 10
26.800000
 20
-4.000000
  8
0
 62
7
  6
CONTINUOUS
  0
VERTEX
 10
26.800000
 20
-2.800000
  8
0
 62
7
  6
CONTINUOUS
  0
VERTEX
 10
26.300000
 20
-2.800000
  8
0
 62
7
  6
CONTINUOUS
  0
VERTEX
 10
26.300000
 20
-2.500000
  8
0
 62
7
  6
CONTINUOUS
  0
VERTEX
 10
26.800000
 20
-2.500000
  8
0
 62
7
  6
CONTINUOUS
  0
VERTEX
 10
26.800000
 20
-0.500000
  8
0
 62
7
  6
CONTINUOUS
  0
VERTEX
 10
23.300000
 20
7.500000
  8
0
 62
7
  6
CONTINUOUS
  0
VERTEX
 10
21.700000
 20
7.500000
  8
0
 62
7
  6
CONTINUOUS
  0
VERTEX
 10
18.200000
 20
-0.500000
  8
0
 62
7
  6
CONTINUOUS
  0
VERTEX
 10
18.200000
 20
-2.500000
  8
0
 62
7
  6
CONTINUOUS
  0
VERTEX
 10
18.700000
 20
-2.500000
  8
0
 62
7
  6
CONTINUOUS
  0
VERTEX
 10
18.700000
 20
-2.800000
  8
0
 62
7
  6
CONTINUOUS
  0
VERTEX
 10
18.200000
 20
-2.800000
  8
0
 62
7
  6
CONTINUOUS
  0
VERTEX
 10
18.200000
 20
-4.000000
  8
0
 62
7
  6
CONTINUOUS
  0
VERTEX
 10
18.700000
 20
-4.000000
  8
0
 62
7
  6
CONTINUOUS
  0
SEQEND
  0
LINE
  8
0
 62
7
  6
CONTINUOUS
 10
26.800000
 20
-0.500000
 11
18.200000
 21
-0.500000
  0
LINE
  8
0
 62
7
  6
CONTINUOUS
 10
26.300000
 20
0.500000
 11
18.700000
 21
0.500000
  0
LINE
  8
0
 62
7
  6
CONTINUOUS
 10
25.900000
 20
1.500000
 11
19.100000
 21
1.500000
  0
LINE
  8
0
 62
7
  6
CONTINUOUS
 10
25.500000
 20
2.500000
 11
19.500000
 21
2.500000
  0
LINE
  8
0
 62
7
  6
CONTINUOUS
 10
25.000000
 20
3.500000
 11
20.000000
 21
3.500000
  0
LINE
  8
0
 62
7
  6
CONTINUOUS
 10
24.600000
 20
4.500000
 11
20.400000
 21
4.500000
  0
LINE
  8
0
 62
7
  6
CONTINUOUS
 10
24.200000
 20
5.500000
 11
20.800000
 21
5.500000
  0
LINE
  8
0
 62
7
  6
CONTINUOUS
 10
23.700000
 20
6.500000
 11
21.300000
 21
6.500000
  0
LINE
  8
0
 62
7
  6
CONTINUOUS
 10
26.800000
 20
-4.000000
 11
18.200000
 21
-4.000000
  0
LINE
  8
0
 62
7
  6
CONTINUOUS
 10
26.800000
 20
-2.800000
 11
18.200000
 21
-2.800000
  0
LINE
  8
0
 62
7
  6
CONTINUOUS
 10
26.800000
 20
-2.500000
 11
18.200000
 21
-2.500000
  0
LINE
  8
0
 62
7
  6
CONTINUOUS
 10
26.800000
 20
-1.500000
 11
18.200000
 21
-1.500000
  0
POLYLINE
  8
0
 62
7
  6
CONTINUOUS
 70
1
 66
1
  0
VERTEX
 10
48.700000
 20
-4.500000
  8
0
 62
7
  6
CONTINUOUS
  0
VERTEX
 10
56.300000
 20
-4.500000
  8
0
 62
7
  6
CONTINUOUS
  0
VERTEX
 10
56.300000
 20
-4.000000
  8
0
 62
7
  6
CONTINUOUS
  0
VERTEX
 10
56.800000
 20
-4.000000
  8
0
 62
7
  6
CONTINUOUS
  0
VERTEX
 10
56.800000
 20
-2.800000
  8
0
 62
7
  6
CONTINUOUS
  0
VERTEX
 10
56.300000
 20
-2.800000
  8
0
 62
7
  6
CONTINUOUS
  0
VERTEX
 10
56.300000
 20
-2.500000
  8
0
 62
7
  6
CONTINUOUS
  0
VERTEX
 10
56.800000
 20
-2.500000
  8
0
 62
7
  6
CONTINUOUS
  0
VERTEX
 10
56.800000
 20
-0.500000
  8
0
 62
7
  6
CONTINUOUS
  0
VERTEX
 10
53.300000
 20
7.500000
  8
0
 62
7
  6
CONTINUOUS
  0
VERTEX
 10
51.700000
 20
7.500000
  8
0
 62
7
  6
CONTINUOUS
  0
VERTEX
 10
48.200000
 20
-0.500000
  8
0
 62
7
  6
CONTINUOUS
  0
VERTEX
 10
48.200000
 20
-2.500000
  8
0
 62
7
  6
CONTINUOUS
  0
VERTEX
 10
48.700000
 20
-2.500000
  8
0
 62
7
  6
CONTINUOUS
  0
VERTEX
 10
48.700000
 20
-2.800000
  8
0
 62
7
  6
CONTINUOUS
  0
VERTEX
 10
48.200000
 20
-2.800000
  8
0
 62
7
  6
CONTINUOUS
  0
VERTEX
 10
48.200000
 20
-4.000000
  8
0
 62
7
  6
CONTINUOUS
  0
VERTEX
 10
48.700000
 20
-4.000000
  8
0
 62
7
  6
CONTINUOUS
  0
SEQEND
  0
LINE
  8
0
 62
7
  6
CONTINUOUS
 10
56.800000
 20
-0.500000
 11
48.200000
 21
-0.500000
  0
LINE
  8
0
 62
7
  6
CONTINUOUS
 10
56.300000
 20
0.500000
 11
48.700000
 21
0.500000
  0
LINE
  8
0
 62
7
  6
CONTINUOUS
 10
55.900000
 20
1.500000
 11
49.100000
 21
1.500000
  0
LINE
  8
0
 62
7
  6
CONTINUOUS
 10
55.500000
 20
2.500000
 11
49.500000
 21
2.500000
  0
LINE
  8
0
 62
7
  6
CONTINUOUS
 10
55.000000
 20
3.500000
 11
50.000000
 21
3.500000
  0
LINE
  8
0
 62
7
  6
CONTINUOUS
 10
54.600000
 20
4.500000
 11
50.400000
 21
4.500000
  0
LINE
  8
0
 62
7
  6
CONTINUOUS
 10
54.200000
 20
5.500000
 11
50.800000
 21
5.500000
  0
LINE
  8
0
 62
7
  6
CONTINUOUS
 10
53.700000
 20
6.500000
 11
51.300000
 21
6.500000
  0
LINE
  8
0
 62
7
  6
CONTINUOUS
 10
56.800000
 20
-4.000000
 11
48.200000
 21
-4.000000
  0
LINE
  8
0
 62
7
  6
CONTINUOUS
 10
56.800000
 20
-2.800000
 11
48.200000
 21
-2.800000
  0
LINE
  8
0
 62
7
  6
CONTINUOUS
 10
56.800000
 20
-2.500000
 11
48.200000
 21
-2.500000
  0
LINE
  8
0
 62
7
  6
CONTINUOUS
 10
56.800000
 20
-1.500000
 11
48.200000
 21
-1.500000
  0
POLYLINE
  8
0
 62
7
  6
CONTINUOUS
 70
1
 66
1
  0
VERTEX
 10
58.700000
 20
-4.500000
  8
0
 62
7
  6
CONTINUOUS
  0
VERTEX
 10
66.300000
 20
-4.500000
  8
0
 62
7
  6
CONTINUOUS
  0
VERTEX
 10
66.300000
 20
-4.000000
  8
0
 62
7
  6
CONTINUOUS
  0
VERTEX
 10
66.800000
 20
-4.000000
  8
0
 62
7
  6
CONTINUOUS
  0
VERTEX
 10
66.800000
 20
-2.800000
  8
0
 62
7
  6
CONTINUOUS
  0
VERTEX
 10
66.300000
 20
-2.800000
  8
0
 62
7
  6
CONTINUOUS
  0
VERTEX
 10
66.300000
 20
-2.500000
  8
0
 62
7
  6
CONTINUOUS
  0
VERTEX
 10
66.800000
 20
-2.500000
  8
0
 62
7
  6
CONTINUOUS
  0
VERTEX
 10
66.800000
 20
-0.500000
  8
0
 62
7
  6
CONTINUOUS
  0
VERTEX
 10
63.300000
 20
7.500000
  8
0
 62
7
  6
CONTINUOUS
  0
VERTEX
 10
61.700000
 20
7.500000
  8
0
 62
7
  6
CONTINUOUS
  0
VERTEX
 10
58.200000
 20
-0.500000
  8
0
 62
7
  6
CONTINUOUS
  0
VERTEX
 10
58.200000
 20
-2.500000
  8
0
 62
7
  6
CONTINUOUS
  0
VERTEX
 10
58.700000
 20
-2.500000
  8
0
 62
7
  6
CONTINUOUS
  0
VERTEX
 10
58.700000
 20
-2.800000
  8
0
 62
7
  6
CONTINUOUS
  0
VERTEX
 10
58.200000
 20
-2.800000
  8
0
 62
7
  6
CONTINUOUS
  0
VERTEX
 10
58.200000
 20
-4.000000
  8
0
 62
7
  6
CONTINUOUS
  0
VERTEX
 10
58.700000
 20
-4.000000
  8
0
 62
7
  6
CONTINUOUS
  0
SEQEND
  0
LINE
  8
0
 62
7
  6
CONTINUOUS
 10
66.800000
 20
-0.500000
 11
58.200000
 21
-0.500000
  0
LINE
  8
0
 62
7
  6
CONTINUOUS
 10
66.300000
 20
0.500000
 11
58.700000
 21
0.500000
  0
LINE
  8
0
 62
7
  6
CONTINUOUS
 10
65.900000
 20
1.500000
 11
59.100000
 21
1.500000
  0
LINE
  8
0
 62
7
  6
CONTINUOUS
 10
65.500000
 20
2.500000
 11
59.500000
 21
2.500000
  0
LINE
  8
0
 62
7
  6
CONTINUOUS
 10
65.000000
 20
3.500000
 11
60.000000
 21
3.500000
  0
LINE
  8
0
 62
7
  6
CONTINUOUS
 10
64.600000
 20
4.500000
 11
60.400000
 21
4.500000
  0
LINE
  8
0
 62
7
  6
CONTINUOUS
 10
64.200000
 20
5.500000
 11
60.800000
 21
5.500000
  0
LINE
  8
0
 62
7
  6
CONTINUOUS
 10
63.700000
 20
6.500000
 11
61.300000
 21
6.500000
  0
LINE
  8
0
 62
7
  6
CONTINUOUS
 10
66.800000
 20
-4.000000
 11
58.200000
 21
-4.000000
  0
LINE
  8
0
 62
7
  6
CONTINUOUS
 10
66.800000
 20
-2.800000
 11
58.200000
 21
-2.800000
  0
LINE
  8
0
 62
7
  6
CONTINUOUS
 10
66.800000
 20
-2.500000
 11
58.200000
 21
-2.500000
  0
LINE
  8
0
 62
7
  6
CONTINUOUS
 10
66.800000
 20
-1.500000
 11
58.200000
 21
-1.500000
  0
POLYLINE
  8
0
 62
7
  6
CONTINUOUS
 70
1
 66
1
  0
VERTEX
 10
-2.500000
 20
176.000000
  8
0
 62
7
  6
CONTINUOUS
  0
VERTEX
 10
-4.500000
 20
176.000000
  8
0
 62
7
  6
CONTINUOUS
  0
VERTEX
 10
-5.500000
 20
177.000000
  8
0
 62
7
  6
CONTINUOUS
  0
VERTEX
 10
-5.500000
 20
178.000000
  8
0
 62
7
  6
CONTINUOUS
  0
VERTEX
 10
-4.500000
 20
179.000000
  8
0
 62
7
  6
CONTINUOUS
  0
VERTEX
 10
-2.500000
 20
179.000000
  8
0
 62
7
  6
CONTINUOUS
  0
SEQEND
  0
POLYLINE
  8
0
 62
7
  6
CONTINUOUS
 70
1
 66
1
  0
VERTEX
 10
1.000000
 20
182.500000
  8
0
 62
7
  6
CONTINUOUS
  0
VERTEX
 10
1.000000
 20
184.500000
  8
0
 62
7
  6
CONTINUOUS
  0
VERTEX
 10
2.000000
 20
185.500000
  8
0
 62
7
  6
CONTINUOUS
  0
VERTEX
 10
3.000000
 20
185.500000
  8
0
 62
7
  6
CONTINUOUS
  0
VERTEX
 10
4.000000
 20
184.500000
  8
0
 62
7
  6
CONTINUOUS
  0
VERTEX
 10
4.000000
 20
182.500000
  8
0
 62
7
  6
CONTINUOUS
  0
SEQEND
  0
POLYLINE
  8
0
 62
7
  6
CONTINUOUS
 70
1
 66
1
  0
VERTEX
 10
71.000000
 20
182.500000
  8
0
 62
7
  6
CONTINUOUS
  0
VERTEX
 10
71.000000
 20
184.500000
  8
0
 62
7
  6
CONTINUOUS
  0
VERTEX
 10
72.000000
 20
185.500000
  8
0
 62
7
  6
CONTINUOUS
  0
VERTEX
 10
73.000000
 20
185.500000
  8
0
 62
7
  6
CONTINUOUS
  0
VERTEX
 10
74.000000
 20
184.500000
  8
0
 62
7
  6
CONTINUOUS
  0
VERTEX
 10
74.000000
 20
182.500000
  8
0
 62
7
  6
CONTINUOUS
  0
SEQEND
  0
POLYLINE
  8
0
 62
7
  6
CONTINUOUS
 70
1
 66
1
  0
VERTEX
 10
77.500000
 20
176.000000
  8
0
 62
7
  6
CONTINUOUS
  0
VERTEX
 10
79.500000
 20
176.000000
  8
0
 62
7
  6
CONTINUOUS
  0
VERTEX
 10
80.500000
 20
177.000000
  8
0
 62
7
  6
CONTINUOUS
  0
VERTEX
 10
80.500000
 20
178.000000
  8
0
 62
7
  6
CONTINUOUS
  0
VERTEX
 10
79.500000
 20
179.000000
  8
0
 62
7
  6
CONTINUOUS
  0
VERTEX
 10
77.500000
 20
179.000000
  8
0
 62
7
  6
CONTINUOUS
  0
SEQEND
  0
POLYLINE
  8
157
 62
7
  6
L014100020032000000
 70
1
 66
1
  0
VERTEX
 10
8.700000
 20
-4.500000
  8
157
 62
7
  6
L014100020032000000
  0
VERTEX
 10
16.300000
 20
-4.500000
  8
157
 62
7
  6
L014100020032000000
  0
VERTEX
 10
16.300000
 20
-4.000000
  8
157
 62
7
  6
L014100020032000000
  0
VERTEX
 10
16.800000
 20
-4.000000
  8
157
 62
7
  6
L014100020032000000
  0
VERTEX
 10
16.800000
 20
-2.800000
  8
157
 62
7
  6
L014100020032000000
  0
VERTEX
 10
16.300000
 20
-2.800000
  8
157
 62
7
  6
L014100020032000000
  0
VERTEX
 10
16.300000
 20
-2.500000
  8
157
 62
7
  6
L014100020032000000
  0
VERTEX
 10
16.800000
 20
-2.500000
  8
157
 62
7
  6
L014100020032000000
  0
VERTEX
 10
16.800000
 20
-0.500000
  8
157
 62
7
  6
L014100020032000000
  0
VERTEX
 10
13.300000
 20
7.500000
  8
157
 62
7
  6
L014100020032000000
  0
VERTEX
 10
11.700000
 20
7.500000
  8
157
 62
7
  6
L014100020032000000
  0
VERTEX
 10
8.200000
 20
-0.500000
  8
157
 62
7
  6
L014100020032000000
  0
VERTEX
 10
8.200000
 20
-2.500000
  8
157
 62
7
  6
L014100020032000000
  0
VERTEX
 10
8.700000
 20
-2.500000
  8
157
 62
7
  6
L014100020032000000
  0
VERTEX
 10
8.700000
 20
-2.800000
  8
157
 62
7
  6
L014100020032000000
  0
VERTEX
 10
8.200000
 20
-2.800000
  8
157
 62
7
  6
L014100020032000000
  0
VERTEX
 10
8.200000
 20
-4.000000
  8
157
 62
7
  6
L014100020032000000
  0
VERTEX
 10
8.700000
 20
-4.000000
  8
157
 62
7
  6
L014100020032000000
  0
SEQEND
  0
LINE
  8
157
 62
7
  6
L014100020032000000
 10
16.800000
 20
-0.500000
 11
8.200000
 21
-0.500000
  0
LINE
  8
157
 62
7
  6
L014100020032000000
 10
16.300000
 20
0.500000
 11
8.700000
 21
0.500000
  0
LINE
  8
157
 62
7
  6
L014100020032000000
 10
15.900000
 20
1.500000
 11
9.100000
 21
1.500000
  0
LINE
  8
157
 62
7
  6
L014100020032000000
 10
15.500000
 20
2.500000
 11
9.500000
 21
2.500000
  0
LINE
  8
157
 62
7
  6
L014100020032000000
 10
15.000000
 20
3.500000
 11
10.000000
 21
3.500000
  0
LINE
  8
157
 62
7
  6
L014100020032000000
 10
14.600000
 20
4.500000
 11
10.400000
 21
4.500000
  0
LINE
  8
157
 62
7
  6
L014100020032000000
 10
14.200000
 20
5.500000
 11
10.800000
 21
5.500000
  0
LINE
  8
157
 62
7
  6
L014100020032000000
 10
13.700000
 20
6.500000
 11
11.300000
 21
6.500000
  0
LINE
  8
157
 62
7
  6
L014100020032000000
 10
16.800000
 20
-4.000000
 11
8.200000
 21
-4.000000
  0
LINE
  8
157
 62
7
  6
L014100020032000000
 10
16.800000
 20
-2.800000
 11
8.200000
 21
-2.800000
  0
LINE
  8
157
 62
7
  6
L014100020032000000
 10
16.800000
 20
-2.500000
 11
8.200000
 21
-2.500000
  0
LINE
  8
157
 62
7
  6
L014100020032000000
 10
16.800000
 20
-1.500000
 11
8.200000
 21
-1.500000
  0
POLYLINE
  8
157
 62
7
  6
L014100020032000000
 70
1
 66
1
  0
VERTEX
 10
18.700000
 20
-4.500000
  8
157
 62
7
  6
L014100020032000000
  0
VERTEX
 10
26.300000
 20
-4.500000
  8
157
 62
7
  6
L014100020032000000
  0
VERTEX
 10
26.300000
 20
-4.000000
  8
157
 62
7
  6
L014100020032000000
  0
VERTEX
 10
26.800000
 20
-4.000000
  8
157
 62
7
  6
L014100020032000000
  0
VERTEX
 10
26.800000
 20
-2.800000
  8
157
 62
7
  6
L014100020032000000
  0
VERTEX
 10
26.300000
 20
-2.800000
  8
157
 62
7
  6
L014100020032000000
  0
VERTEX
 10
26.300000
 20
-2.500000
  8
157
 62
7
  6
L014100020032000000
  0
VERTEX
 10
26.800000
 20
-2.500000
  8
157
 62
7
  6
L014100020032000000
  0
VERTEX
 10
26.800000
 20
-0.500000
  8
157
 62
7
  6
L014100020032000000
  0
VERTEX
 10
23.300000
 20
7.500000
  8
157
 62
7
  6
L014100020032000000
  0
VERTEX
 10
21.700000
 20
7.500000
  8
157
 62
7
  6
L014100020032000000
  0
VERTEX
 10
18.200000
 20
-0.500000
  8
157
 62
7
  6
L014100020032000000
  0
VERTEX
 10
18.200000
 20
-2.500000
  8
157
 62
7
  6
L014100020032000000
  0
VERTEX
 10
18.700000
 20
-2.500000
  8
157
 62
7
  6
L014100020032000000
  0
VERTEX
 10
18.700000
 20
-2.800000
  8
157
 62
7
  6
L014100020032000000
  0
VERTEX
 10
18.200000
 20
-2.800000
  8
157
 62
7
  6
L014100020032000000
  0
VERTEX
 10
18.200000
 20
-4.000000
  8
157
 62
7
  6
L014100020032000000
  0
VERTEX
 10
18.700000
 20
-4.000000
  8
157
 62
7
  6
L014100020032000000
  0
SEQEND
  0
LINE
  8
157
 62
7
  6
L014100020032000000
 10
26.800000
 20
-0.500000
 11
18.200000
 21
-0.500000
  0
LINE
  8
157
 62
7
  6
L014100020032000000
 10
26.300000
 20
0.500000
 11
18.700000
 21
0.500000
  0
LINE
  8
157
 62
7
  6
L014100020032000000
 10
25.900000
 20
1.500000
 11
19.100000
 21
1.500000
  0
LINE
  8
157
 62
7
  6
L014100020032000000
 10
25.500000
 20
2.500000
 11
19.500000
 21
2.500000
  0
LINE
  8
157
 62
7
  6
L014100020032000000
 10
25.000000
 20
3.500000
 11
20.000000
 21
3.500000
  0
LINE
  8
157
 62
7
  6
L014100020032000000
 10
24.600000
 20
4.500000
 11
20.400000
 21
4.500000
  0
LINE
  8
157
 62
7
  6
L014100020032000000
 10
24.200000
 20
5.500000
 11
20.800000
 21
5.500000
  0
LINE
  8
157
 62
7
  6
L014100020032000000
 10
23.700000
 20
6.500000
 11
21.300000
 21
6.500000
  0
LINE
  8
157
 62
7
  6
L014100020032000000
 10
26.800000
 20
-4.000000
 11
18.200000
 21
-4.000000
  0
LINE
  8
157
 62
7
  6
L014100020032000000
 10
26.800000
 20
-2.800000
 11
18.200000
 21
-2.800000
  0
LINE
  8
157
 62
7
  6
L014100020032000000
 10
26.800000
 20
-2.500000
 11
18.200000
 21
-2.500000
  0
LINE
  8
157
 62
7
  6
L014100020032000000
 10
26.800000
 20
-1.500000
 11
18.200000
 21
-1.500000
  0
POLYLINE
  8
157
 62
7
  6
L014100020032000000
 70
1
 66
1
  0
VERTEX
 10
48.700000
 20
-4.500000
  8
157
 62
7
  6
L014100020032000000
  0
VERTEX
 10
56.300000
 20
-4.500000
  8
157
 62
7
  6
L014100020032000000
  0
VERTEX
 10
56.300000
 20
-4.000000
  8
157
 62
7
  6
L014100020032000000
  0
VERTEX
 10
56.800000
 20
-4.000000
  8
157
 62
7
  6
L014100020032000000
  0
VERTEX
 10
56.800000
 20
-2.800000
  8
157
 62
7
  6
L014100020032000000
  0
VERTEX
 10
56.300000
 20
-2.800000
  8
157
 62
7
  6
L014100020032000000
  0
VERTEX
 10
56.300000
 20
-2.500000
  8
157
 62
7
  6
L014100020032000000
  0
VERTEX
 10
56.800000
 20
-2.500000
  8
157
 62
7
  6
L014100020032000000
  0
VERTEX
 10
56.800000
 20
-0.500000
  8
157
 62
7
  6
L014100020032000000
  0
VERTEX
 10
53.300000
 20
7.500000
  8
157
 62
7
  6
L014100020032000000
  0
VERTEX
 10
51.700000
 20
7.500000
  8
157
 62
7
  6
L014100020032000000
  0
VERTEX
 10
48.200000
 20
-0.500000
  8
157
 62
7
  6
L014100020032000000
  0
VERTEX
 10
48.200000
 20
-2.500000
  8
157
 62
7
  6
L014100020032000000
  0
VERTEX
 10
48.700000
 20
-2.500000
  8
157
 62
7
  6
L014100020032000000
  0
VERTEX
 10
48.700000
 20
-2.800000
  8
157
 62
7
  6
L014100020032000000
  0
VERTEX
 10
48.200000
 20
-2.800000
  8
157
 62
7
  6
L014100020032000000
  0
VERTEX
 10
48.200000
 20
-4.000000
  8
157
 62
7
  6
L014100020032000000
  0
VERTEX
 10
48.700000
 20
-4.000000
  8
157
 62
7
  6
L014100020032000000
  0
SEQEND
  0
LINE
  8
157
 62
7
  6
L014100020032000000
 10
56.800000
 20
-0.500000
 11
48.200000
 21
-0.500000
  0
LINE
  8
157
 62
7
  6
L014100020032000000
 10
56.300000
 20
0.500000
 11
48.700000
 21
0.500000
  0
LINE
  8
157
 62
7
  6
L014100020032000000
 10
55.900000
 20
1.500000
 11
49.100000
 21
1.500000
  0
LINE
  8
157
 62
7
  6
L014100020032000000
 10
55.500000
 20
2.500000
 11
49.500000
 21
2.500000
  0
LINE
  8
157
 62
7
  6
L014100020032000000
 10
55.000000
 20
3.500000
 11
50.000000
 21
3.500000
  0
LINE
  8
157
 62
7
  6
L014100020032000000
 10
54.600000
 20
4.500000
 11
50.400000
 21
4.500000
  0
LINE
  8
157
 62
7
  6
L014100020032000000
 10
54.200000
 20
5.500000
 11
50.800000
 21
5.500000
  0
LINE
  8
157
 62
7
  6
L014100020032000000
 10
53.700000
 20
6.500000
 11
51.300000
 21
6.500000
  0
LINE
  8
157
 62
7
  6
L014100020032000000
 10
56.800000
 20
-4.000000
 11
48.200000
 21
-4.000000
  0
LINE
  8
157
 62
7
  6
L014100020032000000
 10
56.800000
 20
-2.800000
 11
48.200000
 21
-2.800000
  0
LINE
  8
157
 62
7
  6
L014100020032000000
 10
56.800000
 20
-2.500000
 11
48.200000
 21
-2.500000
  0
LINE
  8
157
 62
7
  6
L014100020032000000
 10
56.800000
 20
-1.500000
 11
48.200000
 21
-1.500000
  0
POLYLINE
  8
157
 62
7
  6
L014100020032000000
 70
1
 66
1
  0
VERTEX
 10
58.700000
 20
-4.500000
  8
157
 62
7
  6
L014100020032000000
  0
VERTEX
 10
66.300000
 20
-4.500000
  8
157
 62
7
  6
L014100020032000000
  0
VERTEX
 10
66.300000
 20
-4.000000
  8
157
 62
7
  6
L014100020032000000
  0
VERTEX
 10
66.800000
 20
-4.000000
  8
157
 62
7
  6
L014100020032000000
  0
VERTEX
 10
66.800000
 20
-2.800000
  8
157
 62
7
  6
L014100020032000000
  0
VERTEX
 10
66.300000
 20
-2.800000
  8
157
 62
7
  6
L014100020032000000
  0
VERTEX
 10
66.300000
 20
-2.500000
  8
157
 62
7
  6
L014100020032000000
  0
VERTEX
 10
66.800000
 20
-2.500000
  8
157
 62
7
  6
L014100020032000000
  0
VERTEX
 10
66.800000
 20
-0.500000
  8
157
 62
7
  6
L014100020032000000
  0
VERTEX
 10
63.300000
 20
7.500000
  8
157
 62
7
  6
L014100020032000000
  0
VERTEX
 10
61.700000
 20
7.500000
  8
157
 62
7
  6
L014100020032000000
  0
VERTEX
 10
58.200000
 20
-0.500000
  8
157
 62
7
  6
L014100020032000000
  0
VERTEX
 10
58.200000
 20
-2.500000
  8
157
 62
7
  6
L014100020032000000
  0
VERTEX
 10
58.700000
 20
-2.500000
  8
157
 62
7
  6
L014100020032000000
  0
VERTEX
 10
58.700000
 20
-2.800000
  8
157
 62
7
  6
L014100020032000000
  0
VERTEX
 10
58.200000
 20
-2.800000
  8
157
 62
7
  6
L014100020032000000
  0
VERTEX
 10
58.200000
 20
-4.000000
  8
157
 62
7
  6
L014100020032000000
  0
VERTEX
 10
58.700000
 20
-4.000000
  8
157
 62
7
  6
L014100020032000000
  0
SEQEND
  0
LINE
  8
157
 62
7
  6
L014100020032000000
 10
66.800000
 20
-0.500000
 11
58.200000
 21
-0.500000
  0
LINE
  8
157
 62
7
  6
L014100020032000000
 10
66.300000
 20
0.500000
 11
58.700000
 21
0.500000
  0
LINE
  8
157
 62
7
  6
L014100020032000000
 10
65.900000
 20
1.500000
 11
59.100000
 21
1.500000
  0
LINE
  8
157
 62
7
  6
L014100020032000000
 10
65.500000
 20
2.500000
 11
59.500000
 21
2.500000
  0
LINE
  8
157
 62
7
  6
L014100020032000000
 10
65.000000
 20
3.500000
 11
60.000000
 21
3.500000
  0
LINE
  8
157
 62
7
  6
L014100020032000000
 10
64.600000
 20
4.500000
 11
60.400000
 21
4.500000
  0
LINE
  8
157
 62
7
  6
L014100020032000000
 10
64.200000
 20
5.500000
 11
60.800000
 21
5.500000
  0
LINE
  8
157
 62
7
  6
L014100020032000000
 10
63.700000
 20
6.500000
 11
61.300000
 21
6.500000
  0
LINE
  8
157
 62
7
  6
L014100020032000000
 10
66.800000
 20
-4.000000
 11
58.200000
 21
-4.000000
  0
LINE
  8
157
 62
7
  6
L014100020032000000
 10
66.800000
 20
-2.800000
 11
58.200000
 21
-2.800000
  0
LINE
  8
157
 62
7
  6
L014100020032000000
 10
66.800000
 20
-2.500000
 11
58.200000
 21
-2.500000
  0
LINE
  8
157
 62
7
  6
L014100020032000000
 10
66.800000
 20
-1.500000
 11
58.200000
 21
-1.500000
  0
ENDBLK
  0
BLOCK
  8
0
  2
tzw310
 70
 0
 10
0.0
 20
0.0
 30
0.0
  0
SOLID
  8
0
 62
255
  6
CONTINUOUS
 10
77.500000
 20
-12.500000
 11
77.500000
 21
-2.700000
 12
-2.500000
 22
-12.500000
 13
-2.500000
 23
-2.700000
  0
POLYLINE
  8
0
 62
7
  6
CONTINUOUS
 70
1
 66
1
  0
VERTEX
 10
77.500000
 20
-12.500000
 30
0.000000
  8
0
 62
7
  6
CONTINUOUS
  0
VERTEX
 10
77.500000
 20
-2.700000
 30
0.000000
  8
0
 62
7
  6
CONTINUOUS
  0
VERTEX
 10
-2.500000
 20
-2.700000
 30
0.000000
  8
0
 62
7
  6
CONTINUOUS
  0
VERTEX
 10
-2.500000
 20
-12.500000
 30
0.000000
  8
0
 62
7
  6
CONTINUOUS
  0
SEQEND
  0
CIRCLE
  8
0
 62
7
  6
CONTINUOUS
 10
73.800000
 20
-10.000000
 30
0.0
 40
0.600000
  0
CIRCLE
  8
0
 62
7
  6
CONTINUOUS
 10
73.800000
 20
-5.000000
 30
0.0
 40
0.600000
  0
POLYLINE
  8
0
 62
7
  6
CONTINUOUS
 70
0
 66
1
  0
VERTEX
 10
0.300000
 20
-3.100000
  8
0
 62
7
  6
CONTINUOUS
  0
VERTEX
 10
0.300000
 20
-2.800000
  8
0
 62
7
  6
CONTINUOUS
  0
VERTEX
 10
-2.400000
 20
-2.800000
  8
0
 62
7
  6
CONTINUOUS
  0
VERTEX
 10
-2.400000
 20
-12.400000
  8
0
 62
7
  6
CONTINUOUS
  0
VERTEX
 10
0.300000
 20
-12.400000
  8
0
 62
7
  6
CONTINUOUS
  0
VERTEX
 10
0.300000
 20
-12.100000
  8
0
 62
7
  6
CONTINUOUS
  0
SEQEND
  0
POLYLINE
  8
0
 62
7
  6
CONTINUOUS
 70
0
 66
1
  0
VERTEX
 10
74.700000
 20
-3.100000
  8
0
 62
7
  6
CONTINUOUS
  0
VERTEX
 10
74.700000
 20
-2.800000
  8
0
 62
7
  6
CONTINUOUS
  0
VERTEX
 10
77.400000
 20
-2.800000
  8
0
 62
7
  6
CONTINUOUS
  0
VERTEX
 10
77.400000
 20
-12.400000
  8
0
 62
7
  6
CONTINUOUS
  0
VERTEX
 10
74.700000
 20
-12.400000
  8
0
 62
7
  6
CONTINUOUS
  0
VERTEX
 10
74.700000
 20
-12.100000
  8
0
 62
7
  6
CONTINUOUS
  0
SEQEND
  0
CIRCLE
  8
0
 62
7
  6
CONTINUOUS
 10
1.200000
 20
-5.000000
 30
0.0
 40
0.600000
  0
CIRCLE
  8
0
 62
7
  6
CONTINUOUS
 10
1.200000
 20
-10.000000
 30
0.0
 40
0.600000
  0
ENDBLK
  0
BLOCK
  8
1
  2
ks4276
 70
 0
 10
0.0
 20
0.0
 30
0.0
  0
SOLID
  8
1
 62
255
  6
CONTINUOUS
 10
75.000000
 20
100.000000
 11
75.000000
 21
0.000000
 12
40.000000
 22
100.000000
 13
40.000000
 23
0.000000
  0
POLYLINE
  8
1
 62
7
  6
CONTINUOUS
 70
1
 66
1
  0
VERTEX
 10
75.000000
 20
100.000000
 30
0.000000
  8
1
 62
7
  6
CONTINUOUS
  0
VERTEX
 10
75.000000
 20
0.000000
 30
0.000000
  8
1
 62
7
  6
CONTINUOUS
  0
VERTEX
 10
40.000000
 20
0.000000
 30
0.000000
  8
1
 62
7
  6
CONTINUOUS
  0
VERTEX
 10
40.000000
 20
100.000000
 30
0.000000
  8
1
 62
7
  6
CONTINUOUS
  0
SEQEND
  0
SOLID
  8
1
 62
255
  6
CONTINUOUS
 10
35.000000
 20
100.000000
 11
35.000000
 21
0.000000
 12
0.000000
 22
100.000000
 13
0.000000
 23
0.000000
  0
POLYLINE
  8
1
 62
7
  6
CONTINUOUS
 70
1
 66
1
  0
VERTEX
 10
35.000000
 20
100.000000
 30
0.000000
  8
1
 62
7
  6
CONTINUOUS
  0
VERTEX
 10
35.000000
 20
0.000000
 30
0.000000
  8
1
 62
7
  6
CONTINUOUS
  0
VERTEX
 10
0.000000
 20
0.000000
 30
0.000000
  8
1
 62
7
  6
CONTINUOUS
  0
VERTEX
 10
0.000000
 20
100.000000
 30
0.000000
  8
1
 62
7
  6
CONTINUOUS
  0
SEQEND
  0
LINE
  8
1
 62
7
  6
CONTINUOUS
 10
34.000000
 20
12.100000
 11
34.000000
 21
12.600000
  0
LINE
  8
1
 62
7
  6
CONTINUOUS
 10
33.600000
 20
13.800000
 11
34.500000
 21
13.800000
  0
CIRCLE
  8
1
 62
7
  6
CONTINUOUS
 10
34.000000
 20
13.800000
 30
0.0
 40
0.700000
  0
LINE
  8
1
 62
7
  6
CONTINUOUS
 10
34.000000
 20
15.500000
 11
34.000000
 21
15.000000
  0
LINE
  8
1
 62
7
  6
L000000000000000000
 10
71.000000
 20
77.800000
 11
71.000000
 21
77.800000
  0
LINE
  8
1
 62
7
  6
L000000000000000000
 10
71.000000
 20
12.800000
 11
71.000000
 21
12.800000
  0
CIRCLE
  8
1
 62
7
  6
CONTINUOUS
 10
5.000000
 20
83.500000
 30
0.0
 40
0.400000
  0
CIRCLE
  8
1
 62
7
  6
CONTINUOUS
 10
5.000000
 20
16.500000
 30
0.0
 40
0.400000
  0
CIRCLE
  8
1
 62
7
  6
CONTINUOUS
 10
31.000000
 20
16.500000
 30
0.0
 40
0.400000
  0
CIRCLE
  8
1
 62
7
  6
CONTINUOUS
 10
44.000000
 20
16.500000
 30
0.0
 40
0.400000
  0
CIRCLE
  8
1
 62
7
  6
CONTINUOUS
 10
70.000000
 20
16.500000
 30
0.0
 40
0.400000
  0
CIRCLE
  8
1
 62
7
  6
CONTINUOUS
 10
70.000000
 20
83.500000
 30
0.0
 40
0.400000
  0
CIRCLE
  8
1
 62
7
  6
CONTINUOUS
 10
44.000000
 20
83.500000
 30
0.0
 40
0.400000
  0
CIRCLE
  8
1
 62
7
  6
CONTINUOUS
 10
31.000000
 20
83.500000
 30
0.0
 40
0.400000
  0
POLYLINE
  8
1
 62
7
  6
CONTINUOUS
 70
0
 66
1
  0
VERTEX
 10
33.000000
 20
82.000000
  8
1
 62
7
  6
CONTINUOUS
  0
VERTEX
 10
17.500000
 20
82.000000
  8
1
 62
7
  6
CONTINUOUS
  0
VERTEX
 10
17.500000
 20
74.000000
  8
1
 62
7
  6
CONTINUOUS
  0
SEQEND
  0
TEXT
  8
1
 62
7
  6
CONTINUOUS
 10
49.000000
 20
43.833333
 40
2.000000
  1
Cu 30x10
 50
0.000000
 51
0.000000
 72
1
 73
0
 11
49.000000
 21
43.833333
  0
CIRCLE
  8
1
 62
7
  6
CONTINUOUS
 10
57.500000
 20
32.500000
 30
0.0
 40
0.600000
  0
CIRCLE
  8
1
 62
7
  6
CONTINUOUS
 10
17.500000
 20
32.500000
 30
0.0
 40
0.600000
  0
CIRCLE
  8
1
 62
7
  6
CONTINUOUS
 10
9.500000
 20
32.500000
 30
0.0
 40
0.600000
  0
CIRCLE
  8
1
 62
7
  6
CONTINUOUS
 10
65.500000
 20
32.500000
 30
0.0
 40
0.600000
  0
POLYLINE
  8
1
 62
7
  6
CONTINUOUS
 70
1
 66
1
  0
VERTEX
 10
70.000000
 20
22.500000
 30
0.000000
  8
1
 62
7
  6
CONTINUOUS
  0
VERTEX
 10
70.000000
 20
20.500000
 30
0.000000
  8
1
 62
7
  6
CONTINUOUS
  0
VERTEX
 10
69.000000
 20
20.500000
 30
0.000000
  8
1
 62
7
  6
CONTINUOUS
  0
VERTEX
 10
69.000000
 20
22.500000
 30
0.000000
  8
1
 62
7
  6
CONTINUOUS
  0
SEQEND
  0
POLYLINE
  8
1
 62
7
  6
CONTINUOUS
 70
1
 66
1
  0
VERTEX
 10
70.000000
 20
19.500000
 30
0.000000
  8
1
 62
7
  6
CONTINUOUS
  0
VERTEX
 10
70.000000
 20
17.500000
 30
0.000000
  8
1
 62
7
  6
CONTINUOUS
  0
VERTEX
 10
69.000000
 20
17.500000
 30
0.000000
  8
1
 62
7
  6
CONTINUOUS
  0
VERTEX
 10
69.000000
 20
19.500000
 30
0.000000
  8
1
 62
7
  6
CONTINUOUS
  0
SEQEND
  0
POLYLINE
  8
1
 62
7
  6
CONTINUOUS
 70
1
 66
1
  0
VERTEX
 10
6.000000
 20
22.500000
 30
0.000000
  8
1
 62
7
  6
CONTINUOUS
  0
VERTEX
 10
6.000000
 20
20.500000
 30
0.000000
  8
1
 62
7
  6
CONTINUOUS
  0
VERTEX
 10
5.000000
 20
20.500000
 30
0.000000
  8
1
 62
7
  6
CONTINUOUS
  0
VERTEX
 10
5.000000
 20
22.500000
 30
0.000000
  8
1
 62
7
  6
CONTINUOUS
  0
SEQEND
  0
POLYLINE
  8
1
 62
7
  6
CONTINUOUS
 70
1
 66
1
  0
VERTEX
 10
6.000000
 20
19.500000
 30
0.000000
  8
1
 62
7
  6
CONTINUOUS
  0
VERTEX
 10
6.000000
 20
17.500000
 30
0.000000
  8
1
 62
7
  6
CONTINUOUS
  0
VERTEX
 10
5.000000
 20
17.500000
 30
0.000000
  8
1
 62
7
  6
CONTINUOUS
  0
VERTEX
 10
5.000000
 20
19.500000
 30
0.000000
  8
1
 62
7
  6
CONTINUOUS
  0
SEQEND
  0
POLYLINE
  8
1
 62
7
  6
CONTINUOUS
 70
1
 66
1
  0
VERTEX
 10
31.000000
 20
19.500000
 30
0.000000
  8
1
 62
7
  6
CONTINUOUS
  0
VERTEX
 10
31.000000
 20
17.500000
 30
0.000000
  8
1
 62
7
  6
CONTINUOUS
  0
VERTEX
 10
30.000000
 20
17.500000
 30
0.000000
  8
1
 62
7
  6
CONTINUOUS
  0
VERTEX
 10
30.000000
 20
19.500000
 30
0.000000
  8
1
 62
7
  6
CONTINUOUS
  0
SEQEND
  0
POLYLINE
  8
1
 62
7
  6
CONTINUOUS
 70
1
 66
1
  0
VERTEX
 10
31.000000
 20
22.500000
 30
0.000000
  8
1
 62
7
  6
CONTINUOUS
  0
VERTEX
 10
31.000000
 20
20.500000
 30
0.000000
  8
1
 62
7
  6
CONTINUOUS
  0
VERTEX
 10
30.000000
 20
20.500000
 30
0.000000
  8
1
 62
7
  6
CONTINUOUS
  0
VERTEX
 10
30.000000
 20
22.500000
 30
0.000000
  8
1
 62
7
  6
CONTINUOUS
  0
SEQEND
  0
POLYLINE
  8
1
 62
7
  6
CONTINUOUS
 70
1
 66
1
  0
VERTEX
 10
45.000000
 20
19.500000
 30
0.000000
  8
1
 62
7
  6
CONTINUOUS
  0
VERTEX
 10
45.000000
 20
17.500000
 30
0.000000
  8
1
 62
7
  6
CONTINUOUS
  0
VERTEX
 10
44.000000
 20
17.500000
 30
0.000000
  8
1
 62
7
  6
CONTINUOUS
  0
VERTEX
 10
44.000000
 20
19.500000
 30
0.000000
  8
1
 62
7
  6
CONTINUOUS
  0
SEQEND
  0
POLYLINE
  8
1
 62
7
  6
CONTINUOUS
 70
1
 66
1
  0
VERTEX
 10
45.000000
 20
22.500000
 30
0.000000
  8
1
 62
7
  6
CONTINUOUS
  0
VERTEX
 10
45.000000
 20
20.500000
 30
0.000000
  8
1
 62
7
  6
CONTINUOUS
  0
VERTEX
 10
44.000000
 20
20.500000
 30
0.000000
  8
1
 62
7
  6
CONTINUOUS
  0
VERTEX
 10
44.000000
 20
22.500000
 30
0.000000
  8
1
 62
7
  6
CONTINUOUS
  0
SEQEND
  0
TEXT
  8
1
 62
7
  6
CONTINUOUS
 10
18.000000
 20
22.000000
 40
1.500000
  1
Abfangschiene
 50
0.000000
 51
0.000000
 72
1
 73
0
 11
18.000000
 21
22.000000
  0
TEXT
  8
1
 62
7
  6
CONTINUOUS
 10
57.000000
 20
22.000000
 40
1.500000
  1
Abfangschiene
 50
0.000000
 51
0.000000
 72
1
 73
0
 11
57.000000
 21
22.000000
  0
POLYLINE
  8
1
 62
7
  6
L014100020032000000
 70
0
 66
1
  0
VERTEX
 10
24.000000
 20
16.500000
  8
1
 62
7
  6
L014100020032000000
  0
VERTEX
 10
12.000000
 20
16.500000
  8
1
 62
7
  6
L014100020032000000
  0
SEQEND
  0
POLYLINE
  8
1
 62
7
  6
L014100020032000000
 70
0
 66
1
  0
VERTEX
 10
12.000000
 20
17.500000
  8
1
 62
7
  6
L014100020032000000
  0
VERTEX
 10
24.000000
 20
17.500000
  8
1
 62
7
  6
L014100020032000000
  0
SEQEND
  0
POLYLINE
  8
1
 62
7
  6
L014100020032000000
 70
0
 66
1
  0
VERTEX
 10
24.000000
 20
19.500000
  8
1
 62
7
  6
L014100020032000000
  0
VERTEX
 10
12.000000
 20
19.500000
  8
1
 62
7
  6
L014100020032000000
  0
SEQEND
  0
POLYLINE
  8
1
 62
7
  6
L014100020032000000
 70
0
 66
1
  0
VERTEX
 10
12.000000
 20
20.500000
  8
1
 62
7
  6
L014100020032000000
  0
VERTEX
 10
24.000000
 20
20.500000
  8
1
 62
7
  6
L014100020032000000
  0
SEQEND
  0
POLYLINE
  8
1
 62
7
  6
L014100020032000000
 70
0
 66
1
  0
VERTEX
 10
51.000000
 20
16.500000
  8
1
 62
7
  6
L014100020032000000
  0
VERTEX
 10
63.000000
 20
16.500000
  8
1
 62
7
  6
L014100020032000000
  0
SEQEND
  0
POLYLINE
  8
1
 62
7
  6
L014100020032000000
 70
0
 66
1
  0
VERTEX
 10
63.000000
 20
17.500000
  8
1
 62
7
  6
L014100020032000000
  0
VERTEX
 10
51.000000
 20
17.500000
  8
1
 62
7
  6
L014100020032000000
  0
SEQEND
  0
POLYLINE
  8
1
 62
7
  6
L014100020032000000
 70
0
 66
1
  0
VERTEX
 10
51.000000
 20
19.500000
  8
1
 62
7
  6
L014100020032000000
  0
VERTEX
 10
63.000000
 20
19.500000
  8
1
 62
7
  6
L014100020032000000
  0
SEQEND
  0
POLYLINE
  8
1
 62
7
  6
L014100020032000000
 70
0
 66
1
  0
VERTEX
 10
63.000000
 20
20.500000
  8
1
 62
7
  6
L014100020032000000
  0
VERTEX
 10
51.000000
 20
20.500000
  8
1
 62
7
  6
L014100020032000000
  0
SEQEND
  0
LINE
  8
1
 62
7
  6
CONTINUOUS
 10
1.000000
 20
12.100000
 11
1.000000
 21
12.600000
  0
LINE
  8
1
 62
7
  6
CONTINUOUS
 10
1.000000
 20
15.500000
 11
1.000000
 21
15.000000
  0
LINE
  8
1
 62
7
  6
CONTINUOUS
 10
1.400000
 20
13.800000
 11
0.500000
 21
13.800000
  0
CIRCLE
  8
1
 62
7
  6
CONTINUOUS
 10
1.000000
 20
13.800000
 30
0.0
 40
0.700000
  0
LINE
  8
1
 62
7
  6
CONTINUOUS
 10
34.000000
 20
12.100000
 11
34.000000
 21
12.600000
  0
LINE
  8
1
 62
7
  6
CONTINUOUS
 10
34.000000
 20
15.500000
 11
34.000000
 21
15.000000
  0
LINE
  8
1
 62
7
  6
CONTINUOUS
 10
33.600000
 20
13.800000
 11
34.500000
 21
13.800000
  0
CIRCLE
  8
1
 62
7
  6
CONTINUOUS
 10
34.000000
 20
13.800000
 30
0.0
 40
0.700000
  0
LINE
  8
1
 62
7
  6
CONTINUOUS
 10
41.000000
 20
12.100000
 11
41.000000
 21
12.600000
  0
LINE
  8
1
 62
7
  6
CONTINUOUS
 10
41.000000
 20
15.500000
 11
41.000000
 21
15.000000
  0
LINE
  8
1
 62
7
  6
CONTINUOUS
 10
41.400000
 20
13.800000
 11
40.500000
 21
13.800000
  0
CIRCLE
  8
1
 62
7
  6
CONTINUOUS
 10
41.000000
 20
13.800000
 30
0.0
 40
0.700000
  0
LINE
  8
1
 62
7
  6
CONTINUOUS
 10
74.000000
 20
12.100000
 11
74.000000
 21
12.600000
  0
LINE
  8
1
 62
7
  6
CONTINUOUS
 10
74.000000
 20
15.500000
 11
74.000000
 21
15.000000
  0
LINE
  8
1
 62
7
  6
CONTINUOUS
 10
73.600000
 20
13.800000
 11
74.500000
 21
13.800000
  0
CIRCLE
  8
1
 62
7
  6
CONTINUOUS
 10
74.000000
 20
13.800000
 30
0.0
 40
0.700000
  0
LINE
  8
1
 62
7
  6
CONTINUOUS
 10
1.000000
 20
87.400000
 11
1.000000
 21
86.900000
  0
LINE
  8
1
 62
7
  6
CONTINUOUS
 10
1.000000
 20
84.000000
 11
1.000000
 21
84.500000
  0
LINE
  8
1
 62
7
  6
CONTINUOUS
 10
1.400000
 20
85.700000
 11
0.500000
 21
85.700000
  0
CIRCLE
  8
1
 62
7
  6
CONTINUOUS
 10
1.000000
 20
85.700000
 30
0.0
 40
0.700000
  0
LINE
  8
1
 62
7
  6
CONTINUOUS
 10
41.000000
 20
87.400000
 11
41.000000
 21
86.900000
  0
LINE
  8
1
 62
7
  6
CONTINUOUS
 10
41.000000
 20
84.000000
 11
41.000000
 21
84.500000
  0
LINE
  8
1
 62
7
  6
CONTINUOUS
 10
41.400000
 20
85.700000
 11
40.500000
 21
85.700000
  0
CIRCLE
  8
1
 62
7
  6
CONTINUOUS
 10
41.000000
 20
85.700000
 30
0.0
 40
0.700000
  0
LINE
  8
1
 62
7
  6
CONTINUOUS
 10
34.000000
 20
87.400000
 11
34.000000
 21
86.900000
  0
LINE
  8
1
 62
7
  6
CONTINUOUS
 10
34.000000
 20
84.000000
 11
34.000000
 21
84.500000
  0
LINE
  8
1
 62
7
  6
CONTINUOUS
 10
33.600000
 20
85.700000
 11
34.500000
 21
85.700000
  0
CIRCLE
  8
1
 62
7
  6
CONTINUOUS
 10
34.000000
 20
85.700000
 30
0.0
 40
0.700000
  0
LINE
  8
1
 62
7
  6
CONTINUOUS
 10
74.000000
 20
87.400000
 11
74.000000
 21
86.900000
  0
LINE
  8
1
 62
7
  6
CONTINUOUS
 10
74.000000
 20
84.000000
 11
74.000000
 21
84.500000
  0
LINE
  8
1
 62
7
  6
CONTINUOUS
 10
73.600000
 20
85.700000
 11
74.500000
 21
85.700000
  0
CIRCLE
  8
1
 62
7
  6
CONTINUOUS
 10
74.000000
 20
85.700000
 30
0.0
 40
0.700000
  0
LINE
  8
1
 62
7
  6
L000000000000000000
 10
71.000000
 20
49.800000
 11
71.000000
 21
49.800000
  0
LINE
  8
1
 62
7
  6
CONTINUOUS
 10
1.000000
 20
51.900000
 11
1.000000
 21
51.400000
  0
LINE
  8
1
 62
7
  6
CONTINUOUS
 10
1.000000
 20
48.500000
 11
1.000000
 21
49.000000
  0
LINE
  8
1
 62
7
  6
CONTINUOUS
 10
1.400000
 20
50.200000
 11
0.500000
 21
50.200000
  0
CIRCLE
  8
1
 62
7
  6
CONTINUOUS
 10
1.000000
 20
50.200000
 30
0.0
 40
0.700000
  0
LINE
  8
1
 62
7
  6
CONTINUOUS
 10
41.000000
 20
51.900000
 11
41.000000
 21
51.400000
  0
LINE
  8
1
 62
7
  6
CONTINUOUS
 10
41.000000
 20
48.500000
 11
41.000000
 21
49.000000
  0
LINE
  8
1
 62
7
  6
CONTINUOUS
 10
41.400000
 20
50.200000
 11
40.500000
 21
50.200000
  0
CIRCLE
  8
1
 62
7
  6
CONTINUOUS
 10
41.000000
 20
50.200000
 30
0.0
 40
0.700000
  0
LINE
  8
1
 62
7
  6
CONTINUOUS
 10
34.000000
 20
51.900000
 11
34.000000
 21
51.400000
  0
LINE
  8
1
 62
7
  6
CONTINUOUS
 10
34.000000
 20
48.500000
 11
34.000000
 21
49.000000
  0
LINE
  8
1
 62
7
  6
CONTINUOUS
 10
33.600000
 20
50.200000
 11
34.500000
 21
50.200000
  0
CIRCLE
  8
1
 62
7
  6
CONTINUOUS
 10
34.000000
 20
50.200000
 30
0.0
 40
0.700000
  0
LINE
  8
1
 62
7
  6
CONTINUOUS
 10
74.000000
 20
51.900000
 11
74.000000
 21
51.400000
  0
LINE
  8
1
 62
7
  6
CONTINUOUS
 10
74.000000
 20
48.500000
 11
74.000000
 21
49.000000
  0
LINE
  8
1
 62
7
  6
CONTINUOUS
 10
73.600000
 20
50.200000
 11
74.500000
 21
50.200000
  0
CIRCLE
  8
1
 62
7
  6
CONTINUOUS
 10
74.000000
 20
50.200000
 30
0.0
 40
0.700000
  0
POLYLINE
  8
1
 62
7
  6
CONTINUOUS
 70
0
 66
1
  0
VERTEX
 10
52.800000
 20
72.100000
  8
1
 62
7
  6
CONTINUOUS
  0
VERTEX
 10
52.800000
 20
77.100000
  8
1
 62
7
  6
CONTINUOUS
  0
VERTEX
 10
67.100000
 20
77.100000
  8
1
 62
7
  6
CONTINUOUS
  0
VERTEX
 10
67.100000
 20
72.100000
  8
1
 62
7
  6
CONTINUOUS
  0
SEQEND
  0
POLYLINE
  8
1
 62
7
  6
CONTINUOUS
 70
0
 66
1
  0
VERTEX
 10
62.500000
 20
72.100000
  8
1
 62
7
  6
CONTINUOUS
  0
VERTEX
 10
62.500000
 20
82.000000
  8
1
 62
7
  6
CONTINUOUS
  0
VERTEX
 10
32.800000
 20
82.000000
  8
1
 62
7
  6
CONTINUOUS
  0
SEQEND
  0
POLYLINE
  8
1
 62
7
  6
CONTINUOUS
 70
0
 66
1
  0
VERTEX
 10
17.500000
 20
58.100000
  8
1
 62
7
  6
CONTINUOUS
  0
VERTEX
 10
17.500000
 20
45.200000
  8
1
 62
7
  6
CONTINUOUS
  0
SEQEND
  0
CIRCLE
  8
1
 62
7
  6
CONTINUOUS
 10
49.500000
 20
32.500000
 30
0.0
 40
0.600000
  0
CIRCLE
  8
1
 62
7
  6
CONTINUOUS
 10
25.500000
 20
32.500000
 30
0.0
 40
0.600000
  0
POLYLINE
  8
1
 62
7
  6
CONTINUOUS
 70
0
 66
1
  0
VERTEX
 10
6.500000
 20
58.000000
  8
1
 62
7
  6
CONTINUOUS
  0
VERTEX
 10
6.500000
 20
53.000000
  8
1
 62
7
  6
CONTINUOUS
  0
VERTEX
 10
28.500000
 20
53.000000
  8
1
 62
7
  6
CONTINUOUS
  0
VERTEX
 10
28.500000
 20
58.000000
  8
1
 62
7
  6
CONTINUOUS
  0
SEQEND
  0
POLYLINE
  8
1
 62
7
  6
CONTINUOUS
 70
0
 66
1
  0
VERTEX
 10
6.500000
 20
73.600000
  8
1
 62
7
  6
CONTINUOUS
  0
VERTEX
 10
6.500000
 20
79.600000
  8
1
 62
7
  6
CONTINUOUS
  0
VERTEX
 10
28.500000
 20
79.600000
  8
1
 62
7
  6
CONTINUOUS
  0
VERTEX
 10
28.500000
 20
73.600000
  8
1
 62
7
  6
CONTINUOUS
  0
SEQEND
  0
CIRCLE
  8
1
 62
7
  6
CONTINUOUS
 10
6.500000
 20
72.500000
 30
0.0
 40
1.800000
  0
CIRCLE
  8
1
 62
7
  6
CONTINUOUS
 10
17.500000
 20
72.500000
 30
0.0
 40
1.800000
  0
CIRCLE
  8
1
 62
7
  6
CONTINUOUS
 10
28.500000
 20
72.500000
 30
0.0
 40
1.800000
  0
CIRCLE
  8
1
 62
7
  6
CONTINUOUS
 10
6.500000
 20
59.500000
 30
0.0
 40
1.800000
  0
CIRCLE
  8
1
 62
7
  6
CONTINUOUS
 10
17.500000
 20
59.500000
 30
0.0
 40
1.800000
  0
CIRCLE
  8
1
 62
7
  6
CONTINUOUS
 10
28.500000
 20
59.500000
 30
0.0
 40
1.800000
  0
SOLID
  8
29
 62
255
  6
CONTINUOUS
 10
35.000000
 20
100.000000
 11
35.000000
 21
0.000000
 12
0.000000
 22
100.000000
 13
0.000000
 23
0.000000
  0
POLYLINE
  8
29
 62
7
  6
CONTINUOUS
 70
1
 66
1
  0
VERTEX
 10
35.000000
 20
100.000000
 30
0.000000
  8
29
 62
7
  6
CONTINUOUS
  0
VERTEX
 10
35.000000
 20
0.000000
 30
0.000000
  8
29
 62
7
  6
CONTINUOUS
  0
VERTEX
 10
0.000000
 20
0.000000
 30
0.000000
  8
29
 62
7
  6
CONTINUOUS
  0
VERTEX
 10
0.000000
 20
100.000000
 30
0.000000
  8
29
 62
7
  6
CONTINUOUS
  0
SEQEND
  0
CIRCLE
  8
29
 62
7
  6
CONTINUOUS
 10
17.500000
 20
72.500000
 30
0.0
 40
1.800000
  0
CIRCLE
  8
29
 62
7
  6
CONTINUOUS
 10
28.500000
 20
72.500000
 30
0.0
 40
1.800000
  0
CIRCLE
  8
29
 62
7
  6
CONTINUOUS
 10
6.500000
 20
72.500000
 30
0.0
 40
1.800000
  0
CIRCLE
  8
29
 62
7
  6
CONTINUOUS
 10
17.500000
 20
59.500000
 30
0.0
 40
1.800000
  0
SOLID
  8
29
 62
255
  6
CONTINUOUS
 10
75.000000
 20
100.000000
 11
75.000000
 21
0.000000
 12
40.000000
 22
100.000000
 13
40.000000
 23
0.000000
  0
POLYLINE
  8
29
 62
7
  6
CONTINUOUS
 70
1
 66
1
  0
VERTEX
 10
75.000000
 20
100.000000
 30
0.000000
  8
29
 62
7
  6
CONTINUOUS
  0
VERTEX
 10
75.000000
 20
0.000000
 30
0.000000
  8
29
 62
7
  6
CONTINUOUS
  0
VERTEX
 10
40.000000
 20
0.000000
 30
0.000000
  8
29
 62
7
  6
CONTINUOUS
  0
VERTEX
 10
40.000000
 20
100.000000
 30
0.000000
  8
29
 62
7
  6
CONTINUOUS
  0
SEQEND
  0
CIRCLE
  8
29
 62
7
  6
CONTINUOUS
 10
5.000000
 20
83.500000
 30
0.0
 40
0.400000
  0
CIRCLE
  8
29
 62
7
  6
CONTINUOUS
 10
5.000000
 20
16.500000
 30
0.0
 40
0.400000
  0
CIRCLE
  8
29
 62
7
  6
CONTINUOUS
 10
31.000000
 20
16.500000
 30
0.0
 40
0.400000
  0
CIRCLE
  8
29
 62
7
  6
CONTINUOUS
 10
31.000000
 20
83.500000
 30
0.0
 40
0.400000
  0
POLYLINE
  8
29
 62
7
  6
CONTINUOUS
 70
0
 66
1
  0
VERTEX
 10
6.500000
 20
58.000000
  8
29
 62
7
  6
CONTINUOUS
  0
VERTEX
 10
6.500000
 20
53.000000
  8
29
 62
7
  6
CONTINUOUS
  0
VERTEX
 10
28.500000
 20
53.000000
  8
29
 62
7
  6
CONTINUOUS
  0
VERTEX
 10
28.500000
 20
58.000000
  8
29
 62
7
  6
CONTINUOUS
  0
SEQEND
  0
POLYLINE
  8
29
 62
7
  6
CONTINUOUS
 70
0
 66
1
  0
VERTEX
 10
33.000000
 20
82.000000
  8
29
 62
7
  6
CONTINUOUS
  0
VERTEX
 10
17.500000
 20
82.000000
  8
29
 62
7
  6
CONTINUOUS
  0
VERTEX
 10
17.500000
 20
73.600000
  8
29
 62
7
  6
CONTINUOUS
  0
SEQEND
  0
POLYLINE
  8
29
 62
7
  6
CONTINUOUS
 70
0
 66
1
  0
VERTEX
 10
6.500000
 20
73.600000
  8
29
 62
7
  6
CONTINUOUS
  0
VERTEX
 10
6.500000
 20
79.600000
  8
29
 62
7
  6
CONTINUOUS
  0
VERTEX
 10
28.500000
 20
79.600000
  8
29
 62
7
  6
CONTINUOUS
  0
VERTEX
 10
28.500000
 20
73.600000
  8
29
 62
7
  6
CONTINUOUS
  0
SEQEND
  0
POLYLINE
  8
29
 62
7
  6
CONTINUOUS
 70
0
 66
1
  0
VERTEX
 10
17.500000
 20
58.100000
  8
29
 62
7
  6
CONTINUOUS
  0
VERTEX
 10
17.500000
 20
45.200000
  8
29
 62
7
  6
CONTINUOUS
  0
SEQEND
  0
CIRCLE
  8
29
 62
7
  6
CONTINUOUS
 10
17.500000
 20
32.500000
 30
0.0
 40
0.600000
  0
CIRCLE
  8
29
 62
7
  6
CONTINUOUS
 10
9.500000
 20
32.500000
 30
0.0
 40
0.600000
  0
POLYLINE
  8
29
 62
7
  6
CONTINUOUS
 70
1
 66
1
  0
VERTEX
 10
6.000000
 20
22.500000
 30
0.000000
  8
29
 62
7
  6
CONTINUOUS
  0
VERTEX
 10
6.000000
 20
20.500000
 30
0.000000
  8
29
 62
7
  6
CONTINUOUS
  0
VERTEX
 10
5.000000
 20
20.500000
 30
0.000000
  8
29
 62
7
  6
CONTINUOUS
  0
VERTEX
 10
5.000000
 20
22.500000
 30
0.000000
  8
29
 62
7
  6
CONTINUOUS
  0
SEQEND
  0
POLYLINE
  8
29
 62
7
  6
CONTINUOUS
 70
1
 66
1
  0
VERTEX
 10
6.000000
 20
19.500000
 30
0.000000
  8
29
 62
7
  6
CONTINUOUS
  0
VERTEX
 10
6.000000
 20
17.500000
 30
0.000000
  8
29
 62
7
  6
CONTINUOUS
  0
VERTEX
 10
5.000000
 20
17.500000
 30
0.000000
  8
29
 62
7
  6
CONTINUOUS
  0
VERTEX
 10
5.000000
 20
19.500000
 30
0.000000
  8
29
 62
7
  6
CONTINUOUS
  0
SEQEND
  0
POLYLINE
  8
29
 62
7
  6
CONTINUOUS
 70
1
 66
1
  0
VERTEX
 10
31.000000
 20
19.500000
 30
0.000000
  8
29
 62
7
  6
CONTINUOUS
  0
VERTEX
 10
31.000000
 20
17.500000
 30
0.000000
  8
29
 62
7
  6
CONTINUOUS
  0
VERTEX
 10
30.000000
 20
17.500000
 30
0.000000
  8
29
 62
7
  6
CONTINUOUS
  0
VERTEX
 10
30.000000
 20
19.500000
 30
0.000000
  8
29
 62
7
  6
CONTINUOUS
  0
SEQEND
  0
POLYLINE
  8
29
 62
7
  6
CONTINUOUS
 70
1
 66
1
  0
VERTEX
 10
31.000000
 20
22.500000
 30
0.000000
  8
29
 62
7
  6
CONTINUOUS
  0
VERTEX
 10
31.000000
 20
20.500000
 30
0.000000
  8
29
 62
7
  6
CONTINUOUS
  0
VERTEX
 10
30.000000
 20
20.500000
 30
0.000000
  8
29
 62
7
  6
CONTINUOUS
  0
VERTEX
 10
30.000000
 20
22.500000
 30
0.000000
  8
29
 62
7
  6
CONTINUOUS
  0
SEQEND
  0
TEXT
  8
29
 62
7
  6
CONTINUOUS
 10
18.000000
 20
22.000000
 40
1.500000
  1
Abfangschiene
 50
0.000000
 51
0.000000
 72
1
 73
0
 11
18.000000
 21
22.000000
  0
POLYLINE
  8
29
 62
7
  6
CONTINUOUS
 70
0
 66
1
  0
VERTEX
 10
24.000000
 20
16.500000
  8
29
 62
7
  6
CONTINUOUS
  0
VERTEX
 10
12.000000
 20
16.500000
  8
29
 62
7
  6
CONTINUOUS
  0
SEQEND
  0
POLYLINE
  8
29
 62
7
  6
CONTINUOUS
 70
0
 66
1
  0
VERTEX
 10
12.000000
 20
17.500000
  8
29
 62
7
  6
CONTINUOUS
  0
VERTEX
 10
24.000000
 20
17.500000
  8
29
 62
7
  6
CONTINUOUS
  0
SEQEND
  0
POLYLINE
  8
29
 62
7
  6
CONTINUOUS
 70
0
 66
1
  0
VERTEX
 10
24.000000
 20
19.500000
  8
29
 62
7
  6
CONTINUOUS
  0
VERTEX
 10
12.000000
 20
19.500000
  8
29
 62
7
  6
CONTINUOUS
  0
SEQEND
  0
POLYLINE
  8
29
 62
7
  6
CONTINUOUS
 70
0
 66
1
  0
VERTEX
 10
12.000000
 20
20.500000
  8
29
 62
7
  6
CONTINUOUS
  0
VERTEX
 10
24.000000
 20
20.500000
  8
29
 62
7
  6
CONTINUOUS
  0
SEQEND
  0
POLYLINE
  8
29
 62
7
  6
CONTINUOUS
 70
0
 66
1
  0
VERTEX
 10
62.700000
 20
72.100000
  8
29
 62
7
  6
CONTINUOUS
  0
VERTEX
 10
62.700000
 20
82.000000
  8
29
 62
7
  6
CONTINUOUS
  0
VERTEX
 10
32.800000
 20
82.000000
  8
29
 62
7
  6
CONTINUOUS
  0
SEQEND
  0
TEXT
  8
29
 62
7
  6
CONTINUOUS
 10
49.000000
 20
43.833333
 40
2.000000
  1
Cu 30x10
 50
0.000000
 51
0.000000
 72
1
 73
0
 11
49.000000
 21
43.833333
  0
CIRCLE
  8
29
 62
7
  6
CONTINUOUS
 10
57.500000
 20
32.500000
 30
0.0
 40
0.600000
  0
LINE
  8
29
 62
7
  6
L000000000000000000
 10
71.000000
 20
87.800000
 11
71.000000
 21
87.800000
  0
LINE
  8
29
 62
7
  6
L000000000000000000
 10
71.000000
 20
12.800000
 11
71.000000
 21
12.800000
  0
CIRCLE
  8
29
 62
7
  6
CONTINUOUS
 10
44.000000
 20
16.500000
 30
0.0
 40
0.400000
  0
CIRCLE
  8
29
 62
7
  6
CONTINUOUS
 10
70.000000
 20
16.500000
 30
0.0
 40
0.400000
  0
CIRCLE
  8
29
 62
7
  6
CONTINUOUS
 10
70.000000
 20
83.500000
 30
0.0
 40
0.400000
  0
CIRCLE
  8
29
 62
7
  6
CONTINUOUS
 10
44.000000
 20
83.500000
 30
0.0
 40
0.400000
  0
POLYLINE
  8
29
 62
7
  6
CONTINUOUS
 70
0
 66
1
  0
VERTEX
 10
52.700000
 20
72.100000
  8
29
 62
7
  6
CONTINUOUS
  0
VERTEX
 10
52.700000
 20
77.100000
  8
29
 62
7
  6
CONTINUOUS
  0
VERTEX
 10
67.000000
 20
77.100000
  8
29
 62
7
  6
CONTINUOUS
  0
VERTEX
 10
67.000000
 20
72.100000
  8
29
 62
7
  6
CONTINUOUS
  0
SEQEND
  0
CIRCLE
  8
29
 62
7
  6
CONTINUOUS
 10
65.500000
 20
32.500000
 30
0.0
 40
0.600000
  0
POLYLINE
  8
29
 62
7
  6
CONTINUOUS
 70
1
 66
1
  0
VERTEX
 10
70.000000
 20
22.500000
 30
0.000000
  8
29
 62
7
  6
CONTINUOUS
  0
VERTEX
 10
70.000000
 20
20.500000
 30
0.000000
  8
29
 62
7
  6
CONTINUOUS
  0
VERTEX
 10
69.000000
 20
20.500000
 30
0.000000
  8
29
 62
7
  6
CONTINUOUS
  0
VERTEX
 10
69.000000
 20
22.500000
 30
0.000000
  8
29
 62
7
  6
CONTINUOUS
  0
SEQEND
  0
POLYLINE
  8
29
 62
7
  6
CONTINUOUS
 70
1
 66
1
  0
VERTEX
 10
70.000000
 20
19.500000
 30
0.000000
  8
29
 62
7
  6
CONTINUOUS
  0
VERTEX
 10
70.000000
 20
17.500000
 30
0.000000
  8
29
 62
7
  6
CONTINUOUS
  0
VERTEX
 10
69.000000
 20
17.500000
 30
0.000000
  8
29
 62
7
  6
CONTINUOUS
  0
VERTEX
 10
69.000000
 20
19.500000
 30
0.000000
  8
29
 62
7
  6
CONTINUOUS
  0
SEQEND
  0
POLYLINE
  8
29
 62
7
  6
CONTINUOUS
 70
1
 66
1
  0
VERTEX
 10
45.000000
 20
19.500000
 30
0.000000
  8
29
 62
7
  6
CONTINUOUS
  0
VERTEX
 10
45.000000
 20
17.500000
 30
0.000000
  8
29
 62
7
  6
CONTINUOUS
  0
VERTEX
 10
44.000000
 20
17.500000
 30
0.000000
  8
29
 62
7
  6
CONTINUOUS
  0
VERTEX
 10
44.000000
 20
19.500000
 30
0.000000
  8
29
 62
7
  6
CONTINUOUS
  0
SEQEND
  0
POLYLINE
  8
29
 62
7
  6
CONTINUOUS
 70
1
 66
1
  0
VERTEX
 10
45.000000
 20
22.500000
 30
0.000000
  8
29
 62
7
  6
CONTINUOUS
  0
VERTEX
 10
45.000000
 20
20.500000
 30
0.000000
  8
29
 62
7
  6
CONTINUOUS
  0
VERTEX
 10
44.000000
 20
20.500000
 30
0.000000
  8
29
 62
7
  6
CONTINUOUS
  0
VERTEX
 10
44.000000
 20
22.500000
 30
0.000000
  8
29
 62
7
  6
CONTINUOUS
  0
SEQEND
  0
TEXT
  8
29
 62
7
  6
CONTINUOUS
 10
57.000000
 20
22.000000
 40
1.500000
  1
Abfangschiene
 50
0.000000
 51
0.000000
 72
1
 73
0
 11
57.000000
 21
22.000000
  0
POLYLINE
  8
29
 62
7
  6
CONTINUOUS
 70
0
 66
1
  0
VERTEX
 10
51.000000
 20
16.500000
  8
29
 62
7
  6
CONTINUOUS
  0
VERTEX
 10
63.000000
 20
16.500000
  8
29
 62
7
  6
CONTINUOUS
  0
SEQEND
  0
POLYLINE
  8
29
 62
7
  6
CONTINUOUS
 70
0
 66
1
  0
VERTEX
 10
63.000000
 20
17.500000
  8
29
 62
7
  6
CONTINUOUS
  0
VERTEX
 10
51.000000
 20
17.500000
  8
29
 62
7
  6
CONTINUOUS
  0
SEQEND
  0
POLYLINE
  8
29
 62
7
  6
CONTINUOUS
 70
0
 66
1
  0
VERTEX
 10
51.000000
 20
19.500000
  8
29
 62
7
  6
CONTINUOUS
  0
VERTEX
 10
63.000000
 20
19.500000
  8
29
 62
7
  6
CONTINUOUS
  0
SEQEND
  0
POLYLINE
  8
29
 62
7
  6
CONTINUOUS
 70
0
 66
1
  0
VERTEX
 10
63.000000
 20
20.500000
  8
29
 62
7
  6
CONTINUOUS
  0
VERTEX
 10
51.000000
 20
20.500000
  8
29
 62
7
  6
CONTINUOUS
  0
SEQEND
  0
TEXT
  8
29
 62
7
  6
CONTINUOUS
 10
10.000000
 20
48.833333
 40
2.000000
  1
Zugang
 50
0.000000
 51
0.000000
 72
1
 73
0
 11
10.000000
 21
48.833333
  0
CIRCLE
  8
29
 62
7
  6
CONTINUOUS
 10
49.500000
 20
32.500000
 30
0.0
 40
0.600000
  0
CIRCLE
  8
29
 62
7
  6
CONTINUOUS
 10
25.500000
 20
32.500000
 30
0.0
 40
0.600000
  0
CIRCLE
  8
29
 62
7
  6
CONTINUOUS
 10
28.500000
 20
59.500000
 30
0.0
 40
1.800000
  0
CIRCLE
  8
29
 62
7
  6
CONTINUOUS
 10
6.500000
 20
59.500000
 30
0.0
 40
1.800000
  0
SOLID
  8
56
 62
255
  6
CONTINUOUS
 10
35.000000
 20
34.500000
 11
35.000000
 21
37.500000
 12
27.000000
 22
34.500000
 13
27.000000
 23
37.500000
  0
POLYLINE
  8
56
 62
7
  6
CONTINUOUS
 70
1
 66
1
  0
VERTEX
 10
35.000000
 20
34.500000
 30
0.000000
  8
56
 62
7
  6
CONTINUOUS
  0
VERTEX
 10
35.000000
 20
37.500000
 30
0.000000
  8
56
 62
7
  6
CONTINUOUS
  0
VERTEX
 10
27.000000
 20
37.500000
 30
0.000000
  8
56
 62
7
  6
CONTINUOUS
  0
VERTEX
 10
27.000000
 20
34.500000
 30
0.000000
  8
56
 62
7
  6
CONTINUOUS
  0
SEQEND
  0
SOLID
  8
56
 62
255
  6
CONTINUOUS
 10
35.000000
 20
39.500000
 11
35.000000
 21
42.500000
 12
26.000000
 22
39.500000
 13
26.000000
 23
42.500000
  0
POLYLINE
  8
56
 62
7
  6
CONTINUOUS
 70
1
 66
1
  0
VERTEX
 10
35.000000
 20
39.500000
 30
0.000000
  8
56
 62
7
  6
CONTINUOUS
  0
VERTEX
 10
35.000000
 20
42.500000
 30
0.000000
  8
56
 62
7
  6
CONTINUOUS
  0
VERTEX
 10
26.000000
 20
42.500000
 30
0.000000
  8
56
 62
7
  6
CONTINUOUS
  0
VERTEX
 10
26.000000
 20
39.500000
 30
0.000000
  8
56
 62
7
  6
CONTINUOUS
  0
SEQEND
  0
SOLID
  8
56
 62
255
  6
CONTINUOUS
 10
49.000000
 20
39.500000
 11
49.000000
 21
42.500000
 12
40.000000
 22
39.500000
 13
40.000000
 23
42.500000
  0
POLYLINE
  8
56
 62
7
  6
CONTINUOUS
 70
1
 66
1
  0
VERTEX
 10
49.000000
 20
39.500000
 30
0.000000
  8
56
 62
7
  6
CONTINUOUS
  0
VERTEX
 10
49.000000
 20
42.500000
 30
0.000000
  8
56
 62
7
  6
CONTINUOUS
  0
VERTEX
 10
40.000000
 20
42.500000
 30
0.000000
  8
56
 62
7
  6
CONTINUOUS
  0
VERTEX
 10
40.000000
 20
39.500000
 30
0.000000
  8
56
 62
7
  6
CONTINUOUS
  0
SEQEND
  0
SOLID
  8
56
 62
255
  6
CONTINUOUS
 10
49.000000
 20
34.500000
 11
49.000000
 21
37.500000
 12
40.000000
 22
34.500000
 13
40.000000
 23
37.500000
  0
POLYLINE
  8
56
 62
7
  6
CONTINUOUS
 70
1
 66
1
  0
VERTEX
 10
49.000000
 20
34.500000
 30
0.000000
  8
56
 62
7
  6
CONTINUOUS
  0
VERTEX
 10
49.000000
 20
37.500000
 30
0.000000
  8
56
 62
7
  6
CONTINUOUS
  0
VERTEX
 10
40.000000
 20
37.500000
 30
0.000000
  8
56
 62
7
  6
CONTINUOUS
  0
VERTEX
 10
40.000000
 20
34.500000
 30
0.000000
  8
56
 62
7
  6
CONTINUOUS
  0
SEQEND
  0
SOLID
  8
57
 62
255
  6
L014100020032000000
 10
35.000000
 20
34.500000
 11
35.000000
 21
37.500000
 12
27.000000
 22
34.500000
 13
27.000000
 23
37.500000
  0
POLYLINE
  8
57
 62
7
  6
L014100020032000000
 70
1
 66
1
  0
VERTEX
 10
35.000000
 20
34.500000
 30
0.000000
  8
57
 62
7
  6
L014100020032000000
  0
VERTEX
 10
35.000000
 20
37.500000
 30
0.000000
  8
57
 62
7
  6
L014100020032000000
  0
VERTEX
 10
27.000000
 20
37.500000
 30
0.000000
  8
57
 62
7
  6
L014100020032000000
  0
VERTEX
 10
27.000000
 20
34.500000
 30
0.000000
  8
57
 62
7
  6
L014100020032000000
  0
SEQEND
  0
SOLID
  8
57
 62
255
  6
L014100020032000000
 10
35.000000
 20
39.500000
 11
35.000000
 21
42.500000
 12
26.000000
 22
39.500000
 13
26.000000
 23
42.500000
  0
POLYLINE
  8
57
 62
7
  6
L014100020032000000
 70
1
 66
1
  0
VERTEX
 10
35.000000
 20
39.500000
 30
0.000000
  8
57
 62
7
  6
L014100020032000000
  0
VERTEX
 10
35.000000
 20
42.500000
 30
0.000000
  8
57
 62
7
  6
L014100020032000000
  0
VERTEX
 10
26.000000
 20
42.500000
 30
0.000000
  8
57
 62
7
  6
L014100020032000000
  0
VERTEX
 10
26.000000
 20
39.500000
 30
0.000000
  8
57
 62
7
  6
L014100020032000000
  0
SEQEND
  0
SOLID
  8
57
 62
255
  6
L014100020032000000
 10
49.000000
 20
39.500000
 11
49.000000
 21
42.500000
 12
40.000000
 22
39.500000
 13
40.000000
 23
42.500000
  0
POLYLINE
  8
57
 62
7
  6
L014100020032000000
 70
1
 66
1
  0
VERTEX
 10
49.000000
 20
39.500000
 30
0.000000
  8
57
 62
7
  6
L014100020032000000
  0
VERTEX
 10
49.000000
 20
42.500000
 30
0.000000
  8
57
 62
7
  6
L014100020032000000
  0
VERTEX
 10
40.000000
 20
42.500000
 30
0.000000
  8
57
 62
7
  6
L014100020032000000
  0
VERTEX
 10
40.000000
 20
39.500000
 30
0.000000
  8
57
 62
7
  6
L014100020032000000
  0
SEQEND
  0
SOLID
  8
57
 62
255
  6
L014100020032000000
 10
49.000000
 20
34.500000
 11
49.000000
 21
37.500000
 12
40.000000
 22
34.500000
 13
40.000000
 23
37.500000
  0
POLYLINE
  8
57
 62
7
  6
L014100020032000000
 70
1
 66
1
  0
VERTEX
 10
49.000000
 20
34.500000
 30
0.000000
  8
57
 62
7
  6
L014100020032000000
  0
VERTEX
 10
49.000000
 20
37.500000
 30
0.000000
  8
57
 62
7
  6
L014100020032000000
  0
VERTEX
 10
40.000000
 20
37.500000
 30
0.000000
  8
57
 62
7
  6
L014100020032000000
  0
VERTEX
 10
40.000000
 20
34.500000
 30
0.000000
  8
57
 62
7
  6
L014100020032000000
  0
SEQEND
  0
SOLID
  8
60
 62
7
  6
CONTINUOUS
 10
35.000000
 20
39.500000
 11
35.000000
 21
42.500000
 12
26.000000
 22
39.500000
 13
26.000000
 23
42.500000
  0
POLYLINE
  8
60
 62
7
  6
CONTINUOUS
 70
1
 66
1
  0
VERTEX
 10
35.000000
 20
39.500000
 30
0.000000
  8
60
 62
7
  6
CONTINUOUS
  0
VERTEX
 10
35.000000
 20
42.500000
 30
0.000000
  8
60
 62
7
  6
CONTINUOUS
  0
VERTEX
 10
26.000000
 20
42.500000
 30
0.000000
  8
60
 62
7
  6
CONTINUOUS
  0
VERTEX
 10
26.000000
 20
39.500000
 30
0.000000
  8
60
 62
7
  6
CONTINUOUS
  0
SEQEND
  0
SOLID
  8
60
 62
7
  6
CONTINUOUS
 10
49.000000
 20
39.500000
 11
49.000000
 21
42.500000
 12
40.000000
 22
39.500000
 13
40.000000
 23
42.500000
  0
POLYLINE
  8
60
 62
7
  6
CONTINUOUS
 70
1
 66
1
  0
VERTEX
 10
49.000000
 20
39.500000
 30
0.000000
  8
60
 62
7
  6
CONTINUOUS
  0
VERTEX
 10
49.000000
 20
42.500000
 30
0.000000
  8
60
 62
7
  6
CONTINUOUS
  0
VERTEX
 10
40.000000
 20
42.500000
 30
0.000000
  8
60
 62
7
  6
CONTINUOUS
  0
VERTEX
 10
40.000000
 20
39.500000
 30
0.000000
  8
60
 62
7
  6
CONTINUOUS
  0
SEQEND
  0
SOLID
  8
60
 62
7
  6
CONTINUOUS
 10
49.000000
 20
34.500000
 11
49.000000
 21
37.500000
 12
40.000000
 22
34.500000
 13
40.000000
 23
37.500000
  0
POLYLINE
  8
60
 62
7
  6
CONTINUOUS
 70
1
 66
1
  0
VERTEX
 10
49.000000
 20
34.500000
 30
0.000000
  8
60
 62
7
  6
CONTINUOUS
  0
VERTEX
 10
49.000000
 20
37.500000
 30
0.000000
  8
60
 62
7
  6
CONTINUOUS
  0
VERTEX
 10
40.000000
 20
37.500000
 30
0.000000
  8
60
 62
7
  6
CONTINUOUS
  0
VERTEX
 10
40.000000
 20
34.500000
 30
0.000000
  8
60
 62
7
  6
CONTINUOUS
  0
SEQEND
  0
SOLID
  8
60
 62
7
  6
CONTINUOUS
 10
35.000000
 20
34.500000
 11
35.000000
 21
37.500000
 12
26.000000
 22
34.500000
 13
26.000000
 23
37.500000
  0
POLYLINE
  8
60
 62
7
  6
CONTINUOUS
 70
1
 66
1
  0
VERTEX
 10
35.000000
 20
34.500000
 30
0.000000
  8
60
 62
7
  6
CONTINUOUS
  0
VERTEX
 10
35.000000
 20
37.500000
 30
0.000000
  8
60
 62
7
  6
CONTINUOUS
  0
VERTEX
 10
26.000000
 20
37.500000
 30
0.000000
  8
60
 62
7
  6
CONTINUOUS
  0
VERTEX
 10
26.000000
 20
34.500000
 30
0.000000
  8
60
 62
7
  6
CONTINUOUS
  0
SEQEND
  0
CIRCLE
  8
60
 62
255
  6
L000000020000FFFFFF
 10
47.000000
 20
41.000000
 30
0.0
 40
1.500000
  0
CIRCLE
  8
60
 62
255
  6
L000000020000FFFFFF
 10
28.000000
 20
41.000000
 30
0.0
 40
1.500000
  0
CIRCLE
  8
60
 62
255
  6
L000000020000FFFFFF
 10
34.500000
 20
41.000000
 30
0.0
 40
0.700000
  0
CIRCLE
  8
60
 62
255
  6
L000000020000FFFFFF
 10
34.500000
 20
36.000000
 30
0.0
 40
0.700000
  0
CIRCLE
  8
60
 62
255
  6
L000000020000FFFFFF
 10
47.000000
 20
41.000000
 30
0.0
 40
0.700000
  0
CIRCLE
  8
60
 62
255
  6
L000000020000FFFFFF
 10
28.000000
 20
41.000000
 30
0.0
 40
0.700000
  0
CIRCLE
  8
60
 62
255
  6
L000000020000FFFFFF
 10
31.500000
 20
41.000000
 30
0.0
 40
0.700000
  0
CIRCLE
  8
60
 62
255
  6
L000000020000FFFFFF
 10
43.500000
 20
41.000000
 30
0.0
 40
0.700000
  0
CIRCLE
  8
60
 62
255
  6
L000000020000FFFFFF
 10
48.500000
 20
41.000000
 30
0.0
 40
0.400000
  0
CIRCLE
  8
60
 62
255
  6
L000000020000FFFFFF
 10
45.500000
 20
41.000000
 30
0.0
 40
0.400000
  0
CIRCLE
  8
60
 62
255
  6
L000000020000FFFFFF
 10
29.500000
 20
41.000000
 30
0.0
 40
0.400000
  0
CIRCLE
  8
60
 62
255
  6
L000000020000FFFFFF
 10
26.500000
 20
41.000000
 30
0.0
 40
0.400000
  0
CIRCLE
  8
60
 62
255
  6
L000000020000FFFFFF
 10
44.500000
 20
36.000000
 30
0.0
 40
1.500000
  0
CIRCLE
  8
60
 62
255
  6
L000000020000FFFFFF
 10
30.500000
 20
36.000000
 30
0.0
 40
1.500000
  0
CIRCLE
  8
60
 62
255
  6
L000000020000FFFFFF
 10
48.000000
 20
36.000000
 30
0.0
 40
0.700000
  0
CIRCLE
  8
60
 62
255
  6
L000000020000FFFFFF
 10
27.000000
 20
36.000000
 30
0.0
 40
0.700000
  0
CIRCLE
  8
60
 62
255
  6
L000000020000FFFFFF
 10
30.500000
 20
36.000000
 30
0.0
 40
0.700000
  0
CIRCLE
  8
60
 62
255
  6
L000000020000FFFFFF
 10
44.500000
 20
36.000000
 30
0.0
 40
0.700000
  0
CIRCLE
  8
60
 62
255
  6
L000000020000FFFFFF
 10
46.000000
 20
36.000000
 30
0.0
 40
0.400000
  0
CIRCLE
  8
60
 62
255
  6
L000000020000FFFFFF
 10
43.000000
 20
36.000000
 30
0.0
 40
0.400000
  0
CIRCLE
  8
60
 62
255
  6
L000000020000FFFFFF
 10
29.000000
 20
36.000000
 30
0.0
 40
0.400000
  0
CIRCLE
  8
60
 62
255
  6
L000000020000FFFFFF
 10
32.000000
 20
36.000000
 30
0.0
 40
0.400000
  0
SOLID
  8
38
 62
255
  6
CONTINUOUS
 10
54.000000
 20
72.100000
 11
54.000000
 21
68.800000
 12
51.500000
 22
72.100000
 13
51.500000
 23
68.800000
  0
POLYLINE
  8
38
 62
7
  6
CONTINUOUS
 70
1
 66
1
  0
VERTEX
 10
54.000000
 20
72.100000
 30
0.000000
  8
38
 62
7
  6
CONTINUOUS
  0
VERTEX
 10
54.000000
 20
68.800000
 30
0.000000
  8
38
 62
7
  6
CONTINUOUS
  0
VERTEX
 10
51.500000
 20
68.800000
 30
0.000000
  8
38
 62
7
  6
CONTINUOUS
  0
VERTEX
 10
51.500000
 20
72.100000
 30
0.000000
  8
38
 62
7
  6
CONTINUOUS
  0
SEQEND
  0
SOLID
  8
38
 62
255
  6
CONTINUOUS
 10
69.200000
 20
56.800000
 11
69.200000
 21
68.800000
 12
50.500000
 22
56.800000
 13
50.500000
 23
68.800000
  0
POLYLINE
  8
38
 62
7
  6
CONTINUOUS
 70
1
 66
1
  0
VERTEX
 10
69.200000
 20
56.800000
 30
0.000000
  8
38
 62
7
  6
CONTINUOUS
  0
VERTEX
 10
69.200000
 20
68.800000
 30
0.000000
  8
38
 62
7
  6
CONTINUOUS
  0
VERTEX
 10
50.500000
 20
68.800000
 30
0.000000
  8
38
 62
7
  6
CONTINUOUS
  0
VERTEX
 10
50.500000
 20
56.800000
 30
0.000000
  8
38
 62
7
  6
CONTINUOUS
  0
SEQEND
  0
SOLID
  8
38
 62
255
  6
CONTINUOUS
 10
55.000000
 20
56.800000
 11
55.000000
 21
68.800000
 12
60.200000
 22
56.800000
 13
60.200000
 23
68.800000
  0
POLYLINE
  8
38
 62
7
  6
CONTINUOUS
 70
1
 66
1
  0
VERTEX
 10
55.000000
 20
56.800000
 30
0.000000
  8
38
 62
7
  6
CONTINUOUS
  0
VERTEX
 10
55.000000
 20
68.800000
 30
0.000000
  8
38
 62
7
  6
CONTINUOUS
  0
VERTEX
 10
60.200000
 20
68.800000
 30
0.000000
  8
38
 62
7
  6
CONTINUOUS
  0
VERTEX
 10
60.200000
 20
56.800000
 30
0.000000
  8
38
 62
7
  6
CONTINUOUS
  0
SEQEND
  0
SOLID
  8
38
 62
9
  6
CONTINUOUS
 10
58.300000
 20
61.900000
 11
58.300000
 21
63.700000
 12
56.900000
 22
61.900000
 13
56.900000
 23
63.700000
  0
POLYLINE
  8
38
 62
7
  6
CONTINUOUS
 70
1
 66
1
  0
VERTEX
 10
58.300000
 20
61.900000
 30
0.000000
  8
38
 62
7
  6
CONTINUOUS
  0
VERTEX
 10
58.300000
 20
63.700000
 30
0.000000
  8
38
 62
7
  6
CONTINUOUS
  0
VERTEX
 10
56.900000
 20
63.700000
 30
0.000000
  8
38
 62
7
  6
CONTINUOUS
  0
VERTEX
 10
56.900000
 20
61.900000
 30
0.000000
  8
38
 62
7
  6
CONTINUOUS
  0
SEQEND
  0
CIRCLE
  8
38
 62
7
  6
CONTINUOUS
 10
57.600000
 20
62.800000
 30
0.0
 40
0.400000
  0
TEXT
  8
38
 62
7
  6
CONTINUOUS
 10
57.300000
 20
62.066667
 40
0.400000
  1
O
 50
0.000000
 51
0.000000
 72
1
 73
0
 11
57.300000
 21
62.066667
  0
TEXT
  8
38
 62
7
  6
CONTINUOUS
 10
57.300000
 20
63.266667
 40
0.400000
  1
I
 50
0.000000
 51
0.000000
 72
1
 73
0
 11
57.300000
 21
63.266667
  0
POLYLINE
  8
38
 62
7
  6
CONTINUOUS
 70
1
 66
1
  0
VERTEX
 10
63.000000
 20
61.100000
 30
0.000000
  8
38
 62
7
  6
CONTINUOUS
  0
VERTEX
 10
63.000000
 20
64.500000
 30
0.000000
  8
38
 62
7
  6
CONTINUOUS
  0
VERTEX
 10
61.000000
 20
64.500000
 30
0.000000
  8
38
 62
7
  6
CONTINUOUS
  0
VERTEX
 10
61.000000
 20
61.100000
 30
0.000000
  8
38
 62
7
  6
CONTINUOUS
  0
SEQEND
  0
SOLID
  8
38
 62
255
  6
CONTINUOUS
 10
54.000000
 20
56.800000
 11
54.000000
 21
53.500000
 12
51.500000
 22
56.800000
 13
51.500000
 23
53.500000
  0
POLYLINE
  8
38
 62
7
  6
CONTINUOUS
 70
1
 66
1
  0
VERTEX
 10
54.000000
 20
56.800000
 30
0.000000
  8
38
 62
7
  6
CONTINUOUS
  0
VERTEX
 10
54.000000
 20
53.500000
 30
0.000000
  8
38
 62
7
  6
CONTINUOUS
  0
VERTEX
 10
51.500000
 20
53.500000
 30
0.000000
  8
38
 62
7
  6
CONTINUOUS
  0
VERTEX
 10
51.500000
 20
56.800000
 30
0.000000
  8
38
 62
7
  6
CONTINUOUS
  0
SEQEND
  0
SOLID
  8
38
 62
255
  6
CONTINUOUS
 10
50.500000
 20
56.800000
 11
50.500000
 21
68.800000
 12
54.900000
 22
56.800000
 13
54.900000
 23
68.800000
  0
POLYLINE
  8
38
 62
7
  6
CONTINUOUS
 70
1
 66
1
  0
VERTEX
 10
50.500000
 20
56.800000
 30
0.000000
  8
38
 62
7
  6
CONTINUOUS
  0
VERTEX
 10
50.500000
 20
68.800000
 30
0.000000
  8
38
 62
7
  6
CONTINUOUS
  0
VERTEX
 10
54.900000
 20
68.800000
 30
0.000000
  8
38
 62
7
  6
CONTINUOUS
  0
VERTEX
 10
54.900000
 20
56.800000
 30
0.000000
  8
38
 62
7
  6
CONTINUOUS
  0
SEQEND
  0
CIRCLE
  8
38
 62
7
  6
CONTINUOUS
 10
52.800000
 20
70.600000
 30
0.0
 40
0.500000
  0
CIRCLE
  8
38
 62
7
  6
CONTINUOUS
 10
52.800000
 20
55.000000
 30
0.0
 40
0.500000
  0
POLYLINE
  8
38
 62
7
  6
CONTINUOUS
 70
1
 66
1
  0
VERTEX
 10
54.100000
 20
60.800000
 30
0.000000
  8
38
 62
7
  6
CONTINUOUS
  0
VERTEX
 10
54.100000
 20
64.800000
 30
0.000000
  8
38
 62
7
  6
CONTINUOUS
  0
VERTEX
 10
51.300000
 20
64.800000
 30
0.000000
  8
38
 62
7
  6
CONTINUOUS
  0
VERTEX
 10
51.300000
 20
60.800000
 30
0.000000
  8
38
 62
7
  6
CONTINUOUS
  0
SEQEND
  0
SOLID
  8
38
 62
255
  6
CONTINUOUS
 10
63.800000
 20
72.100000
 11
63.800000
 21
68.800000
 12
61.300000
 22
72.100000
 13
61.300000
 23
68.800000
  0
POLYLINE
  8
38
 62
7
  6
CONTINUOUS
 70
1
 66
1
  0
VERTEX
 10
63.800000
 20
72.100000
 30
0.000000
  8
38
 62
7
  6
CONTINUOUS
  0
VERTEX
 10
63.800000
 20
68.800000
 30
0.000000
  8
38
 62
7
  6
CONTINUOUS
  0
VERTEX
 10
61.300000
 20
68.800000
 30
0.000000
  8
38
 62
7
  6
CONTINUOUS
  0
VERTEX
 10
61.300000
 20
72.100000
 30
0.000000
  8
38
 62
7
  6
CONTINUOUS
  0
SEQEND
  0
SOLID
  8
38
 62
255
  6
CONTINUOUS
 10
60.300000
 20
56.800000
 11
60.300000
 21
68.800000
 12
64.700000
 22
56.800000
 13
64.700000
 23
68.800000
  0
POLYLINE
  8
38
 62
7
  6
CONTINUOUS
 70
1
 66
1
  0
VERTEX
 10
60.300000
 20
56.800000
 30
0.000000
  8
38
 62
7
  6
CONTINUOUS
  0
VERTEX
 10
60.300000
 20
68.800000
 30
0.000000
  8
38
 62
7
  6
CONTINUOUS
  0
VERTEX
 10
64.700000
 20
68.800000
 30
0.000000
  8
38
 62
7
  6
CONTINUOUS
  0
VERTEX
 10
64.700000
 20
56.800000
 30
0.000000
  8
38
 62
7
  6
CONTINUOUS
  0
SEQEND
  0
CIRCLE
  8
38
 62
7
  6
CONTINUOUS
 10
62.600000
 20
70.600000
 30
0.0
 40
0.500000
  0
POLYLINE
  8
38
 62
7
  6
CONTINUOUS
 70
1
 66
1
  0
VERTEX
 10
63.900000
 20
60.800000
 30
0.000000
  8
38
 62
7
  6
CONTINUOUS
  0
VERTEX
 10
63.900000
 20
64.800000
 30
0.000000
  8
38
 62
7
  6
CONTINUOUS
  0
VERTEX
 10
61.100000
 20
64.800000
 30
0.000000
  8
38
 62
7
  6
CONTINUOUS
  0
VERTEX
 10
61.100000
 20
60.800000
 30
0.000000
  8
38
 62
7
  6
CONTINUOUS
  0
SEQEND
  0
SOLID
  8
38
 62
255
  6
CONTINUOUS
 10
63.800000
 20
56.800000
 11
63.800000
 21
53.500000
 12
61.300000
 22
56.800000
 13
61.300000
 23
53.500000
  0
POLYLINE
  8
38
 62
7
  6
CONTINUOUS
 70
1
 66
1
  0
VERTEX
 10
63.800000
 20
56.800000
 30
0.000000
  8
38
 62
7
  6
CONTINUOUS
  0
VERTEX
 10
63.800000
 20
53.500000
 30
0.000000
  8
38
 62
7
  6
CONTINUOUS
  0
VERTEX
 10
61.300000
 20
53.500000
 30
0.000000
  8
38
 62
7
  6
CONTINUOUS
  0
VERTEX
 10
61.300000
 20
56.800000
 30
0.000000
  8
38
 62
7
  6
CONTINUOUS
  0
SEQEND
  0
CIRCLE
  8
38
 62
7
  6
CONTINUOUS
 10
62.600000
 20
55.000000
 30
0.0
 40
0.500000
  0
SOLID
  8
38
 62
255
  6
CONTINUOUS
 10
68.300000
 20
72.100000
 11
68.300000
 21
68.800000
 12
65.800000
 22
72.100000
 13
65.800000
 23
68.800000
  0
POLYLINE
  8
38
 62
7
  6
CONTINUOUS
 70
1
 66
1
  0
VERTEX
 10
68.300000
 20
72.100000
 30
0.000000
  8
38
 62
7
  6
CONTINUOUS
  0
VERTEX
 10
68.300000
 20
68.800000
 30
0.000000
  8
38
 62
7
  6
CONTINUOUS
  0
VERTEX
 10
65.800000
 20
68.800000
 30
0.000000
  8
38
 62
7
  6
CONTINUOUS
  0
VERTEX
 10
65.800000
 20
72.100000
 30
0.000000
  8
38
 62
7
  6
CONTINUOUS
  0
SEQEND
  0
SOLID
  8
38
 62
255
  6
CONTINUOUS
 10
68.300000
 20
56.800000
 11
68.300000
 21
53.500000
 12
65.800000
 22
56.800000
 13
65.800000
 23
53.500000
  0
POLYLINE
  8
38
 62
7
  6
CONTINUOUS
 70
1
 66
1
  0
VERTEX
 10
68.300000
 20
56.800000
 30
0.000000
  8
38
 62
7
  6
CONTINUOUS
  0
VERTEX
 10
68.300000
 20
53.500000
 30
0.000000
  8
38
 62
7
  6
CONTINUOUS
  0
VERTEX
 10
65.800000
 20
53.500000
 30
0.000000
  8
38
 62
7
  6
CONTINUOUS
  0
VERTEX
 10
65.800000
 20
56.800000
 30
0.000000
  8
38
 62
7
  6
CONTINUOUS
  0
SEQEND
  0
SOLID
  8
38
 62
255
  6
CONTINUOUS
 10
64.800000
 20
56.800000
 11
64.800000
 21
68.800000
 12
69.200000
 22
56.800000
 13
69.200000
 23
68.800000
  0
POLYLINE
  8
38
 62
7
  6
CONTINUOUS
 70
1
 66
1
  0
VERTEX
 10
64.800000
 20
56.800000
 30
0.000000
  8
38
 62
7
  6
CONTINUOUS
  0
VERTEX
 10
64.800000
 20
68.800000
 30
0.000000
  8
38
 62
7
  6
CONTINUOUS
  0
VERTEX
 10
69.200000
 20
68.800000
 30
0.000000
  8
38
 62
7
  6
CONTINUOUS
  0
VERTEX
 10
69.200000
 20
56.800000
 30
0.000000
  8
38
 62
7
  6
CONTINUOUS
  0
SEQEND
  0
CIRCLE
  8
38
 62
7
  6
CONTINUOUS
 10
67.100000
 20
70.600000
 30
0.0
 40
0.500000
  0
CIRCLE
  8
38
 62
7
  6
CONTINUOUS
 10
67.100000
 20
55.000000
 30
0.0
 40
0.500000
  0
POLYLINE
  8
38
 62
7
  6
CONTINUOUS
 70
1
 66
1
  0
VERTEX
 10
68.400000
 20
60.800000
 30
0.000000
  8
38
 62
7
  6
CONTINUOUS
  0
VERTEX
 10
68.400000
 20
64.800000
 30
0.000000
  8
38
 62
7
  6
CONTINUOUS
  0
VERTEX
 10
65.600000
 20
64.800000
 30
0.000000
  8
38
 62
7
  6
CONTINUOUS
  0
VERTEX
 10
65.600000
 20
60.800000
 30
0.000000
  8
38
 62
7
  6
CONTINUOUS
  0
SEQEND
  0
POLYLINE
  8
38
 62
7
  6
CONTINUOUS
 70
1
 66
1
  0
VERTEX
 10
69.600000
 20
61.800000
 30
0.000000
  8
38
 62
7
  6
CONTINUOUS
  0
VERTEX
 10
69.600000
 20
63.800000
 30
0.000000
  8
38
 62
7
  6
CONTINUOUS
  0
VERTEX
 10
69.200000
 20
63.800000
 30
0.000000
  8
38
 62
7
  6
CONTINUOUS
  0
VERTEX
 10
69.200000
 20
61.800000
 30
0.000000
  8
38
 62
7
  6
CONTINUOUS
  0
SEQEND
  0
SOLID
  8
2
 62
255
  6
L014100020032000000
 10
54.000000
 20
72.100000
 11
54.000000
 21
68.800000
 12
51.500000
 22
72.100000
 13
51.500000
 23
68.800000
  0
POLYLINE
  8
2
 62
7
  6
L014100020032000000
 70
1
 66
1
  0
VERTEX
 10
54.000000
 20
72.100000
 30
0.000000
  8
2
 62
7
  6
L014100020032000000
  0
VERTEX
 10
54.000000
 20
68.800000
 30
0.000000
  8
2
 62
7
  6
L014100020032000000
  0
VERTEX
 10
51.500000
 20
68.800000
 30
0.000000
  8
2
 62
7
  6
L014100020032000000
  0
VERTEX
 10
51.500000
 20
72.100000
 30
0.000000
  8
2
 62
7
  6
L014100020032000000
  0
SEQEND
  0
SOLID
  8
2
 62
255
  6
L014100020032000000
 10
69.200000
 20
56.800000
 11
69.200000
 21
68.800000
 12
50.500000
 22
56.800000
 13
50.500000
 23
68.800000
  0
POLYLINE
  8
2
 62
7
  6
L014100020032000000
 70
1
 66
1
  0
VERTEX
 10
69.200000
 20
56.800000
 30
0.000000
  8
2
 62
7
  6
L014100020032000000
  0
VERTEX
 10
69.200000
 20
68.800000
 30
0.000000
  8
2
 62
7
  6
L014100020032000000
  0
VERTEX
 10
50.500000
 20
68.800000
 30
0.000000
  8
2
 62
7
  6
L014100020032000000
  0
VERTEX
 10
50.500000
 20
56.800000
 30
0.000000
  8
2
 62
7
  6
L014100020032000000
  0
SEQEND
  0
SOLID
  8
2
 62
255
  6
L014100020032000000
 10
55.000000
 20
56.800000
 11
55.000000
 21
68.800000
 12
60.200000
 22
56.800000
 13
60.200000
 23
68.800000
  0
POLYLINE
  8
2
 62
7
  6
L014100020032000000
 70
1
 66
1
  0
VERTEX
 10
55.000000
 20
56.800000
 30
0.000000
  8
2
 62
7
  6
L014100020032000000
  0
VERTEX
 10
55.000000
 20
68.800000
 30
0.000000
  8
2
 62
7
  6
L014100020032000000
  0
VERTEX
 10
60.200000
 20
68.800000
 30
0.000000
  8
2
 62
7
  6
L014100020032000000
  0
VERTEX
 10
60.200000
 20
56.800000
 30
0.000000
  8
2
 62
7
  6
L014100020032000000
  0
SEQEND
  0
SOLID
  8
2
 62
9
  6
L014100020032000000
 10
58.300000
 20
61.900000
 11
58.300000
 21
63.700000
 12
56.900000
 22
61.900000
 13
56.900000
 23
63.700000
  0
POLYLINE
  8
2
 62
7
  6
L014100020032000000
 70
1
 66
1
  0
VERTEX
 10
58.300000
 20
61.900000
 30
0.000000
  8
2
 62
7
  6
L014100020032000000
  0
VERTEX
 10
58.300000
 20
63.700000
 30
0.000000
  8
2
 62
7
  6
L014100020032000000
  0
VERTEX
 10
56.900000
 20
63.700000
 30
0.000000
  8
2
 62
7
  6
L014100020032000000
  0
VERTEX
 10
56.900000
 20
61.900000
 30
0.000000
  8
2
 62
7
  6
L014100020032000000
  0
SEQEND
  0
CIRCLE
  8
2
 62
7
  6
L014100020032000000
 10
57.600000
 20
62.800000
 30
0.0
 40
0.400000
  0
TEXT
  8
2
 62
7
  6
CONTINUOUS
 10
57.300000
 20
62.066667
 40
0.400000
  1
O
 50
0.000000
 51
0.000000
 72
1
 73
0
 11
57.300000
 21
62.066667
  0
TEXT
  8
2
 62
7
  6
CONTINUOUS
 10
57.300000
 20
63.266667
 40
0.400000
  1
I
 50
0.000000
 51
0.000000
 72
1
 73
0
 11
57.300000
 21
63.266667
  0
POLYLINE
  8
2
 62
7
  6
L014100020032000000
 70
1
 66
1
  0
VERTEX
 10
63.000000
 20
61.100000
 30
0.000000
  8
2
 62
7
  6
L014100020032000000
  0
VERTEX
 10
63.000000
 20
64.500000
 30
0.000000
  8
2
 62
7
  6
L014100020032000000
  0
VERTEX
 10
61.000000
 20
64.500000
 30
0.000000
  8
2
 62
7
  6
L014100020032000000
  0
VERTEX
 10
61.000000
 20
61.100000
 30
0.000000
  8
2
 62
7
  6
L014100020032000000
  0
SEQEND
  0
SOLID
  8
2
 62
255
  6
L014100020032000000
 10
54.000000
 20
56.800000
 11
54.000000
 21
53.500000
 12
51.500000
 22
56.800000
 13
51.500000
 23
53.500000
  0
POLYLINE
  8
2
 62
7
  6
L014100020032000000
 70
1
 66
1
  0
VERTEX
 10
54.000000
 20
56.800000
 30
0.000000
  8
2
 62
7
  6
L014100020032000000
  0
VERTEX
 10
54.000000
 20
53.500000
 30
0.000000
  8
2
 62
7
  6
L014100020032000000
  0
VERTEX
 10
51.500000
 20
53.500000
 30
0.000000
  8
2
 62
7
  6
L014100020032000000
  0
VERTEX
 10
51.500000
 20
56.800000
 30
0.000000
  8
2
 62
7
  6
L014100020032000000
  0
SEQEND
  0
SOLID
  8
2
 62
255
  6
L014100020032000000
 10
50.500000
 20
56.800000
 11
50.500000
 21
68.800000
 12
54.900000
 22
56.800000
 13
54.900000
 23
68.800000
  0
POLYLINE
  8
2
 62
7
  6
L014100020032000000
 70
1
 66
1
  0
VERTEX
 10
50.500000
 20
56.800000
 30
0.000000
  8
2
 62
7
  6
L014100020032000000
  0
VERTEX
 10
50.500000
 20
68.800000
 30
0.000000
  8
2
 62
7
  6
L014100020032000000
  0
VERTEX
 10
54.900000
 20
68.800000
 30
0.000000
  8
2
 62
7
  6
L014100020032000000
  0
VERTEX
 10
54.900000
 20
56.800000
 30
0.000000
  8
2
 62
7
  6
L014100020032000000
  0
SEQEND
  0
CIRCLE
  8
2
 62
7
  6
L014100020032000000
 10
52.800000
 20
70.600000
 30
0.0
 40
0.500000
  0
CIRCLE
  8
2
 62
7
  6
L014100020032000000
 10
52.800000
 20
55.000000
 30
0.0
 40
0.500000
  0
POLYLINE
  8
2
 62
7
  6
L014100020032000000
 70
1
 66
1
  0
VERTEX
 10
54.100000
 20
60.800000
 30
0.000000
  8
2
 62
7
  6
L014100020032000000
  0
VERTEX
 10
54.100000
 20
64.800000
 30
0.000000
  8
2
 62
7
  6
L014100020032000000
  0
VERTEX
 10
51.300000
 20
64.800000
 30
0.000000
  8
2
 62
7
  6
L014100020032000000
  0
VERTEX
 10
51.300000
 20
60.800000
 30
0.000000
  8
2
 62
7
  6
L014100020032000000
  0
SEQEND
  0
SOLID
  8
2
 62
255
  6
L014100020032000000
 10
63.800000
 20
72.100000
 11
63.800000
 21
68.800000
 12
61.300000
 22
72.100000
 13
61.300000
 23
68.800000
  0
POLYLINE
  8
2
 62
7
  6
L014100020032000000
 70
1
 66
1
  0
VERTEX
 10
63.800000
 20
72.100000
 30
0.000000
  8
2
 62
7
  6
L014100020032000000
  0
VERTEX
 10
63.800000
 20
68.800000
 30
0.000000
  8
2
 62
7
  6
L014100020032000000
  0
VERTEX
 10
61.300000
 20
68.800000
 30
0.000000
  8
2
 62
7
  6
L014100020032000000
  0
VERTEX
 10
61.300000
 20
72.100000
 30
0.000000
  8
2
 62
7
  6
L014100020032000000
  0
SEQEND
  0
SOLID
  8
2
 62
255
  6
L014100020032000000
 10
60.300000
 20
56.800000
 11
60.300000
 21
68.800000
 12
64.700000
 22
56.800000
 13
64.700000
 23
68.800000
  0
POLYLINE
  8
2
 62
7
  6
L014100020032000000
 70
1
 66
1
  0
VERTEX
 10
60.300000
 20
56.800000
 30
0.000000
  8
2
 62
7
  6
L014100020032000000
  0
VERTEX
 10
60.300000
 20
68.800000
 30
0.000000
  8
2
 62
7
  6
L014100020032000000
  0
VERTEX
 10
64.700000
 20
68.800000
 30
0.000000
  8
2
 62
7
  6
L014100020032000000
  0
VERTEX
 10
64.700000
 20
56.800000
 30
0.000000
  8
2
 62
7
  6
L014100020032000000
  0
SEQEND
  0
CIRCLE
  8
2
 62
7
  6
L014100020032000000
 10
62.600000
 20
70.600000
 30
0.0
 40
0.500000
  0
POLYLINE
  8
2
 62
7
  6
L014100020032000000
 70
1
 66
1
  0
VERTEX
 10
63.900000
 20
60.800000
 30
0.000000
  8
2
 62
7
  6
L014100020032000000
  0
VERTEX
 10
63.900000
 20
64.800000
 30
0.000000
  8
2
 62
7
  6
L014100020032000000
  0
VERTEX
 10
61.100000
 20
64.800000
 30
0.000000
  8
2
 62
7
  6
L014100020032000000
  0
VERTEX
 10
61.100000
 20
60.800000
 30
0.000000
  8
2
 62
7
  6
L014100020032000000
  0
SEQEND
  0
SOLID
  8
2
 62
255
  6
L014100020032000000
 10
63.800000
 20
56.800000
 11
63.800000
 21
53.500000
 12
61.300000
 22
56.800000
 13
61.300000
 23
53.500000
  0
POLYLINE
  8
2
 62
7
  6
L014100020032000000
 70
1
 66
1
  0
VERTEX
 10
63.800000
 20
56.800000
 30
0.000000
  8
2
 62
7
  6
L014100020032000000
  0
VERTEX
 10
63.800000
 20
53.500000
 30
0.000000
  8
2
 62
7
  6
L014100020032000000
  0
VERTEX
 10
61.300000
 20
53.500000
 30
0.000000
  8
2
 62
7
  6
L014100020032000000
  0
VERTEX
 10
61.300000
 20
56.800000
 30
0.000000
  8
2
 62
7
  6
L014100020032000000
  0
SEQEND
  0
CIRCLE
  8
2
 62
7
  6
L014100020032000000
 10
62.600000
 20
55.000000
 30
0.0
 40
0.500000
  0
SOLID
  8
2
 62
255
  6
L014100020032000000
 10
68.300000
 20
72.100000
 11
68.300000
 21
68.800000
 12
65.800000
 22
72.100000
 13
65.800000
 23
68.800000
  0
POLYLINE
  8
2
 62
7
  6
L014100020032000000
 70
1
 66
1
  0
VERTEX
 10
68.300000
 20
72.100000
 30
0.000000
  8
2
 62
7
  6
L014100020032000000
  0
VERTEX
 10
68.300000
 20
68.800000
 30
0.000000
  8
2
 62
7
  6
L014100020032000000
  0
VERTEX
 10
65.800000
 20
68.800000
 30
0.000000
  8
2
 62
7
  6
L014100020032000000
  0
VERTEX
 10
65.800000
 20
72.100000
 30
0.000000
  8
2
 62
7
  6
L014100020032000000
  0
SEQEND
  0
SOLID
  8
2
 62
255
  6
L014100020032000000
 10
68.300000
 20
56.800000
 11
68.300000
 21
53.500000
 12
65.800000
 22
56.800000
 13
65.800000
 23
53.500000
  0
POLYLINE
  8
2
 62
7
  6
L014100020032000000
 70
1
 66
1
  0
VERTEX
 10
68.300000
 20
56.800000
 30
0.000000
  8
2
 62
7
  6
L014100020032000000
  0
VERTEX
 10
68.300000
 20
53.500000
 30
0.000000
  8
2
 62
7
  6
L014100020032000000
  0
VERTEX
 10
65.800000
 20
53.500000
 30
0.000000
  8
2
 62
7
  6
L014100020032000000
  0
VERTEX
 10
65.800000
 20
56.800000
 30
0.000000
  8
2
 62
7
  6
L014100020032000000
  0
SEQEND
  0
SOLID
  8
2
 62
255
  6
L014100020032000000
 10
64.800000
 20
56.800000
 11
64.800000
 21
68.800000
 12
69.200000
 22
56.800000
 13
69.200000
 23
68.800000
  0
POLYLINE
  8
2
 62
7
  6
L014100020032000000
 70
1
 66
1
  0
VERTEX
 10
64.800000
 20
56.800000
 30
0.000000
  8
2
 62
7
  6
L014100020032000000
  0
VERTEX
 10
64.800000
 20
68.800000
 30
0.000000
  8
2
 62
7
  6
L014100020032000000
  0
VERTEX
 10
69.200000
 20
68.800000
 30
0.000000
  8
2
 62
7
  6
L014100020032000000
  0
VERTEX
 10
69.200000
 20
56.800000
 30
0.000000
  8
2
 62
7
  6
L014100020032000000
  0
SEQEND
  0
CIRCLE
  8
2
 62
7
  6
L014100020032000000
 10
67.100000
 20
70.600000
 30
0.0
 40
0.500000
  0
CIRCLE
  8
2
 62
7
  6
L014100020032000000
 10
67.100000
 20
55.000000
 30
0.0
 40
0.500000
  0
POLYLINE
  8
2
 62
7
  6
L014100020032000000
 70
1
 66
1
  0
VERTEX
 10
68.400000
 20
60.800000
 30
0.000000
  8
2
 62
7
  6
L014100020032000000
  0
VERTEX
 10
68.400000
 20
64.800000
 30
0.000000
  8
2
 62
7
  6
L014100020032000000
  0
VERTEX
 10
65.600000
 20
64.800000
 30
0.000000
  8
2
 62
7
  6
L014100020032000000
  0
VERTEX
 10
65.600000
 20
60.800000
 30
0.000000
  8
2
 62
7
  6
L014100020032000000
  0
SEQEND
  0
POLYLINE
  8
2
 62
7
  6
L014100020032000000
 70
1
 66
1
  0
VERTEX
 10
69.600000
 20
61.800000
 30
0.000000
  8
2
 62
7
  6
L014100020032000000
  0
VERTEX
 10
69.600000
 20
63.800000
 30
0.000000
  8
2
 62
7
  6
L014100020032000000
  0
VERTEX
 10
69.200000
 20
63.800000
 30
0.000000
  8
2
 62
7
  6
L014100020032000000
  0
VERTEX
 10
69.200000
 20
61.800000
 30
0.000000
  8
2
 62
7
  6
L014100020032000000
  0
SEQEND
  0
CIRCLE
  8
2
 62
7
  6
CONTINUOUS
 10
57.600000
 20
62.800000
 30
0.0
 40
3.500000
  0
CIRCLE
  8
2
 62
7
  6
CONTINUOUS
 10
65.100000
 20
62.800000
 30
0.0
 40
2.000000
  0
SOLID
  8
2
 62
255
  6
L000000020000FFFFFF
 10
64.100000
 20
64.800000
 11
64.100000
 21
60.800000
 12
57.400000
 22
64.800000
 13
57.400000
 23
60.800000
  0
POLYLINE
  8
2
 62
255
  6
L000000020000FFFFFF
 70
1
 66
1
  0
VERTEX
 10
64.100000
 20
64.800000
 30
0.000000
  8
2
 62
255
  6
L000000020000FFFFFF
  0
VERTEX
 10
64.100000
 20
60.800000
 30
0.000000
  8
2
 62
255
  6
L000000020000FFFFFF
  0
VERTEX
 10
57.400000
 20
60.800000
 30
0.000000
  8
2
 62
255
  6
L000000020000FFFFFF
  0
VERTEX
 10
57.400000
 20
64.800000
 30
0.000000
  8
2
 62
255
  6
L000000020000FFFFFF
  0
SEQEND
  0
SOLID
  8
2
 62
255
  6
L000000020000FFFFFF
 10
65.100000
 20
64.800000
 11
65.100000
 21
60.800000
 12
57.400000
 22
64.800000
 13
57.400000
 23
60.800000
  0
POLYLINE
  8
2
 62
255
  6
L000000020000FFFFFF
 70
1
 66
1
  0
VERTEX
 10
65.100000
 20
64.800000
 30
0.000000
  8
2
 62
255
  6
L000000020000FFFFFF
  0
VERTEX
 10
65.100000
 20
60.800000
 30
0.000000
  8
2
 62
255
  6
L000000020000FFFFFF
  0
VERTEX
 10
57.400000
 20
60.800000
 30
0.000000
  8
2
 62
255
  6
L000000020000FFFFFF
  0
VERTEX
 10
57.400000
 20
64.800000
 30
0.000000
  8
2
 62
255
  6
L000000020000FFFFFF
  0
SEQEND
  0
CIRCLE
  8
2
 62
7
  6
CONTINUOUS
 10
57.600000
 20
62.800000
 30
0.0
 40
2.000000
  0
SOLID
  8
2
 62
1
  6
CONTINUOUS
 10
60.700000
 20
62.500000
 11
60.700000
 21
63.100000
 12
55.600000
 22
62.500000
 13
55.600000
 23
63.100000
  0
POLYLINE
  8
2
 62
7
  6
CONTINUOUS
 70
1
 66
1
  0
VERTEX
 10
60.700000
 20
62.500000
 30
0.000000
  8
2
 62
7
  6
CONTINUOUS
  0
VERTEX
 10
60.700000
 20
63.100000
 30
0.000000
  8
2
 62
7
  6
CONTINUOUS
  0
VERTEX
 10
55.600000
 20
63.100000
 30
0.000000
  8
2
 62
7
  6
CONTINUOUS
  0
VERTEX
 10
55.600000
 20
62.500000
 30
0.000000
  8
2
 62
7
  6
CONTINUOUS
  0
SEQEND
  0
POLYLINE
  8
2
 62
7
  6
CONTINUOUS
 70
0
 66
1
  0
VERTEX
 10
57.600000
 20
64.800000
  8
2
 62
7
  6
CONTINUOUS
  0
VERTEX
 10
65.100000
 20
64.800000
  8
2
 62
7
  6
CONTINUOUS
  0
SEQEND
  0
POLYLINE
  8
2
 62
7
  6
CONTINUOUS
 70
0
 66
1
  0
VERTEX
 10
57.600000
 20
60.800000
  8
2
 62
7
  6
CONTINUOUS
  0
VERTEX
 10
65.200000
 20
60.800000
  8
2
 62
7
  6
CONTINUOUS
  0
SEQEND
  0
TEXT
  8
2
 62
7
  6
CONTINUOUS
 10
54.433333
 20
63.300000
 40
1.100000
  1
O
 50
-90.000000
 51
0.000000
 72
0
 73
0
  0
TEXT
  8
2
 62
7
  6
CONTINUOUS
 10
57.600000
 20
65.233333
 40
1.100000
  1
I
 50
0.000000
 51
0.000000
 72
1
 73
0
 11
57.600000
 21
65.233333
  0
SOLID
  8
157
 62
255
  6
CONTINUOUS
 10
20.500000
 20
63.000000
 11
20.500000
 21
69.000000
 12
14.500000
 22
63.000000
 13
14.500000
 23
69.000000
  0
POLYLINE
  8
157
 62
7
  6
CONTINUOUS
 70
1
 66
1
  0
VERTEX
 10
20.500000
 20
63.000000
 30
0.000000
  8
157
 62
7
  6
CONTINUOUS
  0
VERTEX
 10
20.500000
 20
69.000000
 30
0.000000
  8
157
 62
7
  6
CONTINUOUS
  0
VERTEX
 10
14.500000
 20
69.000000
 30
0.000000
  8
157
 62
7
  6
CONTINUOUS
  0
VERTEX
 10
14.500000
 20
63.000000
 30
0.000000
  8
157
 62
7
  6
CONTINUOUS
  0
SEQEND
  0
TEXT
  8
157
 62
7
  6
CONTINUOUS
 10
17.500000
 20
64.666667
 40
4.000000
  1
W
 50
0.000000
 51
0.000000
 72
1
 73
0
 11
17.500000
 21
64.666667
  0
SOLID
  8
157
 62
255
  6
CONTINUOUS
 10
9.500000
 20
63.000000
 11
9.500000
 21
69.000000
 12
3.500000
 22
63.000000
 13
3.500000
 23
69.000000
  0
POLYLINE
  8
157
 62
7
  6
CONTINUOUS
 70
1
 66
1
  0
VERTEX
 10
9.500000
 20
63.000000
 30
0.000000
  8
157
 62
7
  6
CONTINUOUS
  0
VERTEX
 10
9.500000
 20
69.000000
 30
0.000000
  8
157
 62
7
  6
CONTINUOUS
  0
VERTEX
 10
3.500000
 20
69.000000
 30
0.000000
  8
157
 62
7
  6
CONTINUOUS
  0
VERTEX
 10
3.500000
 20
63.000000
 30
0.000000
  8
157
 62
7
  6
CONTINUOUS
  0
SEQEND
  0
TEXT
  8
157
 62
7
  6
CONTINUOUS
 10
6.500000
 20
64.666667
 40
4.000000
  1
W
 50
0.000000
 51
0.000000
 72
1
 73
0
 11
6.500000
 21
64.666667
  0
SOLID
  8
157
 62
255
  6
CONTINUOUS
 10
31.500000
 20
63.000000
 11
31.500000
 21
69.000000
 12
25.500000
 22
63.000000
 13
25.500000
 23
69.000000
  0
POLYLINE
  8
157
 62
7
  6
CONTINUOUS
 70
1
 66
1
  0
VERTEX
 10
31.500000
 20
63.000000
 30
0.000000
  8
157
 62
7
  6
CONTINUOUS
  0
VERTEX
 10
31.500000
 20
69.000000
 30
0.000000
  8
157
 62
7
  6
CONTINUOUS
  0
VERTEX
 10
25.500000
 20
69.000000
 30
0.000000
  8
157
 62
7
  6
CONTINUOUS
  0
VERTEX
 10
25.500000
 20
63.000000
 30
0.000000
  8
157
 62
7
  6
CONTINUOUS
  0
SEQEND
  0
TEXT
  8
157
 62
7
  6
CONTINUOUS
 10
28.500000
 20
64.666667
 40
4.000000
  1
W
 50
0.000000
 51
0.000000
 72
1
 73
0
 11
28.500000
 21
64.666667
  0
TEXT
  8
161
 62
7
  6
L014100020032000000
 10
23.000000
 20
40.000000
 40
3.000000
  1
N
 50
0.000000
 51
0.000000
 72
0
 73
0
  0
TEXT
  8
161
 62
7
  6
L014100020032000000
 10
20.500000
 20
35.000000
 40
3.000000
  1
PE
 50
0.000000
 51
0.000000
 72
0
 73
0
  0
TEXT
  8
161
 62
7
  6
L014100020032000000
 10
49.100000
 20
35.000000
 40
3.000000
  1
PE
 50
0.000000
 51
0.000000
 72
0
 73
0
  0
TEXT
  8
161
 62
7
  6
L014100020032000000
 10
49.100000
 20
40.000000
 40
3.000000
  1
N
 50
0.000000
 51
0.000000
 72
0
 73
0
  0
ENDBLK
  0
BLOCK
  8
3
  2
bayern_mess_tuer_1
 70
 0
 10
0.0
 20
0.0
 30
0.0
  0
SOLID
  8
3
 62
255
  6
CONTINUOUS
 10
77.000000
 20
77.000000
 11
77.000000
 21
-2.000000
 12
-2.000000
 22
77.000000
 13
-2.000000
 23
-2.000000
  0
POLYLINE
  8
3
 62
7
  6
CONTINUOUS
 70
1
 66
1
  0
VERTEX
 10
77.000000
 20
77.000000
 30
0.000000
  8
3
 62
7
  6
CONTINUOUS
  0
VERTEX
 10
77.000000
 20
-2.000000
 30
0.000000
  8
3
 62
7
  6
CONTINUOUS
  0
VERTEX
 10
-2.000000
 20
-2.000000
 30
0.000000
  8
3
 62
7
  6
CONTINUOUS
  0
VERTEX
 10
-2.000000
 20
77.000000
 30
0.000000
  8
3
 62
7
  6
CONTINUOUS
  0
SEQEND
  0
SOLID
  8
3
 62
7
  6
CONTINUOUS
 10
76.000000
 20
12.500000
 11
76.000000
 21
7.500000
 12
77.000000
 22
12.500000
 13
77.000000
 23
7.500000
  0
POLYLINE
  8
3
 62
7
  6
CONTINUOUS
 70
1
 66
1
  0
VERTEX
 10
76.000000
 20
12.500000
 30
0.000000
  8
3
 62
7
  6
CONTINUOUS
  0
VERTEX
 10
76.000000
 20
7.500000
 30
0.000000
  8
3
 62
7
  6
CONTINUOUS
  0
VERTEX
 10
77.000000
 20
7.500000
 30
0.000000
  8
3
 62
7
  6
CONTINUOUS
  0
VERTEX
 10
77.000000
 20
12.500000
 30
0.000000
  8
3
 62
7
  6
CONTINUOUS
  0
SEQEND
  0
SOLID
  8
3
 62
7
  6
CONTINUOUS
 10
76.000000
 20
62.500000
 11
76.000000
 21
67.500000
 12
77.000000
 22
62.500000
 13
77.000000
 23
67.500000
  0
POLYLINE
  8
3
 62
7
  6
CONTINUOUS
 70
1
 66
1
  0
VERTEX
 10
76.000000
 20
62.500000
 30
0.000000
  8
3
 62
7
  6
CONTINUOUS
  0
VERTEX
 10
76.000000
 20
67.500000
 30
0.000000
  8
3
 62
7
  6
CONTINUOUS
  0
VERTEX
 10
77.000000
 20
67.500000
 30
0.000000
  8
3
 62
7
  6
CONTINUOUS
  0
VERTEX
 10
77.000000
 20
62.500000
 30
0.000000
  8
3
 62
7
  6
CONTINUOUS
  0
SEQEND
  0
CIRCLE
  8
3
 62
7
  6
CONTINUOUS
 10
2.500000
 20
60.000000
 30
0.0
 40
0.800000
  0
CIRCLE
  8
3
 62
7
  6
CONTINUOUS
 10
2.500000
 20
60.000000
 30
0.0
 40
1.200000
  0
POLYLINE
  8
3
 62
7
  6
CONTINUOUS
 70
0
 66
1
  0
VERTEX
 10
2.500000
 20
61.700000
  8
3
 62
7
  6
CONTINUOUS
  0
VERTEX
 10
2.500000
 20
58.300000
  8
3
 62
7
  6
CONTINUOUS
  0
SEQEND
  0
POLYLINE
  8
3
 62
7
  6
CONTINUOUS
 70
0
 66
1
  0
VERTEX
 10
4.200000
 20
60.000000
  8
3
 62
7
  6
CONTINUOUS
  0
VERTEX
 10
0.800000
 20
60.000000
  8
3
 62
7
  6
CONTINUOUS
  0
SEQEND
  0
CIRCLE
  8
3
 62
7
  6
CONTINUOUS
 10
2.500000
 20
15.000000
 30
0.0
 40
0.800000
  0
CIRCLE
  8
3
 62
7
  6
CONTINUOUS
 10
2.500000
 20
15.000000
 30
0.0
 40
1.200000
  0
POLYLINE
  8
3
 62
7
  6
CONTINUOUS
 70
0
 66
1
  0
VERTEX
 10
2.500000
 20
16.700000
  8
3
 62
7
  6
CONTINUOUS
  0
VERTEX
 10
2.500000
 20
13.300000
  8
3
 62
7
  6
CONTINUOUS
  0
SEQEND
  0
POLYLINE
  8
3
 62
7
  6
CONTINUOUS
 70
0
 66
1
  0
VERTEX
 10
4.200000
 20
15.000000
  8
3
 62
7
  6
CONTINUOUS
  0
VERTEX
 10
0.800000
 20
15.000000
  8
3
 62
7
  6
CONTINUOUS
  0
SEQEND
  0
ENDBLK
  0
BLOCK
  8
3
  2
bayern_stand_tuer
 70
 0
 10
0.0
 20
0.0
 30
0.0
  0
SOLID
  8
3
 62
255
  6
CONTINUOUS
 10
-2.000000
 20
102.000000
 11
-2.000000
 21
-2.000000
 12
37.000000
 22
102.000000
 13
37.000000
 23
-2.000000
  0
POLYLINE
  8
3
 62
7
  6
CONTINUOUS
 70
1
 66
1
  0
VERTEX
 10
-2.000000
 20
102.000000
 30
0.000000
  8
3
 62
7
  6
CONTINUOUS
  0
VERTEX
 10
-2.000000
 20
-2.000000
 30
0.000000
  8
3
 62
7
  6
CONTINUOUS
  0
VERTEX
 10
37.000000
 20
-2.000000
 30
0.000000
  8
3
 62
7
  6
CONTINUOUS
  0
VERTEX
 10
37.000000
 20
102.000000
 30
0.000000
  8
3
 62
7
  6
CONTINUOUS
  0
SEQEND
  0
SOLID
  8
3
 62
255
  6
CONTINUOUS
 10
77.000000
 20
102.000000
 11
77.000000
 21
-2.000000
 12
38.000000
 22
102.000000
 13
38.000000
 23
-2.000000
  0
POLYLINE
  8
3
 62
7
  6
CONTINUOUS
 70
1
 66
1
  0
VERTEX
 10
77.000000
 20
102.000000
 30
0.000000
  8
3
 62
7
  6
CONTINUOUS
  0
VERTEX
 10
77.000000
 20
-2.000000
 30
0.000000
  8
3
 62
7
  6
CONTINUOUS
  0
VERTEX
 10
38.000000
 20
-2.000000
 30
0.000000
  8
3
 62
7
  6
CONTINUOUS
  0
VERTEX
 10
38.000000
 20
102.000000
 30
0.000000
  8
3
 62
7
  6
CONTINUOUS
  0
SEQEND
  0
SOLID
  8
3
 62
7
  6
CONTINUOUS
 10
76.000000
 20
12.500000
 11
76.000000
 21
7.500000
 12
77.000000
 22
12.500000
 13
77.000000
 23
7.500000
  0
POLYLINE
  8
3
 62
7
  6
CONTINUOUS
 70
1
 66
1
  0
VERTEX
 10
76.000000
 20
12.500000
 30
0.000000
  8
3
 62
7
  6
CONTINUOUS
  0
VERTEX
 10
76.000000
 20
7.500000
 30
0.000000
  8
3
 62
7
  6
CONTINUOUS
  0
VERTEX
 10
77.000000
 20
7.500000
 30
0.000000
  8
3
 62
7
  6
CONTINUOUS
  0
VERTEX
 10
77.000000
 20
12.500000
 30
0.000000
  8
3
 62
7
  6
CONTINUOUS
  0
SEQEND
  0
SOLID
  8
3
 62
7
  6
CONTINUOUS
 10
76.000000
 20
87.500000
 11
76.000000
 21
92.500000
 12
77.000000
 22
87.500000
 13
77.000000
 23
92.500000
  0
POLYLINE
  8
3
 62
7
  6
CONTINUOUS
 70
1
 66
1
  0
VERTEX
 10
76.000000
 20
87.500000
 30
0.000000
  8
3
 62
7
  6
CONTINUOUS
  0
VERTEX
 10
76.000000
 20
92.500000
 30
0.000000
  8
3
 62
7
  6
CONTINUOUS
  0
VERTEX
 10
77.000000
 20
92.500000
 30
0.000000
  8
3
 62
7
  6
CONTINUOUS
  0
VERTEX
 10
77.000000
 20
87.500000
 30
0.000000
  8
3
 62
7
  6
CONTINUOUS
  0
SEQEND
  0
CIRCLE
  8
3
 62
7
  6
CONTINUOUS
 10
42.500000
 20
85.000000
 30
0.0
 40
0.800000
  0
CIRCLE
  8
3
 62
7
  6
CONTINUOUS
 10
42.500000
 20
85.000000
 30
0.0
 40
1.200000
  0
POLYLINE
  8
3
 62
7
  6
CONTINUOUS
 70
0
 66
1
  0
VERTEX
 10
42.500000
 20
86.700000
  8
3
 62
7
  6
CONTINUOUS
  0
VERTEX
 10
42.500000
 20
83.300000
  8
3
 62
7
  6
CONTINUOUS
  0
SEQEND
  0
POLYLINE
  8
3
 62
7
  6
CONTINUOUS
 70
0
 66
1
  0
VERTEX
 10
44.200000
 20
85.000000
  8
3
 62
7
  6
CONTINUOUS
  0
VERTEX
 10
40.800000
 20
85.000000
  8
3
 62
7
  6
CONTINUOUS
  0
SEQEND
  0
CIRCLE
  8
3
 62
7
  6
CONTINUOUS
 10
42.500000
 20
15.000000
 30
0.0
 40
0.800000
  0
CIRCLE
  8
3
 62
7
  6
CONTINUOUS
 10
42.500000
 20
15.000000
 30
0.0
 40
1.200000
  0
POLYLINE
  8
3
 62
7
  6
CONTINUOUS
 70
0
 66
1
  0
VERTEX
 10
42.500000
 20
16.700000
  8
3
 62
7
  6
CONTINUOUS
  0
VERTEX
 10
42.500000
 20
13.300000
  8
3
 62
7
  6
CONTINUOUS
  0
SEQEND
  0
POLYLINE
  8
3
 62
7
  6
CONTINUOUS
 70
0
 66
1
  0
VERTEX
 10
44.200000
 20
15.000000
  8
3
 62
7
  6
CONTINUOUS
  0
VERTEX
 10
40.800000
 20
15.000000
  8
3
 62
7
  6
CONTINUOUS
  0
SEQEND
  0
SOLID
  8
3
 62
7
  6
CONTINUOUS
 10
-1.000000
 20
12.500000
 11
-1.000000
 21
7.500000
 12
-2.000000
 22
12.500000
 13
-2.000000
 23
7.500000
  0
POLYLINE
  8
3
 62
7
  6
CONTINUOUS
 70
1
 66
1
  0
VERTEX
 10
-1.000000
 20
12.500000
 30
0.000000
  8
3
 62
7
  6
CONTINUOUS
  0
VERTEX
 10
-1.000000
 20
7.500000
 30
0.000000
  8
3
 62
7
  6
CONTINUOUS
  0
VERTEX
 10
-2.000000
 20
7.500000
 30
0.000000
  8
3
 62
7
  6
CONTINUOUS
  0
VERTEX
 10
-2.000000
 20
12.500000
 30
0.000000
  8
3
 62
7
  6
CONTINUOUS
  0
SEQEND
  0
SOLID
  8
3
 62
7
  6
CONTINUOUS
 10
-1.000000
 20
87.500000
 11
-1.000000
 21
92.500000
 12
-2.000000
 22
87.500000
 13
-2.000000
 23
92.500000
  0
POLYLINE
  8
3
 62
7
  6
CONTINUOUS
 70
1
 66
1
  0
VERTEX
 10
-1.000000
 20
87.500000
 30
0.000000
  8
3
 62
7
  6
CONTINUOUS
  0
VERTEX
 10
-1.000000
 20
92.500000
 30
0.000000
  8
3
 62
7
  6
CONTINUOUS
  0
VERTEX
 10
-2.000000
 20
92.500000
 30
0.000000
  8
3
 62
7
  6
CONTINUOUS
  0
VERTEX
 10
-2.000000
 20
87.500000
 30
0.000000
  8
3
 62
7
  6
CONTINUOUS
  0
SEQEND
  0
CIRCLE
  8
3
 62
7
  6
CONTINUOUS
 10
32.500000
 20
85.000000
 30
0.0
 40
0.800000
  0
CIRCLE
  8
3
 62
7
  6
CONTINUOUS
 10
32.500000
 20
85.000000
 30
0.0
 40
1.200000
  0
POLYLINE
  8
3
 62
7
  6
CONTINUOUS
 70
0
 66
1
  0
VERTEX
 10
32.500000
 20
86.700000
  8
3
 62
7
  6
CONTINUOUS
  0
VERTEX
 10
32.500000
 20
83.300000
  8
3
 62
7
  6
CONTINUOUS
  0
SEQEND
  0
POLYLINE
  8
3
 62
7
  6
CONTINUOUS
 70
0
 66
1
  0
VERTEX
 10
30.800000
 20
85.000000
  8
3
 62
7
  6
CONTINUOUS
  0
VERTEX
 10
34.200000
 20
85.000000
  8
3
 62
7
  6
CONTINUOUS
  0
SEQEND
  0
CIRCLE
  8
3
 62
7
  6
CONTINUOUS
 10
32.500000
 20
15.000000
 30
0.0
 40
0.800000
  0
CIRCLE
  8
3
 62
7
  6
CONTINUOUS
 10
32.500000
 20
15.000000
 30
0.0
 40
1.200000
  0
POLYLINE
  8
3
 62
7
  6
CONTINUOUS
 70
0
 66
1
  0
VERTEX
 10
32.500000
 20
16.700000
  8
3
 62
7
  6
CONTINUOUS
  0
VERTEX
 10
32.500000
 20
13.300000
  8
3
 62
7
  6
CONTINUOUS
  0
SEQEND
  0
POLYLINE
  8
3
 62
7
  6
CONTINUOUS
 70
0
 66
1
  0
VERTEX
 10
30.800000
 20
15.000000
  8
3
 62
7
  6
CONTINUOUS
  0
VERTEX
 10
34.200000
 20
15.000000
  8
3
 62
7
  6
CONTINUOUS
  0
SEQEND
  0
ENDBLK
  0
ENDSEC
  0
SECTION
  2
ENTITIES
  0
INSERT
  8
0
 2
bayern_stand
 10
0.000000
 20
0.000000
 30
0.0
 50
0.0
  0
INSERT
  8
0
 2
tzw310
 10
0.000000
 20
0.000000
 30
0.0
 50
0.0
  0
INSERT
  8
1
 2
ks4276
 10
0.000000
 20
0.000000
 30
0.0
 50
0.0
  0
INSERT
  8
3
 2
bayern_mess_tuer_1
 10
0.000000
 20
105.000000
 30
0.0
 50
0.0
  0
INSERT
  8
3
 2
bayern_stand_tuer
 10
0.000000
 20
0.000000
 30
0.0
 50
0.0
  0
ENDSEC
  0
EOF
