  0
SECTION
  2
HEADER
  9
$ACADVER
  1
AC1009
  9
$INSBASE
 10
0.0
 20
0.0
 30
0.0
  9
$EXTMIN
 10
0.0
 20
0.0
 30
0.0
  9
$EXTMAX
 10
0.000000
 20
0.000000
 30
0.0
  9
$LIMMIN
 10
0.0
 20
0.0
  9
$LIMMAX
 10
0.000000
 20
0.000000
  0
ENDSEC
  0
SECTION
  2
TABLES
  0
TABLE
  2
LTYPE
 70
5
  0
LTYPE
  2
CONTINUOUS
 70
64
  3
Solid line
 72
65
 73
0
 40
0.000000
  0
LTYPE
  2
L000000020000FFFFFF
 70
64
  3
Solid line
 72
65
 73
0
 40
0.000000
  0
LTYPE
  2
L014100020032000000
 70
64
  3
- - - - - - - -
 72
65
 73
2
 40
0.500000
 49
0.300000
 49
-0.200000
  0
LTYPE
  2
L00A100020014000000
 70
64
  3
- - - - - - - -
 72
65
 73
2
 40
0.200000
 49
0.100000
 49
-0.100000
  0
LTYPE
  2
L000000030000000000
 70
64
  3
Solid line
 72
65
 73
0
 40
0.000000
  0
ENDTAB
  0
TABLE
  2
LAYER
 70
8
  0
LAYER
  2
0
 70
64
 62
7
  6
CONTINUOUS
  0
LAYER
  2
1
 70
64
 62
7
  6
CONTINUOUS
  0
LAYER
  2
2
 70
64
 62
7
  6
CONTINUOUS
  0
LAYER
  2
3
 70
64
 62
-7
  6
CONTINUOUS
  0
LAYER
  2
4
 70
64
 62
7
  6
CONTINUOUS
  0
LAYER
  2
5
 70
64
 62
7
  6
CONTINUOUS
  0
LAYER
  2
6
 70
64
 62
7
  6
CONTINUOUS
  0
LAYER
  2
7
 70
64
 62
-7
  6
CONTINUOUS
  0
LAYER
  2
8
 70
64
 62
7
  6
CONTINUOUS
  0
LAYER
  2
9
 70
64
 62
7
  6
CONTINUOUS
  0
LAYER
  2
10
 70
64
 62
-7
  6
CONTINUOUS
  0
LAYER
  2
11
 70
64
 62
-7
  6
CONTINUOUS
  0
LAYER
  2
12
 70
64
 62
7
  6
CONTINUOUS
  0
LAYER
  2
13
 70
64
 62
7
  6
CONTINUOUS
  0
LAYER
  2
14
 70
64
 62
7
  6
CONTINUOUS
  0
LAYER
  2
15
 70
64
 62
-7
  6
CONTINUOUS
  0
LAYER
  2
16
 70
64
 62
7
  6
CONTINUOUS
  0
LAYER
  2
17
 70
64
 62
7
  6
CONTINUOUS
  0
LAYER
  2
18
 70
64
 62
7
  6
CONTINUOUS
  0
LAYER
  2
19
 70
64
 62
7
  6
CONTINUOUS
  0
LAYER
  2
20
 70
64
 62
7
  6
CONTINUOUS
  0
LAYER
  2
21
 70
64
 62
7
  6
CONTINUOUS
  0
LAYER
  2
22
 70
64
 62
7
  6
CONTINUOUS
  0
LAYER
  2
23
 70
64
 62
7
  6
CONTINUOUS
  0
LAYER
  2
24
 70
64
 62
7
  6
CONTINUOUS
  0
LAYER
  2
25
 70
64
 62
7
  6
CONTINUOUS
  0
LAYER
  2
26
 70
64
 62
7
  6
CONTINUOUS
  0
LAYER
  2
27
 70
64
 62
7
  6
CONTINUOUS
  0
LAYER
  2
28
 70
64
 62
7
  6
CONTINUOUS
  0
LAYER
  2
29
 70
64
 62
-7
  6
CONTINUOUS
  0
LAYER
  2
30
 70
64
 62
7
  6
CONTINUOUS
  0
LAYER
  2
31
 70
64
 62
7
  6
CONTINUOUS
  0
LAYER
  2
32
 70
64
 62
7
  6
CONTINUOUS
  0
LAYER
  2
33
 70
64
 62
7
  6
CONTINUOUS
  0
LAYER
  2
34
 70
64
 62
7
  6
CONTINUOUS
  0
LAYER
  2
35
 70
64
 62
7
  6
CONTINUOUS
  0
LAYER
  2
36
 70
64
 62
7
  6
CONTINUOUS
  0
LAYER
  2
37
 70
64
 62
7
  6
CONTINUOUS
  0
LAYER
  2
38
 70
64
 62
-7
  6
CONTINUOUS
  0
LAYER
  2
39
 70
64
 62
-7
  6
CONTINUOUS
  0
LAYER
  2
40
 70
64
 62
7
  6
CONTINUOUS
  0
LAYER
  2
41
 70
64
 62
7
  6
CONTINUOUS
  0
LAYER
  2
42
 70
64
 62
7
  6
CONTINUOUS
  0
LAYER
  2
43
 70
64
 62
7
  6
CONTINUOUS
  0
LAYER
  2
44
 70
64
 62
7
  6
CONTINUOUS
  0
LAYER
  2
45
 70
64
 62
7
  6
CONTINUOUS
  0
LAYER
  2
46
 70
64
 62
7
  6
CONTINUOUS
  0
LAYER
  2
47
 70
64
 62
-7
  6
CONTINUOUS
  0
LAYER
  2
48
 70
64
 62
-7
  6
CONTINUOUS
  0
LAYER
  2
49
 70
64
 62
-7
  6
CONTINUOUS
  0
LAYER
  2
50
 70
64
 62
-7
  6
CONTINUOUS
  0
LAYER
  2
51
 70
64
 62
-7
  6
CONTINUOUS
  0
LAYER
  2
52
 70
64
 62
-7
  6
CONTINUOUS
  0
LAYER
  2
53
 70
64
 62
-7
  6
CONTINUOUS
  0
LAYER
  2
54
 70
64
 62
-7
  6
CONTINUOUS
  0
LAYER
  2
55
 70
64
 62
-7
  6
CONTINUOUS
  0
LAYER
  2
56
 70
64
 62
-7
  6
CONTINUOUS
  0
LAYER
  2
57
 70
64
 62
-7
  6
CONTINUOUS
  0
LAYER
  2
58
 70
64
 62
7
  6
CONTINUOUS
  0
LAYER
  2
59
 70
64
 62
-7
  6
CONTINUOUS
  0
LAYER
  2
60
 70
64
 62
7
  6
CONTINUOUS
  0
LAYER
  2
61
 70
64
 62
7
  6
CONTINUOUS
  0
LAYER
  2
62
 70
64
 62
7
  6
CONTINUOUS
  0
LAYER
  2
63
 70
64
 62
7
  6
CONTINUOUS
  0
LAYER
  2
64
 70
64
 62
7
  6
CONTINUOUS
  0
LAYER
  2
65
 70
64
 62
7
  6
CONTINUOUS
  0
LAYER
  2
66
 70
64
 62
7
  6
CONTINUOUS
  0
LAYER
  2
67
 70
64
 62
7
  6
CONTINUOUS
  0
LAYER
  2
68
 70
64
 62
7
  6
CONTINUOUS
  0
LAYER
  2
69
 70
64
 62
7
  6
CONTINUOUS
  0
LAYER
  2
70
 70
64
 62
7
  6
CONTINUOUS
  0
LAYER
  2
71
 70
64
 62
7
  6
CONTINUOUS
  0
LAYER
  2
72
 70
64
 62
7
  6
CONTINUOUS
  0
LAYER
  2
73
 70
64
 62
7
  6
CONTINUOUS
  0
LAYER
  2
74
 70
64
 62
7
  6
CONTINUOUS
  0
LAYER
  2
75
 70
64
 62
7
  6
CONTINUOUS
  0
LAYER
  2
76
 70
64
 62
7
  6
CONTINUOUS
  0
LAYER
  2
77
 70
64
 62
7
  6
CONTINUOUS
  0
LAYER
  2
78
 70
64
 62
7
  6
CONTINUOUS
  0
LAYER
  2
79
 70
64
 62
7
  6
CONTINUOUS
  0
LAYER
  2
80
 70
64
 62
7
  6
CONTINUOUS
  0
LAYER
  2
81
 70
64
 62
7
  6
CONTINUOUS
  0
LAYER
  2
82
 70
64
 62
7
  6
CONTINUOUS
  0
LAYER
  2
83
 70
64
 62
-7
  6
CONTINUOUS
  0
LAYER
  2
84
 70
64
 62
-7
  6
CONTINUOUS
  0
LAYER
  2
85
 70
64
 62
-7
  6
CONTINUOUS
  0
LAYER
  2
86
 70
64
 62
-7
  6
CONTINUOUS
  0
LAYER
  2
87
 70
64
 62
-7
  6
CONTINUOUS
  0
LAYER
  2
88
 70
64
 62
-7
  6
CONTINUOUS
  0
LAYER
  2
89
 70
64
 62
-7
  6
CONTINUOUS
  0
LAYER
  2
90
 70
64
 62
-7
  6
CONTINUOUS
  0
LAYER
  2
91
 70
64
 62
-7
  6
CONTINUOUS
  0
LAYER
  2
92
 70
64
 62
7
  6
CONTINUOUS
  0
LAYER
  2
93
 70
64
 62
7
  6
CONTINUOUS
  0
LAYER
  2
94
 70
64
 62
7
  6
CONTINUOUS
  0
LAYER
  2
95
 70
64
 62
7
  6
CONTINUOUS
  0
LAYER
  2
96
 70
64
 62
7
  6
CONTINUOUS
  0
LAYER
  2
97
 70
64
 62
7
  6
CONTINUOUS
  0
LAYER
  2
98
 70
64
 62
7
  6
CONTINUOUS
  0
LAYER
  2
99
 70
64
 62
7
  6
CONTINUOUS
  0
LAYER
  2
100
 70
64
 62
7
  6
CONTINUOUS
  0
LAYER
  2
101
 70
64
 62
7
  6
CONTINUOUS
  0
LAYER
  2
102
 70
64
 62
7
  6
CONTINUOUS
  0
LAYER
  2
103
 70
64
 62
7
  6
CONTINUOUS
  0
LAYER
  2
104
 70
64
 62
7
  6
CONTINUOUS
  0
LAYER
  2
105
 70
64
 62
7
  6
CONTINUOUS
  0
LAYER
  2
106
 70
64
 62
7
  6
CONTINUOUS
  0
LAYER
  2
107
 70
64
 62
7
  6
CONTINUOUS
  0
LAYER
  2
108
 70
64
 62
7
  6
CONTINUOUS
  0
LAYER
  2
109
 70
64
 62
7
  6
CONTINUOUS
  0
LAYER
  2
110
 70
64
 62
-7
  6
CONTINUOUS
  0
LAYER
  2
111
 70
64
 62
-7
  6
CONTINUOUS
  0
LAYER
  2
112
 70
64
 62
-7
  6
CONTINUOUS
  0
LAYER
  2
113
 70
64
 62
-7
  6
CONTINUOUS
  0
LAYER
  2
114
 70
64
 62
-7
  6
CONTINUOUS
  0
LAYER
  2
115
 70
64
 62
-7
  6
CONTINUOUS
  0
LAYER
  2
116
 70
64
 62
-7
  6
CONTINUOUS
  0
LAYER
  2
117
 70
64
 62
-7
  6
CONTINUOUS
  0
LAYER
  2
118
 70
64
 62
-7
  6
CONTINUOUS
  0
LAYER
  2
119
 70
64
 62
-7
  6
CONTINUOUS
  0
LAYER
  2
120
 70
64
 62
-7
  6
CONTINUOUS
  0
LAYER
  2
121
 70
64
 62
-7
  6
CONTINUOUS
  0
LAYER
  2
122
 70
64
 62
-7
  6
CONTINUOUS
  0
LAYER
  2
123
 70
64
 62
-7
  6
CONTINUOUS
  0
LAYER
  2
124
 70
64
 62
-7
  6
CONTINUOUS
  0
LAYER
  2
125
 70
64
 62
-7
  6
CONTINUOUS
  0
LAYER
  2
126
 70
64
 62
-7
  6
CONTINUOUS
  0
LAYER
  2
127
 70
64
 62
-7
  6
CONTINUOUS
  0
LAYER
  2
128
 70
64
 62
7
  6
CONTINUOUS
  0
LAYER
  2
129
 70
64
 62
7
  6
CONTINUOUS
  0
LAYER
  2
130
 70
64
 62
7
  6
CONTINUOUS
  0
LAYER
  2
131
 70
64
 62
7
  6
CONTINUOUS
  0
LAYER
  2
132
 70
64
 62
7
  6
CONTINUOUS
  0
LAYER
  2
133
 70
64
 62
7
  6
CONTINUOUS
  0
LAYER
  2
134
 70
64
 62
7
  6
CONTINUOUS
  0
LAYER
  2
135
 70
64
 62
7
  6
CONTINUOUS
  0
LAYER
  2
136
 70
64
 62
7
  6
CONTINUOUS
  0
LAYER
  2
137
 70
64
 62
7
  6
CONTINUOUS
  0
LAYER
  2
138
 70
64
 62
7
  6
CONTINUOUS
  0
LAYER
  2
139
 70
64
 62
7
  6
CONTINUOUS
  0
LAYER
  2
140
 70
64
 62
7
  6
CONTINUOUS
  0
LAYER
  2
141
 70
64
 62
7
  6
CONTINUOUS
  0
LAYER
  2
142
 70
64
 62
7
  6
CONTINUOUS
  0
LAYER
  2
143
 70
64
 62
7
  6
CONTINUOUS
  0
LAYER
  2
144
 70
64
 62
7
  6
CONTINUOUS
  0
LAYER
  2
145
 70
64
 62
7
  6
CONTINUOUS
  0
LAYER
  2
146
 70
64
 62
7
  6
CONTINUOUS
  0
LAYER
  2
147
 70
64
 62
7
  6
CONTINUOUS
  0
LAYER
  2
148
 70
64
 62
7
  6
CONTINUOUS
  0
LAYER
  2
149
 70
64
 62
7
  6
CONTINUOUS
  0
LAYER
  2
150
 70
64
 62
7
  6
CONTINUOUS
  0
LAYER
  2
151
 70
64
 62
7
  6
CONTINUOUS
  0
LAYER
  2
152
 70
64
 62
7
  6
CONTINUOUS
  0
LAYER
  2
153
 70
64
 62
7
  6
CONTINUOUS
  0
LAYER
  2
154
 70
64
 62
7
  6
CONTINUOUS
  0
LAYER
  2
155
 70
64
 62
-7
  6
CONTINUOUS
  0
LAYER
  2
156
 70
64
 62
-7
  6
CONTINUOUS
  0
LAYER
  2
157
 70
64
 62
-7
  6
CONTINUOUS
  0
LAYER
  2
158
 70
64
 62
-7
  6
CONTINUOUS
  0
LAYER
  2
159
 70
64
 62
-7
  6
CONTINUOUS
  0
LAYER
  2
160
 70
64
 62
-7
  6
CONTINUOUS
  0
LAYER
  2
161
 70
64
 62
-7
  6
CONTINUOUS
  0
LAYER
  2
162
 70
64
 62
-7
  6
CONTINUOUS
  0
LAYER
  2
163
 70
64
 62
-7
  6
CONTINUOUS
  0
LAYER
  2
164
 70
64
 62
7
  6
CONTINUOUS
  0
LAYER
  2
165
 70
64
 62
7
  6
CONTINUOUS
  0
LAYER
  2
166
 70
64
 62
7
  6
CONTINUOUS
  0
LAYER
  2
167
 70
64
 62
7
  6
CONTINUOUS
  0
LAYER
  2
168
 70
64
 62
7
  6
CONTINUOUS
  0
LAYER
  2
169
 70
64
 62
7
  6
CONTINUOUS
  0
LAYER
  2
170
 70
64
 62
7
  6
CONTINUOUS
  0
LAYER
  2
171
 70
64
 62
7
  6
CONTINUOUS
  0
LAYER
  2
172
 70
64
 62
7
  6
CONTINUOUS
  0
LAYER
  2
173
 70
64
 62
7
  6
CONTINUOUS
  0
LAYER
  2
174
 70
64
 62
7
  6
CONTINUOUS
  0
LAYER
  2
175
 70
64
 62
7
  6
CONTINUOUS
  0
LAYER
  2
176
 70
64
 62
7
  6
CONTINUOUS
  0
LAYER
  2
177
 70
64
 62
7
  6
CONTINUOUS
  0
LAYER
  2
178
 70
64
 62
7
  6
CONTINUOUS
  0
LAYER
  2
179
 70
64
 62
7
  6
CONTINUOUS
  0
LAYER
  2
180
 70
64
 62
7
  6
CONTINUOUS
  0
LAYER
  2
181
 70
64
 62
7
  6
CONTINUOUS
  0
LAYER
  2
182
 70
64
 62
7
  6
CONTINUOUS
  0
LAYER
  2
183
 70
64
 62
7
  6
CONTINUOUS
  0
LAYER
  2
184
 70
64
 62
7
  6
CONTINUOUS
  0
LAYER
  2
185
 70
64
 62
7
  6
CONTINUOUS
  0
LAYER
  2
186
 70
64
 62
7
  6
CONTINUOUS
  0
LAYER
  2
187
 70
64
 62
7
  6
CONTINUOUS
  0
LAYER
  2
188
 70
64
 62
7
  6
CONTINUOUS
  0
LAYER
  2
189
 70
64
 62
7
  6
CONTINUOUS
  0
LAYER
  2
190
 70
64
 62
7
  6
CONTINUOUS
  0
LAYER
  2
191
 70
64
 62
7
  6
CONTINUOUS
  0
LAYER
  2
192
 70
64
 62
7
  6
CONTINUOUS
  0
LAYER
  2
193
 70
64
 62
7
  6
CONTINUOUS
  0
LAYER
  2
194
 70
64
 62
7
  6
CONTINUOUS
  0
LAYER
  2
195
 70
64
 62
7
  6
CONTINUOUS
  0
LAYER
  2
196
 70
64
 62
7
  6
CONTINUOUS
  0
LAYER
  2
197
 70
64
 62
7
  6
CONTINUOUS
  0
LAYER
  2
198
 70
64
 62
7
  6
CONTINUOUS
  0
LAYER
  2
199
 70
64
 62
7
  6
CONTINUOUS
  0
ENDTAB
  0
ENDSEC
  0
SECTION
  2
BLOCKS
  0
BLOCK
  8
0
  2
2_5a
 70
 0
 10
0.0
 20
0.0
 30
0.0
  0
SOLID
  8
0
 62
255
  6
CONTINUOUS
 10
52.500000
 20
137.500000
 11
52.500000
 21
-2.500000
 12
-2.500000
 22
137.500000
 13
-2.500000
 23
-2.500000
  0
POLYLINE
  8
0
 62
7
  6
CONTINUOUS
 70
1
 66
1
  0
VERTEX
 10
52.500000
 20
137.500000
 30
0.000000
  8
0
 62
7
  6
CONTINUOUS
  0
VERTEX
 10
52.500000
 20
-2.500000
 30
0.000000
  8
0
 62
7
  6
CONTINUOUS
  0
VERTEX
 10
-2.500000
 20
-2.500000
 30
0.000000
  8
0
 62
7
  6
CONTINUOUS
  0
VERTEX
 10
-2.500000
 20
137.500000
 30
0.000000
  8
0
 62
7
  6
CONTINUOUS
  0
SEQEND
  0
POLYLINE
  8
0
 62
7
  6
CONTINUOUS
 70
1
 66
1
  0
VERTEX
 10
50.500000
 20
135.500000
 30
0.000000
  8
0
 62
7
  6
CONTINUOUS
  0
VERTEX
 10
50.500000
 20
-0.500000
 30
0.000000
  8
0
 62
7
  6
CONTINUOUS
  0
VERTEX
 10
-0.500000
 20
-0.500000
 30
0.000000
  8
0
 62
7
  6
CONTINUOUS
  0
VERTEX
 10
-0.500000
 20
135.500000
 30
0.000000
  8
0
 62
7
  6
CONTINUOUS
  0
SEQEND
  0
ENDBLK
  0
BLOCK
  8
0
  2
zb43
 70
 0
 10
0.0
 20
0.0
 30
0.0
  0
SOLID
  8
0
 62
255
  6
CONTINUOUS
 10
11.000000
 20
0.400000
 11
11.000000
 21
0.000000
 12
-11.000000
 22
0.400000
 13
-11.000000
 23
0.000000
  0
POLYLINE
  8
0
 62
7
  6
CONTINUOUS
 70
1
 66
1
  0
VERTEX
 10
11.000000
 20
0.400000
 30
0.000000
  8
0
 62
7
  6
CONTINUOUS
  0
VERTEX
 10
11.000000
 20
0.000000
 30
0.000000
  8
0
 62
7
  6
CONTINUOUS
  0
VERTEX
 10
-11.000000
 20
0.000000
 30
0.000000
  8
0
 62
7
  6
CONTINUOUS
  0
VERTEX
 10
-11.000000
 20
0.400000
 30
0.000000
  8
0
 62
7
  6
CONTINUOUS
  0
SEQEND
  0
ENDBLK
  0
BLOCK
  8
1
  2
128253
 70
 0
 10
0.0
 20
0.0
 30
0.0
  0
SOLID
  8
1
 62
255
  6
CONTINUOUS
 10
24.800000
 20
0.200000
 11
24.800000
 21
134.800000
 12
0.200000
 22
0.200000
 13
0.200000
 23
134.800000
  0
POLYLINE
  8
1
 62
7
  6
CONTINUOUS
 70
1
 66
1
  0
VERTEX
 10
24.800000
 20
0.200000
 30
0.000000
  8
1
 62
7
  6
CONTINUOUS
  0
VERTEX
 10
24.800000
 20
134.800000
 30
0.000000
  8
1
 62
7
  6
CONTINUOUS
  0
VERTEX
 10
0.200000
 20
134.800000
 30
0.000000
  8
1
 62
7
  6
CONTINUOUS
  0
VERTEX
 10
0.200000
 20
0.200000
 30
0.000000
  8
1
 62
7
  6
CONTINUOUS
  0
SEQEND
  0
LINE
  8
1
 62
7
  6
CONTINUOUS
 10
24.800000
 20
45.000000
 11
0.200000
 21
45.000000
  0
LINE
  8
1
 62
7
  6
CONTINUOUS
 10
24.800000
 20
30.000000
 11
0.200000
 21
30.000000
  0
LINE
  8
1
 62
7
  6
L000000030000000000
 10
14.000000
 20
42.500000
 11
11.000000
 21
42.500000
  0
LINE
  8
1
 62
7
  6
CONTINUOUS
 10
14.200000
 20
44.000000
 11
13.700000
 21
44.000000
  0
LINE
  8
1
 62
7
  6
CONTINUOUS
 10
10.800000
 20
44.000000
 11
11.300000
 21
44.000000
  0
LINE
  8
1
 62
7
  6
CONTINUOUS
 10
12.500000
 20
43.600000
 11
12.500000
 21
44.500000
  0
CIRCLE
  8
1
 62
7
  6
CONTINUOUS
 10
12.500000
 20
44.000000
 30
0.0
 40
0.700000
  0
LINE
  8
1
 62
7
  6
L000000030000000000
 10
14.000000
 20
27.500000
 11
11.000000
 21
27.500000
  0
LINE
  8
1
 62
7
  6
CONTINUOUS
 10
14.200000
 20
29.000000
 11
13.700000
 21
29.000000
  0
LINE
  8
1
 62
7
  6
CONTINUOUS
 10
10.800000
 20
29.000000
 11
11.300000
 21
29.000000
  0
LINE
  8
1
 62
7
  6
CONTINUOUS
 10
12.500000
 20
28.600000
 11
12.500000
 21
29.500000
  0
CIRCLE
  8
1
 62
7
  6
CONTINUOUS
 10
12.500000
 20
29.000000
 30
0.0
 40
0.700000
  0
POLYLINE
  8
1
 62
7
  6
CONTINUOUS
 70
1
 66
1
  0
VERTEX
 10
19.000000
 20
53.000000
 30
0.000000
  8
1
 62
7
  6
CONTINUOUS
  0
VERTEX
 10
19.000000
 20
49.000000
 30
0.000000
  8
1
 62
7
  6
CONTINUOUS
  0
VERTEX
 10
6.000000
 20
49.000000
 30
0.000000
  8
1
 62
7
  6
CONTINUOUS
  0
VERTEX
 10
6.000000
 20
53.000000
 30
0.000000
  8
1
 62
7
  6
CONTINUOUS
  0
SEQEND
  0
POLYLINE
  8
1
 62
7
  6
CONTINUOUS
 70
0
 66
1
  0
VERTEX
 10
12.000000
 20
82.000000
  8
1
 62
7
  6
CONTINUOUS
  0
VERTEX
 10
12.000000
 20
67.000000
  8
1
 62
7
  6
CONTINUOUS
  0
SEQEND
  0
POLYLINE
  8
1
 62
7
  6
CONTINUOUS
 70
0
 66
1
  0
VERTEX
 10
13.000000
 20
82.000000
  8
1
 62
7
  6
CONTINUOUS
  0
VERTEX
 10
13.000000
 20
67.000000
  8
1
 62
7
  6
CONTINUOUS
  0
SEQEND
  0
ARC
  8
1
 62
7
  6
CONTINUOUS
 10
12.500000
 20
81.900000
 30
0.000000
 40
0.500000
 50
11.309932
 51
168.690068
  0
ARC
  8
1
 62
7
  6
CONTINUOUS
 10
12.500000
 20
67.100000
 30
0.000000
 40
0.500000
 50
191.309932
 51
-11.309932
  0
ARC
  8
1
 62
7
  6
CONTINUOUS
 10
12.500000
 20
63.400000
 30
0.000000
 40
0.500000
 50
-11.309932
 51
191.309932
  0
ARC
  8
1
 62
7
  6
CONTINUOUS
 10
12.500000
 20
54.500000
 30
0.000000
 40
0.500000
 50
180.000000
 51
0.000000
  0
POLYLINE
  8
1
 62
7
  6
CONTINUOUS
 70
0
 66
1
  0
VERTEX
 10
12.000000
 20
63.200000
  8
1
 62
7
  6
CONTINUOUS
  0
VERTEX
 10
12.000000
 20
60.000000
  8
1
 62
7
  6
CONTINUOUS
  0
SEQEND
  0
POLYLINE
  8
1
 62
7
  6
CONTINUOUS
 70
0
 66
1
  0
VERTEX
 10
13.000000
 20
63.200000
  8
1
 62
7
  6
CONTINUOUS
  0
VERTEX
 10
13.000000
 20
60.000000
  8
1
 62
7
  6
CONTINUOUS
  0
SEQEND
  0
POLYLINE
  8
1
 62
7
  6
CONTINUOUS
 70
0
 66
1
  0
VERTEX
 10
12.000000
 20
56.800000
  8
1
 62
7
  6
CONTINUOUS
  0
VERTEX
 10
12.000000
 20
54.500000
  8
1
 62
7
  6
CONTINUOUS
  0
SEQEND
  0
POLYLINE
  8
1
 62
7
  6
CONTINUOUS
 70
0
 66
1
  0
VERTEX
 10
13.000000
 20
56.800000
  8
1
 62
7
  6
CONTINUOUS
  0
VERTEX
 10
13.000000
 20
54.500000
  8
1
 62
7
  6
CONTINUOUS
  0
SEQEND
  0
POLYLINE
  8
1
 62
7
  6
CONTINUOUS
 70
0
 66
1
  0
VERTEX
 10
11.500000
 20
60.000000
  8
1
 62
7
  6
CONTINUOUS
  0
VERTEX
 10
11.500000
 20
83.000000
  8
1
 62
7
  6
CONTINUOUS
  0
VERTEX
 10
13.500000
 20
83.000000
  8
1
 62
7
  6
CONTINUOUS
  0
VERTEX
 10
13.500000
 20
60.000000
  8
1
 62
7
  6
CONTINUOUS
  0
SEQEND
  0
POLYLINE
  8
1
 62
7
  6
CONTINUOUS
 70
0
 66
1
  0
VERTEX
 10
11.500000
 20
56.800000
  8
1
 62
7
  6
CONTINUOUS
  0
VERTEX
 10
11.500000
 20
53.000000
  8
1
 62
7
  6
CONTINUOUS
  0
SEQEND
  0
POLYLINE
  8
1
 62
7
  6
CONTINUOUS
 70
0
 66
1
  0
VERTEX
 10
13.500000
 20
56.800000
  8
1
 62
7
  6
CONTINUOUS
  0
VERTEX
 10
13.500000
 20
53.000000
  8
1
 62
7
  6
CONTINUOUS
  0
SEQEND
  0
POLYLINE
  8
1
 62
7
  6
CONTINUOUS
 70
1
 66
1
  0
VERTEX
 10
23.400000
 20
60.000000
 30
0.000000
  8
1
 62
7
  6
CONTINUOUS
  0
VERTEX
 10
23.400000
 20
56.800000
 30
0.000000
  8
1
 62
7
  6
CONTINUOUS
  0
VERTEX
 10
1.600000
 20
56.800000
 30
0.000000
  8
1
 62
7
  6
CONTINUOUS
  0
VERTEX
 10
1.600000
 20
60.000000
 30
0.000000
  8
1
 62
7
  6
CONTINUOUS
  0
SEQEND
  0
CIRCLE
  8
1
 62
7
  6
CONTINUOUS
 10
12.500000
 20
59.100000
 30
0.0
 40
0.500000
  0
LINE
  8
1
 62
7
  6
CONTINUOUS
 10
10.100000
 20
59.200000
 11
2.300000
 21
59.200000
  0
LINE
  8
1
 62
7
  6
CONTINUOUS
 10
10.100000
 20
58.600000
 11
2.300000
 21
58.600000
  0
ARC
  8
1
 62
7
  6
CONTINUOUS
 10
2.400000
 20
58.900000
 30
0.000000
 40
0.300000
 50
108.434949
 51
-108.434949
  0
ARC
  8
1
 62
7
  6
CONTINUOUS
 10
10.500000
 20
58.900000
 30
0.000000
 40
0.500000
 50
216.869898
 51
143.130102
  0
LINE
  8
1
 62
7
  6
CONTINUOUS
 10
14.900000
 20
59.200000
 11
22.700000
 21
59.200000
  0
LINE
  8
1
 62
7
  6
CONTINUOUS
 10
14.900000
 20
58.600000
 11
22.700000
 21
58.600000
  0
ARC
  8
1
 62
7
  6
CONTINUOUS
 10
22.600000
 20
58.900000
 30
0.000000
 40
0.300000
 50
-71.565051
 51
71.565051
  0
ARC
  8
1
 62
7
  6
CONTINUOUS
 10
14.500000
 20
58.900000
 30
0.000000
 40
0.500000
 50
36.869898
 51
-36.869898
  0
LINE
  8
1
 62
7
  6
CONTINUOUS
 10
10.100000
 20
57.700000
 11
2.300000
 21
57.700000
  0
LINE
  8
1
 62
7
  6
CONTINUOUS
 10
10.100000
 20
57.100000
 11
2.300000
 21
57.100000
  0
ARC
  8
1
 62
7
  6
CONTINUOUS
 10
2.400000
 20
57.400000
 30
0.000000
 40
0.300000
 50
108.434949
 51
-108.434949
  0
ARC
  8
1
 62
7
  6
CONTINUOUS
 10
10.500000
 20
57.400000
 30
0.000000
 40
0.500000
 50
216.869898
 51
143.130102
  0
LINE
  8
1
 62
7
  6
CONTINUOUS
 10
14.900000
 20
57.700000
 11
22.700000
 21
57.700000
  0
LINE
  8
1
 62
7
  6
CONTINUOUS
 10
14.900000
 20
57.100000
 11
22.700000
 21
57.100000
  0
ARC
  8
1
 62
7
  6
CONTINUOUS
 10
22.600000
 20
57.400000
 30
0.000000
 40
0.300000
 50
-71.565051
 51
71.565051
  0
ARC
  8
1
 62
7
  6
CONTINUOUS
 10
14.500000
 20
57.400000
 30
0.000000
 40
0.500000
 50
36.869898
 51
-36.869898
  0
CIRCLE
  8
1
 62
7
  6
CONTINUOUS
 10
12.500000
 20
64.600000
 30
0.0
 40
0.400000
  0
POLYLINE
  8
1
 62
7
  6
CONTINUOUS
 70
1
 66
1
  0
VERTEX
 10
16.500000
 20
50.400000
 30
0.000000
  8
1
 62
7
  6
CONTINUOUS
  0
VERTEX
 10
16.500000
 20
53.000000
 30
0.000000
  8
1
 62
7
  6
CONTINUOUS
  0
VERTEX
 10
8.500000
 20
53.000000
 30
0.000000
  8
1
 62
7
  6
CONTINUOUS
  0
VERTEX
 10
8.500000
 20
50.400000
 30
0.000000
  8
1
 62
7
  6
CONTINUOUS
  0
SEQEND
  0
POLYLINE
  8
1
 62
7
  6
CONTINUOUS
 70
1
 66
1
  0
VERTEX
 10
19.000000
 20
88.000000
 30
0.000000
  8
1
 62
7
  6
CONTINUOUS
  0
VERTEX
 10
19.000000
 20
84.000000
 30
0.000000
  8
1
 62
7
  6
CONTINUOUS
  0
VERTEX
 10
6.000000
 20
84.000000
 30
0.000000
  8
1
 62
7
  6
CONTINUOUS
  0
VERTEX
 10
6.000000
 20
88.000000
 30
0.000000
  8
1
 62
7
  6
CONTINUOUS
  0
SEQEND
  0
POLYLINE
  8
1
 62
7
  6
CONTINUOUS
 70
0
 66
1
  0
VERTEX
 10
12.000000
 20
117.000000
  8
1
 62
7
  6
CONTINUOUS
  0
VERTEX
 10
12.000000
 20
102.000000
  8
1
 62
7
  6
CONTINUOUS
  0
SEQEND
  0
POLYLINE
  8
1
 62
7
  6
CONTINUOUS
 70
0
 66
1
  0
VERTEX
 10
13.000000
 20
117.000000
  8
1
 62
7
  6
CONTINUOUS
  0
VERTEX
 10
13.000000
 20
102.000000
  8
1
 62
7
  6
CONTINUOUS
  0
SEQEND
  0
ARC
  8
1
 62
7
  6
CONTINUOUS
 10
12.500000
 20
116.900000
 30
0.000000
 40
0.500000
 50
11.309932
 51
168.690068
  0
ARC
  8
1
 62
7
  6
CONTINUOUS
 10
12.500000
 20
102.100000
 30
0.000000
 40
0.500000
 50
191.309932
 51
-11.309932
  0
ARC
  8
1
 62
7
  6
CONTINUOUS
 10
12.500000
 20
98.400000
 30
0.000000
 40
0.500000
 50
-11.309932
 51
191.309932
  0
ARC
  8
1
 62
7
  6
CONTINUOUS
 10
12.500000
 20
89.500000
 30
0.000000
 40
0.500000
 50
180.000000
 51
0.000000
  0
POLYLINE
  8
1
 62
7
  6
CONTINUOUS
 70
0
 66
1
  0
VERTEX
 10
12.000000
 20
98.200000
  8
1
 62
7
  6
CONTINUOUS
  0
VERTEX
 10
12.000000
 20
95.000000
  8
1
 62
7
  6
CONTINUOUS
  0
SEQEND
  0
POLYLINE
  8
1
 62
7
  6
CONTINUOUS
 70
0
 66
1
  0
VERTEX
 10
13.000000
 20
98.200000
  8
1
 62
7
  6
CONTINUOUS
  0
VERTEX
 10
13.000000
 20
95.000000
  8
1
 62
7
  6
CONTINUOUS
  0
SEQEND
  0
POLYLINE
  8
1
 62
7
  6
CONTINUOUS
 70
0
 66
1
  0
VERTEX
 10
12.000000
 20
91.800000
  8
1
 62
7
  6
CONTINUOUS
  0
VERTEX
 10
12.000000
 20
89.500000
  8
1
 62
7
  6
CONTINUOUS
  0
SEQEND
  0
POLYLINE
  8
1
 62
7
  6
CONTINUOUS
 70
0
 66
1
  0
VERTEX
 10
13.000000
 20
91.800000
  8
1
 62
7
  6
CONTINUOUS
  0
VERTEX
 10
13.000000
 20
89.500000
  8
1
 62
7
  6
CONTINUOUS
  0
SEQEND
  0
POLYLINE
  8
1
 62
7
  6
CONTINUOUS
 70
0
 66
1
  0
VERTEX
 10
11.500000
 20
95.000000
  8
1
 62
7
  6
CONTINUOUS
  0
VERTEX
 10
11.500000
 20
118.000000
  8
1
 62
7
  6
CONTINUOUS
  0
VERTEX
 10
13.500000
 20
118.000000
  8
1
 62
7
  6
CONTINUOUS
  0
VERTEX
 10
13.500000
 20
95.000000
  8
1
 62
7
  6
CONTINUOUS
  0
SEQEND
  0
POLYLINE
  8
1
 62
7
  6
CONTINUOUS
 70
0
 66
1
  0
VERTEX
 10
11.500000
 20
91.800000
  8
1
 62
7
  6
CONTINUOUS
  0
VERTEX
 10
11.500000
 20
88.000000
  8
1
 62
7
  6
CONTINUOUS
  0
SEQEND
  0
POLYLINE
  8
1
 62
7
  6
CONTINUOUS
 70
0
 66
1
  0
VERTEX
 10
13.500000
 20
91.800000
  8
1
 62
7
  6
CONTINUOUS
  0
VERTEX
 10
13.500000
 20
88.000000
  8
1
 62
7
  6
CONTINUOUS
  0
SEQEND
  0
POLYLINE
  8
1
 62
7
  6
CONTINUOUS
 70
1
 66
1
  0
VERTEX
 10
23.400000
 20
95.000000
 30
0.000000
  8
1
 62
7
  6
CONTINUOUS
  0
VERTEX
 10
23.400000
 20
91.800000
 30
0.000000
  8
1
 62
7
  6
CONTINUOUS
  0
VERTEX
 10
1.600000
 20
91.800000
 30
0.000000
  8
1
 62
7
  6
CONTINUOUS
  0
VERTEX
 10
1.600000
 20
95.000000
 30
0.000000
  8
1
 62
7
  6
CONTINUOUS
  0
SEQEND
  0
CIRCLE
  8
1
 62
7
  6
CONTINUOUS
 10
12.500000
 20
94.100000
 30
0.0
 40
0.500000
  0
LINE
  8
1
 62
7
  6
CONTINUOUS
 10
10.100000
 20
94.200000
 11
2.300000
 21
94.200000
  0
LINE
  8
1
 62
7
  6
CONTINUOUS
 10
10.100000
 20
93.600000
 11
2.300000
 21
93.600000
  0
ARC
  8
1
 62
7
  6
CONTINUOUS
 10
2.400000
 20
93.900000
 30
0.000000
 40
0.300000
 50
108.434949
 51
-108.434949
  0
ARC
  8
1
 62
7
  6
CONTINUOUS
 10
10.500000
 20
93.900000
 30
0.000000
 40
0.500000
 50
216.869898
 51
143.130102
  0
LINE
  8
1
 62
7
  6
CONTINUOUS
 10
14.900000
 20
94.200000
 11
22.700000
 21
94.200000
  0
LINE
  8
1
 62
7
  6
CONTINUOUS
 10
14.900000
 20
93.600000
 11
22.700000
 21
93.600000
  0
ARC
  8
1
 62
7
  6
CONTINUOUS
 10
22.600000
 20
93.900000
 30
0.000000
 40
0.300000
 50
-71.565051
 51
71.565051
  0
ARC
  8
1
 62
7
  6
CONTINUOUS
 10
14.500000
 20
93.900000
 30
0.000000
 40
0.500000
 50
36.869898
 51
-36.869898
  0
LINE
  8
1
 62
7
  6
CONTINUOUS
 10
10.100000
 20
92.700000
 11
2.300000
 21
92.700000
  0
LINE
  8
1
 62
7
  6
CONTINUOUS
 10
10.100000
 20
92.100000
 11
2.300000
 21
92.100000
  0
ARC
  8
1
 62
7
  6
CONTINUOUS
 10
2.400000
 20
92.400000
 30
0.000000
 40
0.300000
 50
108.434949
 51
-108.434949
  0
ARC
  8
1
 62
7
  6
CONTINUOUS
 10
10.500000
 20
92.400000
 30
0.000000
 40
0.500000
 50
216.869898
 51
143.130102
  0
LINE
  8
1
 62
7
  6
CONTINUOUS
 10
14.900000
 20
92.700000
 11
22.700000
 21
92.700000
  0
LINE
  8
1
 62
7
  6
CONTINUOUS
 10
14.900000
 20
92.100000
 11
22.700000
 21
92.100000
  0
ARC
  8
1
 62
7
  6
CONTINUOUS
 10
22.600000
 20
92.400000
 30
0.000000
 40
0.300000
 50
-71.565051
 51
71.565051
  0
ARC
  8
1
 62
7
  6
CONTINUOUS
 10
14.500000
 20
92.400000
 30
0.000000
 40
0.500000
 50
36.869898
 51
-36.869898
  0
CIRCLE
  8
1
 62
7
  6
CONTINUOUS
 10
12.500000
 20
99.600000
 30
0.0
 40
0.400000
  0
POLYLINE
  8
1
 62
7
  6
CONTINUOUS
 70
1
 66
1
  0
VERTEX
 10
16.500000
 20
85.400000
 30
0.000000
  8
1
 62
7
  6
CONTINUOUS
  0
VERTEX
 10
16.500000
 20
88.000000
 30
0.000000
  8
1
 62
7
  6
CONTINUOUS
  0
VERTEX
 10
8.500000
 20
88.000000
 30
0.000000
  8
1
 62
7
  6
CONTINUOUS
  0
VERTEX
 10
8.500000
 20
85.400000
 30
0.000000
  8
1
 62
7
  6
CONTINUOUS
  0
SEQEND
  0
POLYLINE
  8
1
 62
7
  6
L014100020032000000
 70
0
 66
1
  0
VERTEX
 10
0.200000
 20
35.200000
  8
1
 62
7
  6
L014100020032000000
  0
VERTEX
 10
24.800000
 20
35.200000
  8
1
 62
7
  6
L014100020032000000
  0
SEQEND
  0
POLYLINE
  8
1
 62
7
  6
L014100020032000000
 70
0
 66
1
  0
VERTEX
 10
0.200000
 20
39.800000
  8
1
 62
7
  6
L014100020032000000
  0
VERTEX
 10
24.800000
 20
39.800000
  8
1
 62
7
  6
L014100020032000000
  0
SEQEND
  0
POLYLINE
  8
1
 62
7
  6
CONTINUOUS
 70
0
 66
1
  0
VERTEX
 10
0.200000
 20
120.000000
  8
1
 62
7
  6
CONTINUOUS
  0
VERTEX
 10
24.800000
 20
120.000000
  8
1
 62
7
  6
CONTINUOUS
  0
SEQEND
  0
LINE
  8
1
 62
7
  6
CONTINUOUS
 10
14.200000
 20
121.000000
 11
13.700000
 21
121.000000
  0
LINE
  8
1
 62
7
  6
CONTINUOUS
 10
10.800000
 20
121.000000
 11
11.300000
 21
121.000000
  0
LINE
  8
1
 62
7
  6
CONTINUOUS
 10
12.500000
 20
121.400000
 11
12.500000
 21
120.500000
  0
CIRCLE
  8
1
 62
7
  6
CONTINUOUS
 10
12.500000
 20
121.000000
 30
0.0
 40
0.700000
  0
LINE
  8
1
 62
7
  6
L000000030000000000
 10
14.000000
 20
122.500000
 11
11.000000
 21
122.500000
  0
SOLID
  8
29
 62
255
  6
CONTINUOUS
 10
24.800000
 20
0.200000
 11
24.800000
 21
134.800000
 12
0.200000
 22
0.200000
 13
0.200000
 23
134.800000
  0
POLYLINE
  8
29
 62
7
  6
CONTINUOUS
 70
1
 66
1
  0
VERTEX
 10
24.800000
 20
0.200000
 30
0.000000
  8
29
 62
7
  6
CONTINUOUS
  0
VERTEX
 10
24.800000
 20
134.800000
 30
0.000000
  8
29
 62
7
  6
CONTINUOUS
  0
VERTEX
 10
0.200000
 20
134.800000
 30
0.000000
  8
29
 62
7
  6
CONTINUOUS
  0
VERTEX
 10
0.200000
 20
0.200000
 30
0.000000
  8
29
 62
7
  6
CONTINUOUS
  0
SEQEND
  0
LINE
  8
29
 62
7
  6
CONTINUOUS
 10
25.000000
 20
45.000000
 11
0.000000
 21
45.000000
  0
LINE
  8
29
 62
7
  6
CONTINUOUS
 10
24.800000
 20
30.000000
 11
0.200000
 21
30.000000
  0
POLYLINE
  8
29
 62
7
  6
CONTINUOUS
 70
1
 66
1
  0
VERTEX
 10
19.000000
 20
53.000000
 30
0.000000
  8
29
 62
7
  6
CONTINUOUS
  0
VERTEX
 10
19.000000
 20
49.000000
 30
0.000000
  8
29
 62
7
  6
CONTINUOUS
  0
VERTEX
 10
6.000000
 20
49.000000
 30
0.000000
  8
29
 62
7
  6
CONTINUOUS
  0
VERTEX
 10
6.000000
 20
53.000000
 30
0.000000
  8
29
 62
7
  6
CONTINUOUS
  0
SEQEND
  0
POLYLINE
  8
29
 62
7
  6
CONTINUOUS
 70
0
 66
1
  0
VERTEX
 10
12.000000
 20
82.000000
  8
29
 62
7
  6
CONTINUOUS
  0
VERTEX
 10
12.000000
 20
67.000000
  8
29
 62
7
  6
CONTINUOUS
  0
SEQEND
  0
POLYLINE
  8
29
 62
7
  6
CONTINUOUS
 70
0
 66
1
  0
VERTEX
 10
13.000000
 20
82.000000
  8
29
 62
7
  6
CONTINUOUS
  0
VERTEX
 10
13.000000
 20
67.000000
  8
29
 62
7
  6
CONTINUOUS
  0
SEQEND
  0
ARC
  8
29
 62
7
  6
CONTINUOUS
 10
12.500000
 20
81.900000
 30
0.000000
 40
0.500000
 50
11.309932
 51
168.690068
  0
ARC
  8
29
 62
7
  6
CONTINUOUS
 10
12.500000
 20
67.100000
 30
0.000000
 40
0.500000
 50
191.309932
 51
-11.309932
  0
ARC
  8
29
 62
7
  6
CONTINUOUS
 10
12.500000
 20
63.400000
 30
0.000000
 40
0.500000
 50
-11.309932
 51
191.309932
  0
ARC
  8
29
 62
7
  6
CONTINUOUS
 10
12.500000
 20
54.500000
 30
0.000000
 40
0.500000
 50
180.000000
 51
0.000000
  0
POLYLINE
  8
29
 62
7
  6
CONTINUOUS
 70
0
 66
1
  0
VERTEX
 10
12.000000
 20
63.200000
  8
29
 62
7
  6
CONTINUOUS
  0
VERTEX
 10
12.000000
 20
60.000000
  8
29
 62
7
  6
CONTINUOUS
  0
SEQEND
  0
POLYLINE
  8
29
 62
7
  6
CONTINUOUS
 70
0
 66
1
  0
VERTEX
 10
13.000000
 20
63.200000
  8
29
 62
7
  6
CONTINUOUS
  0
VERTEX
 10
13.000000
 20
60.000000
  8
29
 62
7
  6
CONTINUOUS
  0
SEQEND
  0
POLYLINE
  8
29
 62
7
  6
CONTINUOUS
 70
0
 66
1
  0
VERTEX
 10
12.000000
 20
56.800000
  8
29
 62
7
  6
CONTINUOUS
  0
VERTEX
 10
12.000000
 20
54.500000
  8
29
 62
7
  6
CONTINUOUS
  0
SEQEND
  0
POLYLINE
  8
29
 62
7
  6
CONTINUOUS
 70
0
 66
1
  0
VERTEX
 10
13.000000
 20
56.800000
  8
29
 62
7
  6
CONTINUOUS
  0
VERTEX
 10
13.000000
 20
54.500000
  8
29
 62
7
  6
CONTINUOUS
  0
SEQEND
  0
POLYLINE
  8
29
 62
7
  6
CONTINUOUS
 70
0
 66
1
  0
VERTEX
 10
11.500000
 20
60.000000
  8
29
 62
7
  6
CONTINUOUS
  0
VERTEX
 10
11.500000
 20
83.000000
  8
29
 62
7
  6
CONTINUOUS
  0
VERTEX
 10
13.500000
 20
83.000000
  8
29
 62
7
  6
CONTINUOUS
  0
VERTEX
 10
13.500000
 20
60.000000
  8
29
 62
7
  6
CONTINUOUS
  0
SEQEND
  0
POLYLINE
  8
29
 62
7
  6
CONTINUOUS
 70
0
 66
1
  0
VERTEX
 10
11.500000
 20
56.800000
  8
29
 62
7
  6
CONTINUOUS
  0
VERTEX
 10
11.500000
 20
53.000000
  8
29
 62
7
  6
CONTINUOUS
  0
SEQEND
  0
POLYLINE
  8
29
 62
7
  6
CONTINUOUS
 70
0
 66
1
  0
VERTEX
 10
13.500000
 20
56.800000
  8
29
 62
7
  6
CONTINUOUS
  0
VERTEX
 10
13.500000
 20
53.000000
  8
29
 62
7
  6
CONTINUOUS
  0
SEQEND
  0
POLYLINE
  8
29
 62
7
  6
CONTINUOUS
 70
1
 66
1
  0
VERTEX
 10
23.400000
 20
60.000000
 30
0.000000
  8
29
 62
7
  6
CONTINUOUS
  0
VERTEX
 10
23.400000
 20
56.800000
 30
0.000000
  8
29
 62
7
  6
CONTINUOUS
  0
VERTEX
 10
1.600000
 20
56.800000
 30
0.000000
  8
29
 62
7
  6
CONTINUOUS
  0
VERTEX
 10
1.600000
 20
60.000000
 30
0.000000
  8
29
 62
7
  6
CONTINUOUS
  0
SEQEND
  0
CIRCLE
  8
29
 62
7
  6
CONTINUOUS
 10
12.500000
 20
59.100000
 30
0.0
 40
0.500000
  0
LINE
  8
29
 62
7
  6
CONTINUOUS
 10
10.100000
 20
59.200000
 11
2.300000
 21
59.200000
  0
LINE
  8
29
 62
7
  6
CONTINUOUS
 10
10.100000
 20
58.600000
 11
2.300000
 21
58.600000
  0
ARC
  8
29
 62
7
  6
CONTINUOUS
 10
2.400000
 20
58.900000
 30
0.000000
 40
0.300000
 50
108.434949
 51
-108.434949
  0
ARC
  8
29
 62
7
  6
CONTINUOUS
 10
10.500000
 20
58.900000
 30
0.000000
 40
0.500000
 50
216.869898
 51
143.130102
  0
LINE
  8
29
 62
7
  6
CONTINUOUS
 10
14.900000
 20
59.200000
 11
22.700000
 21
59.200000
  0
LINE
  8
29
 62
7
  6
CONTINUOUS
 10
14.900000
 20
58.600000
 11
22.700000
 21
58.600000
  0
ARC
  8
29
 62
7
  6
CONTINUOUS
 10
22.600000
 20
58.900000
 30
0.000000
 40
0.300000
 50
-71.565051
 51
71.565051
  0
ARC
  8
29
 62
7
  6
CONTINUOUS
 10
14.500000
 20
58.900000
 30
0.000000
 40
0.500000
 50
36.869898
 51
-36.869898
  0
LINE
  8
29
 62
7
  6
CONTINUOUS
 10
10.100000
 20
57.700000
 11
2.300000
 21
57.700000
  0
LINE
  8
29
 62
7
  6
CONTINUOUS
 10
10.100000
 20
57.100000
 11
2.300000
 21
57.100000
  0
ARC
  8
29
 62
7
  6
CONTINUOUS
 10
2.400000
 20
57.400000
 30
0.000000
 40
0.300000
 50
108.434949
 51
-108.434949
  0
ARC
  8
29
 62
7
  6
CONTINUOUS
 10
10.500000
 20
57.400000
 30
0.000000
 40
0.500000
 50
216.869898
 51
143.130102
  0
LINE
  8
29
 62
7
  6
CONTINUOUS
 10
14.900000
 20
57.700000
 11
22.700000
 21
57.700000
  0
LINE
  8
29
 62
7
  6
CONTINUOUS
 10
14.900000
 20
57.100000
 11
22.700000
 21
57.100000
  0
ARC
  8
29
 62
7
  6
CONTINUOUS
 10
22.600000
 20
57.400000
 30
0.000000
 40
0.300000
 50
-71.565051
 51
71.565051
  0
ARC
  8
29
 62
7
  6
CONTINUOUS
 10
14.500000
 20
57.400000
 30
0.000000
 40
0.500000
 50
36.869898
 51
-36.869898
  0
CIRCLE
  8
29
 62
7
  6
CONTINUOUS
 10
12.500000
 20
64.600000
 30
0.0
 40
0.400000
  0
POLYLINE
  8
29
 62
7
  6
CONTINUOUS
 70
1
 66
1
  0
VERTEX
 10
16.500000
 20
50.400000
 30
0.000000
  8
29
 62
7
  6
CONTINUOUS
  0
VERTEX
 10
16.500000
 20
53.000000
 30
0.000000
  8
29
 62
7
  6
CONTINUOUS
  0
VERTEX
 10
8.500000
 20
53.000000
 30
0.000000
  8
29
 62
7
  6
CONTINUOUS
  0
VERTEX
 10
8.500000
 20
50.400000
 30
0.000000
  8
29
 62
7
  6
CONTINUOUS
  0
SEQEND
  0
POLYLINE
  8
29
 62
7
  6
CONTINUOUS
 70
1
 66
1
  0
VERTEX
 10
19.000000
 20
88.000000
 30
0.000000
  8
29
 62
7
  6
CONTINUOUS
  0
VERTEX
 10
19.000000
 20
84.000000
 30
0.000000
  8
29
 62
7
  6
CONTINUOUS
  0
VERTEX
 10
6.000000
 20
84.000000
 30
0.000000
  8
29
 62
7
  6
CONTINUOUS
  0
VERTEX
 10
6.000000
 20
88.000000
 30
0.000000
  8
29
 62
7
  6
CONTINUOUS
  0
SEQEND
  0
POLYLINE
  8
29
 62
7
  6
CONTINUOUS
 70
0
 66
1
  0
VERTEX
 10
12.000000
 20
117.000000
  8
29
 62
7
  6
CONTINUOUS
  0
VERTEX
 10
12.000000
 20
102.000000
  8
29
 62
7
  6
CONTINUOUS
  0
SEQEND
  0
POLYLINE
  8
29
 62
7
  6
CONTINUOUS
 70
0
 66
1
  0
VERTEX
 10
13.000000
 20
117.000000
  8
29
 62
7
  6
CONTINUOUS
  0
VERTEX
 10
13.000000
 20
102.000000
  8
29
 62
7
  6
CONTINUOUS
  0
SEQEND
  0
ARC
  8
29
 62
7
  6
CONTINUOUS
 10
12.500000
 20
116.900000
 30
0.000000
 40
0.500000
 50
11.309932
 51
168.690068
  0
ARC
  8
29
 62
7
  6
CONTINUOUS
 10
12.500000
 20
102.100000
 30
0.000000
 40
0.500000
 50
191.309932
 51
-11.309932
  0
ARC
  8
29
 62
7
  6
CONTINUOUS
 10
12.500000
 20
98.400000
 30
0.000000
 40
0.500000
 50
-11.309932
 51
191.309932
  0
ARC
  8
29
 62
7
  6
CONTINUOUS
 10
12.500000
 20
89.500000
 30
0.000000
 40
0.500000
 50
180.000000
 51
0.000000
  0
POLYLINE
  8
29
 62
7
  6
CONTINUOUS
 70
0
 66
1
  0
VERTEX
 10
12.000000
 20
98.200000
  8
29
 62
7
  6
CONTINUOUS
  0
VERTEX
 10
12.000000
 20
95.000000
  8
29
 62
7
  6
CONTINUOUS
  0
SEQEND
  0
POLYLINE
  8
29
 62
7
  6
CONTINUOUS
 70
0
 66
1
  0
VERTEX
 10
13.000000
 20
98.200000
  8
29
 62
7
  6
CONTINUOUS
  0
VERTEX
 10
13.000000
 20
95.000000
  8
29
 62
7
  6
CONTINUOUS
  0
SEQEND
  0
POLYLINE
  8
29
 62
7
  6
CONTINUOUS
 70
0
 66
1
  0
VERTEX
 10
12.000000
 20
91.800000
  8
29
 62
7
  6
CONTINUOUS
  0
VERTEX
 10
12.000000
 20
89.500000
  8
29
 62
7
  6
CONTINUOUS
  0
SEQEND
  0
POLYLINE
  8
29
 62
7
  6
CONTINUOUS
 70
0
 66
1
  0
VERTEX
 10
13.000000
 20
91.800000
  8
29
 62
7
  6
CONTINUOUS
  0
VERTEX
 10
13.000000
 20
89.500000
  8
29
 62
7
  6
CONTINUOUS
  0
SEQEND
  0
POLYLINE
  8
29
 62
7
  6
CONTINUOUS
 70
0
 66
1
  0
VERTEX
 10
11.500000
 20
95.000000
  8
29
 62
7
  6
CONTINUOUS
  0
VERTEX
 10
11.500000
 20
118.000000
  8
29
 62
7
  6
CONTINUOUS
  0
VERTEX
 10
13.500000
 20
118.000000
  8
29
 62
7
  6
CONTINUOUS
  0
VERTEX
 10
13.500000
 20
95.000000
  8
29
 62
7
  6
CONTINUOUS
  0
SEQEND
  0
POLYLINE
  8
29
 62
7
  6
CONTINUOUS
 70
0
 66
1
  0
VERTEX
 10
11.500000
 20
91.800000
  8
29
 62
7
  6
CONTINUOUS
  0
VERTEX
 10
11.500000
 20
88.000000
  8
29
 62
7
  6
CONTINUOUS
  0
SEQEND
  0
POLYLINE
  8
29
 62
7
  6
CONTINUOUS
 70
0
 66
1
  0
VERTEX
 10
13.500000
 20
91.800000
  8
29
 62
7
  6
CONTINUOUS
  0
VERTEX
 10
13.500000
 20
88.000000
  8
29
 62
7
  6
CONTINUOUS
  0
SEQEND
  0
POLYLINE
  8
29
 62
7
  6
CONTINUOUS
 70
1
 66
1
  0
VERTEX
 10
23.400000
 20
95.000000
 30
0.000000
  8
29
 62
7
  6
CONTINUOUS
  0
VERTEX
 10
23.400000
 20
91.800000
 30
0.000000
  8
29
 62
7
  6
CONTINUOUS
  0
VERTEX
 10
1.600000
 20
91.800000
 30
0.000000
  8
29
 62
7
  6
CONTINUOUS
  0
VERTEX
 10
1.600000
 20
95.000000
 30
0.000000
  8
29
 62
7
  6
CONTINUOUS
  0
SEQEND
  0
CIRCLE
  8
29
 62
7
  6
CONTINUOUS
 10
12.500000
 20
94.100000
 30
0.0
 40
0.500000
  0
LINE
  8
29
 62
7
  6
CONTINUOUS
 10
10.100000
 20
94.200000
 11
2.300000
 21
94.200000
  0
LINE
  8
29
 62
7
  6
CONTINUOUS
 10
10.100000
 20
93.600000
 11
2.300000
 21
93.600000
  0
ARC
  8
29
 62
7
  6
CONTINUOUS
 10
2.400000
 20
93.900000
 30
0.000000
 40
0.300000
 50
108.434949
 51
-108.434949
  0
ARC
  8
29
 62
7
  6
CONTINUOUS
 10
10.500000
 20
93.900000
 30
0.000000
 40
0.500000
 50
216.869898
 51
143.130102
  0
LINE
  8
29
 62
7
  6
CONTINUOUS
 10
14.900000
 20
94.200000
 11
22.700000
 21
94.200000
  0
LINE
  8
29
 62
7
  6
CONTINUOUS
 10
14.900000
 20
93.600000
 11
22.700000
 21
93.600000
  0
ARC
  8
29
 62
7
  6
CONTINUOUS
 10
22.600000
 20
93.900000
 30
0.000000
 40
0.300000
 50
-71.565051
 51
71.565051
  0
ARC
  8
29
 62
7
  6
CONTINUOUS
 10
14.500000
 20
93.900000
 30
0.000000
 40
0.500000
 50
36.869898
 51
-36.869898
  0
LINE
  8
29
 62
7
  6
CONTINUOUS
 10
10.100000
 20
92.700000
 11
2.300000
 21
92.700000
  0
LINE
  8
29
 62
7
  6
CONTINUOUS
 10
10.100000
 20
92.100000
 11
2.300000
 21
92.100000
  0
ARC
  8
29
 62
7
  6
CONTINUOUS
 10
2.400000
 20
92.400000
 30
0.000000
 40
0.300000
 50
108.434949
 51
-108.434949
  0
ARC
  8
29
 62
7
  6
CONTINUOUS
 10
10.500000
 20
92.400000
 30
0.000000
 40
0.500000
 50
216.869898
 51
143.130102
  0
LINE
  8
29
 62
7
  6
CONTINUOUS
 10
14.900000
 20
92.700000
 11
22.700000
 21
92.700000
  0
LINE
  8
29
 62
7
  6
CONTINUOUS
 10
14.900000
 20
92.100000
 11
22.700000
 21
92.100000
  0
ARC
  8
29
 62
7
  6
CONTINUOUS
 10
22.600000
 20
92.400000
 30
0.000000
 40
0.300000
 50
-71.565051
 51
71.565051
  0
ARC
  8
29
 62
7
  6
CONTINUOUS
 10
14.500000
 20
92.400000
 30
0.000000
 40
0.500000
 50
36.869898
 51
-36.869898
  0
CIRCLE
  8
29
 62
7
  6
CONTINUOUS
 10
12.500000
 20
99.600000
 30
0.0
 40
0.400000
  0
POLYLINE
  8
29
 62
7
  6
CONTINUOUS
 70
1
 66
1
  0
VERTEX
 10
16.500000
 20
85.400000
 30
0.000000
  8
29
 62
7
  6
CONTINUOUS
  0
VERTEX
 10
16.500000
 20
88.000000
 30
0.000000
  8
29
 62
7
  6
CONTINUOUS
  0
VERTEX
 10
8.500000
 20
88.000000
 30
0.000000
  8
29
 62
7
  6
CONTINUOUS
  0
VERTEX
 10
8.500000
 20
85.400000
 30
0.000000
  8
29
 62
7
  6
CONTINUOUS
  0
SEQEND
  0
POLYLINE
  8
29
 62
7
  6
CONTINUOUS
 70
0
 66
1
  0
VERTEX
 10
0.400000
 20
36.300000
  8
29
 62
7
  6
CONTINUOUS
  0
VERTEX
 10
24.600000
 20
36.300000
  8
29
 62
7
  6
CONTINUOUS
  0
SEQEND
  0
POLYLINE
  8
29
 62
7
  6
CONTINUOUS
 70
0
 66
1
  0
VERTEX
 10
0.400000
 20
38.800000
  8
29
 62
7
  6
CONTINUOUS
  0
VERTEX
 10
24.600000
 20
38.800000
  8
29
 62
7
  6
CONTINUOUS
  0
SEQEND
  0
POLYLINE
  8
29
 62
7
  6
CONTINUOUS
 70
1
 66
1
  0
VERTEX
 10
24.600000
 20
35.800000
 30
0.000000
  8
29
 62
7
  6
CONTINUOUS
  0
VERTEX
 10
24.600000
 20
39.300000
 30
0.000000
  8
29
 62
7
  6
CONTINUOUS
  0
VERTEX
 10
0.400000
 20
39.300000
 30
0.000000
  8
29
 62
7
  6
CONTINUOUS
  0
VERTEX
 10
0.400000
 20
35.800000
 30
0.000000
  8
29
 62
7
  6
CONTINUOUS
  0
SEQEND
  0
POLYLINE
  8
29
 62
7
  6
CONTINUOUS
 70
0
 66
1
  0
VERTEX
 10
0.200000
 20
120.000000
  8
29
 62
7
  6
CONTINUOUS
  0
VERTEX
 10
24.800000
 20
120.000000
  8
29
 62
7
  6
CONTINUOUS
  0
SEQEND
  0
POLYLINE
  8
162
 62
7
  6
CONTINUOUS
 70
0
 66
1
  0
VERTEX
 10
0.200000
 20
31.800000
  8
162
 62
7
  6
CONTINUOUS
  0
VERTEX
 10
24.800000
 20
31.800000
  8
162
 62
7
  6
CONTINUOUS
  0
SEQEND
  0
POLYLINE
  8
162
 62
7
  6
CONTINUOUS
 70
0
 66
1
  0
VERTEX
 10
2.000000
 20
31.800000
  8
162
 62
7
  6
CONTINUOUS
  0
VERTEX
 10
2.000000
 20
30.000000
  8
162
 62
7
  6
CONTINUOUS
  0
SEQEND
  0
POLYLINE
  8
162
 62
7
  6
CONTINUOUS
 70
0
 66
1
  0
VERTEX
 10
23.000000
 20
31.800000
  8
162
 62
7
  6
CONTINUOUS
  0
VERTEX
 10
23.000000
 20
30.000000
  8
162
 62
7
  6
CONTINUOUS
  0
SEQEND
  0
SOLID
  8
162
 62
7
  6
CONTINUOUS
 10
24.400000
 20
30.400000
 11
24.400000
 21
31.400000
 12
23.400000
 22
30.400000
 13
23.400000
 23
31.400000
  0
POLYLINE
  8
162
 62
7
  6
CONTINUOUS
 70
1
 66
1
  0
VERTEX
 10
24.400000
 20
30.400000
 30
0.000000
  8
162
 62
7
  6
CONTINUOUS
  0
VERTEX
 10
24.400000
 20
31.400000
 30
0.000000
  8
162
 62
7
  6
CONTINUOUS
  0
VERTEX
 10
23.400000
 20
31.400000
 30
0.000000
  8
162
 62
7
  6
CONTINUOUS
  0
VERTEX
 10
23.400000
 20
30.400000
 30
0.000000
  8
162
 62
7
  6
CONTINUOUS
  0
SEQEND
  0
SOLID
  8
162
 62
7
  6
CONTINUOUS
 10
1.600000
 20
30.400000
 11
1.600000
 21
31.400000
 12
0.600000
 22
30.400000
 13
0.600000
 23
31.400000
  0
POLYLINE
  8
162
 62
7
  6
CONTINUOUS
 70
1
 66
1
  0
VERTEX
 10
1.600000
 20
30.400000
 30
0.000000
  8
162
 62
7
  6
CONTINUOUS
  0
VERTEX
 10
1.600000
 20
31.400000
 30
0.000000
  8
162
 62
7
  6
CONTINUOUS
  0
VERTEX
 10
0.600000
 20
31.400000
 30
0.000000
  8
162
 62
7
  6
CONTINUOUS
  0
VERTEX
 10
0.600000
 20
30.400000
 30
0.000000
  8
162
 62
7
  6
CONTINUOUS
  0
SEQEND
  0
ENDBLK
  0
BLOCK
  8
1
  2
cu-12x05-5pol-fb2
 70
 0
 10
0.0
 20
0.0
 30
0.0
  0
SOLID
  8
31
 62
255
  6
L000000020000FFFFFF
 10
49.400000
 20
5.500000
 11
49.400000
 21
28.000000
 12
48.000000
 22
5.500000
 13
48.000000
 23
28.000000
  0
POLYLINE
  8
31
 62
255
  6
L000000020000FFFFFF
 70
1
 66
1
  0
VERTEX
 10
49.400000
 20
5.500000
 30
0.000000
  8
31
 62
255
  6
L000000020000FFFFFF
  0
VERTEX
 10
49.400000
 20
28.000000
 30
0.000000
  8
31
 62
255
  6
L000000020000FFFFFF
  0
VERTEX
 10
48.000000
 20
28.000000
 30
0.000000
  8
31
 62
255
  6
L000000020000FFFFFF
  0
VERTEX
 10
48.000000
 20
5.500000
 30
0.000000
  8
31
 62
255
  6
L000000020000FFFFFF
  0
SEQEND
  0
SOLID
  8
31
 62
255
  6
L000000020000FFFFFF
 10
27.000000
 20
5.500000
 11
27.000000
 21
28.000000
 12
23.000000
 22
5.500000
 13
23.000000
 23
28.000000
  0
POLYLINE
  8
31
 62
255
  6
L000000020000FFFFFF
 70
1
 66
1
  0
VERTEX
 10
27.000000
 20
5.500000
 30
0.000000
  8
31
 62
255
  6
L000000020000FFFFFF
  0
VERTEX
 10
27.000000
 20
28.000000
 30
0.000000
  8
31
 62
255
  6
L000000020000FFFFFF
  0
VERTEX
 10
23.000000
 20
28.000000
 30
0.000000
  8
31
 62
255
  6
L000000020000FFFFFF
  0
VERTEX
 10
23.000000
 20
5.500000
 30
0.000000
  8
31
 62
255
  6
L000000020000FFFFFF
  0
SEQEND
  0
SOLID
  8
31
 62
255
  6
L000000020000FFFFFF
 10
2.000000
 20
5.500000
 11
2.000000
 21
28.000000
 12
0.600000
 22
5.500000
 13
0.600000
 23
28.000000
  0
POLYLINE
  8
31
 62
255
  6
L000000020000FFFFFF
 70
1
 66
1
  0
VERTEX
 10
2.000000
 20
5.500000
 30
0.000000
  8
31
 62
255
  6
L000000020000FFFFFF
  0
VERTEX
 10
2.000000
 20
28.000000
 30
0.000000
  8
31
 62
255
  6
L000000020000FFFFFF
  0
VERTEX
 10
0.600000
 20
28.000000
 30
0.000000
  8
31
 62
255
  6
L000000020000FFFFFF
  0
VERTEX
 10
0.600000
 20
5.500000
 30
0.000000
  8
31
 62
255
  6
L000000020000FFFFFF
  0
SEQEND
  0
LINE
  8
31
 62
7
  6
CONTINUOUS
 10
0.700000
 20
27.900000
 11
1.900000
 21
27.900000
  0
LINE
  8
31
 62
7
  6
L014100020032000000
 10
1.900000
 20
27.900000
 11
1.900000
 21
5.600000
  0
LINE
  8
31
 62
7
  6
L014100020032000000
 10
0.700000
 20
27.900000
 11
0.700000
 21
5.600000
  0
LINE
  8
31
 62
7
  6
CONTINUOUS
 10
0.700000
 20
5.600000
 11
1.900000
 21
5.600000
  0
LINE
  8
31
 62
7
  6
CONTINUOUS
 10
48.100000
 20
27.900000
 11
49.300000
 21
27.900000
  0
LINE
  8
31
 62
7
  6
L014100020032000000
 10
49.300000
 20
27.900000
 11
49.300000
 21
5.600000
  0
LINE
  8
31
 62
7
  6
L014100020032000000
 10
48.100000
 20
27.900000
 11
48.100000
 21
5.600000
  0
LINE
  8
31
 62
7
  6
CONTINUOUS
 10
48.100000
 20
5.600000
 11
49.300000
 21
5.600000
  0
LINE
  8
31
 62
7
  6
L014100020032000000
 10
23.100000
 20
27.900000
 11
26.900000
 21
27.900000
  0
LINE
  8
31
 62
7
  6
L014100020032000000
 10
27.000000
 20
27.900000
 11
27.000000
 21
5.600000
  0
LINE
  8
31
 62
7
  6
L014100020032000000
 10
23.100000
 20
27.900000
 11
23.100000
 21
5.600000
  0
LINE
  8
31
 62
7
  6
L014100020032000000
 10
23.100000
 20
5.600000
 11
26.900000
 21
5.600000
  0
SOLID
  8
57
 62
255
  6
L014100020032000000
 10
49.100000
 20
7.500000
 11
49.100000
 21
8.700000
 12
0.900000
 22
7.500000
 13
0.900000
 23
8.700000
  0
POLYLINE
  8
57
 62
7
  6
L014100020032000000
 70
1
 66
1
  0
VERTEX
 10
49.100000
 20
7.500000
 30
0.000000
  8
57
 62
7
  6
L014100020032000000
  0
VERTEX
 10
49.100000
 20
8.700000
 30
0.000000
  8
57
 62
7
  6
L014100020032000000
  0
VERTEX
 10
0.900000
 20
8.700000
 30
0.000000
  8
57
 62
7
  6
L014100020032000000
  0
VERTEX
 10
0.900000
 20
7.500000
 30
0.000000
  8
57
 62
7
  6
L014100020032000000
  0
SEQEND
  0
SOLID
  8
57
 62
255
  6
L014100020032000000
 10
49.100000
 20
23.500000
 11
49.100000
 21
24.700000
 12
0.900000
 22
23.500000
 13
0.900000
 23
24.700000
  0
POLYLINE
  8
57
 62
7
  6
L014100020032000000
 70
1
 66
1
  0
VERTEX
 10
49.100000
 20
23.500000
 30
0.000000
  8
57
 62
7
  6
L014100020032000000
  0
VERTEX
 10
49.100000
 20
24.700000
 30
0.000000
  8
57
 62
7
  6
L014100020032000000
  0
VERTEX
 10
0.900000
 20
24.700000
 30
0.000000
  8
57
 62
7
  6
L014100020032000000
  0
VERTEX
 10
0.900000
 20
23.500000
 30
0.000000
  8
57
 62
7
  6
L014100020032000000
  0
SEQEND
  0
SOLID
  8
57
 62
255
  6
L014100020032000000
 10
49.100000
 20
19.500000
 11
49.100000
 21
20.700000
 12
0.900000
 22
19.500000
 13
0.900000
 23
20.700000
  0
POLYLINE
  8
57
 62
7
  6
L014100020032000000
 70
1
 66
1
  0
VERTEX
 10
49.100000
 20
19.500000
 30
0.000000
  8
57
 62
7
  6
L014100020032000000
  0
VERTEX
 10
49.100000
 20
20.700000
 30
0.000000
  8
57
 62
7
  6
L014100020032000000
  0
VERTEX
 10
0.900000
 20
20.700000
 30
0.000000
  8
57
 62
7
  6
L014100020032000000
  0
VERTEX
 10
0.900000
 20
19.500000
 30
0.000000
  8
57
 62
7
  6
L014100020032000000
  0
SEQEND
  0
SOLID
  8
57
 62
255
  6
L014100020032000000
 10
49.100000
 20
15.500000
 11
49.100000
 21
16.700000
 12
0.900000
 22
15.500000
 13
0.900000
 23
16.700000
  0
POLYLINE
  8
57
 62
7
  6
L014100020032000000
 70
1
 66
1
  0
VERTEX
 10
49.100000
 20
15.500000
 30
0.000000
  8
57
 62
7
  6
L014100020032000000
  0
VERTEX
 10
49.100000
 20
16.700000
 30
0.000000
  8
57
 62
7
  6
L014100020032000000
  0
VERTEX
 10
0.900000
 20
16.700000
 30
0.000000
  8
57
 62
7
  6
L014100020032000000
  0
VERTEX
 10
0.900000
 20
15.500000
 30
0.000000
  8
57
 62
7
  6
L014100020032000000
  0
SEQEND
  0
SOLID
  8
57
 62
255
  6
L014100020032000000
 10
49.100000
 20
11.500000
 11
49.100000
 21
12.700000
 12
0.900000
 22
11.500000
 13
0.900000
 23
12.700000
  0
POLYLINE
  8
57
 62
7
  6
L014100020032000000
 70
1
 66
1
  0
VERTEX
 10
49.100000
 20
11.500000
 30
0.000000
  8
57
 62
7
  6
L014100020032000000
  0
VERTEX
 10
49.100000
 20
12.700000
 30
0.000000
  8
57
 62
7
  6
L014100020032000000
  0
VERTEX
 10
0.900000
 20
12.700000
 30
0.000000
  8
57
 62
7
  6
L014100020032000000
  0
VERTEX
 10
0.900000
 20
11.500000
 30
0.000000
  8
57
 62
7
  6
L014100020032000000
  0
SEQEND
  0
SOLID
  8
56
 62
255
  6
CONTINUOUS
 10
49.100000
 20
7.500000
 11
49.100000
 21
8.700000
 12
0.900000
 22
7.500000
 13
0.900000
 23
8.700000
  0
POLYLINE
  8
56
 62
7
  6
CONTINUOUS
 70
1
 66
1
  0
VERTEX
 10
49.100000
 20
7.500000
 30
0.000000
  8
56
 62
7
  6
CONTINUOUS
  0
VERTEX
 10
49.100000
 20
8.700000
 30
0.000000
  8
56
 62
7
  6
CONTINUOUS
  0
VERTEX
 10
0.900000
 20
8.700000
 30
0.000000
  8
56
 62
7
  6
CONTINUOUS
  0
VERTEX
 10
0.900000
 20
7.500000
 30
0.000000
  8
56
 62
7
  6
CONTINUOUS
  0
SEQEND
  0
SOLID
  8
56
 62
255
  6
CONTINUOUS
 10
49.100000
 20
23.500000
 11
49.100000
 21
24.700000
 12
0.900000
 22
23.500000
 13
0.900000
 23
24.700000
  0
POLYLINE
  8
56
 62
7
  6
CONTINUOUS
 70
1
 66
1
  0
VERTEX
 10
49.100000
 20
23.500000
 30
0.000000
  8
56
 62
7
  6
CONTINUOUS
  0
VERTEX
 10
49.100000
 20
24.700000
 30
0.000000
  8
56
 62
7
  6
CONTINUOUS
  0
VERTEX
 10
0.900000
 20
24.700000
 30
0.000000
  8
56
 62
7
  6
CONTINUOUS
  0
VERTEX
 10
0.900000
 20
23.500000
 30
0.000000
  8
56
 62
7
  6
CONTINUOUS
  0
SEQEND
  0
SOLID
  8
56
 62
255
  6
CONTINUOUS
 10
49.100000
 20
19.500000
 11
49.100000
 21
20.700000
 12
0.900000
 22
19.500000
 13
0.900000
 23
20.700000
  0
POLYLINE
  8
56
 62
7
  6
CONTINUOUS
 70
1
 66
1
  0
VERTEX
 10
49.100000
 20
19.500000
 30
0.000000
  8
56
 62
7
  6
CONTINUOUS
  0
VERTEX
 10
49.100000
 20
20.700000
 30
0.000000
  8
56
 62
7
  6
CONTINUOUS
  0
VERTEX
 10
0.900000
 20
20.700000
 30
0.000000
  8
56
 62
7
  6
CONTINUOUS
  0
VERTEX
 10
0.900000
 20
19.500000
 30
0.000000
  8
56
 62
7
  6
CONTINUOUS
  0
SEQEND
  0
SOLID
  8
56
 62
255
  6
CONTINUOUS
 10
49.100000
 20
15.500000
 11
49.100000
 21
16.700000
 12
0.900000
 22
15.500000
 13
0.900000
 23
16.700000
  0
POLYLINE
  8
56
 62
7
  6
CONTINUOUS
 70
1
 66
1
  0
VERTEX
 10
49.100000
 20
15.500000
 30
0.000000
  8
56
 62
7
  6
CONTINUOUS
  0
VERTEX
 10
49.100000
 20
16.700000
 30
0.000000
  8
56
 62
7
  6
CONTINUOUS
  0
VERTEX
 10
0.900000
 20
16.700000
 30
0.000000
  8
56
 62
7
  6
CONTINUOUS
  0
VERTEX
 10
0.900000
 20
15.500000
 30
0.000000
  8
56
 62
7
  6
CONTINUOUS
  0
SEQEND
  0
SOLID
  8
56
 62
255
  6
CONTINUOUS
 10
49.100000
 20
11.500000
 11
49.100000
 21
12.700000
 12
0.900000
 22
11.500000
 13
0.900000
 23
12.700000
  0
POLYLINE
  8
56
 62
7
  6
CONTINUOUS
 70
1
 66
1
  0
VERTEX
 10
49.100000
 20
11.500000
 30
0.000000
  8
56
 62
7
  6
CONTINUOUS
  0
VERTEX
 10
49.100000
 20
12.700000
 30
0.000000
  8
56
 62
7
  6
CONTINUOUS
  0
VERTEX
 10
0.900000
 20
12.700000
 30
0.000000
  8
56
 62
7
  6
CONTINUOUS
  0
VERTEX
 10
0.900000
 20
11.500000
 30
0.000000
  8
56
 62
7
  6
CONTINUOUS
  0
SEQEND
  0
SOLID
  8
58
 62
30
  6
CONTINUOUS
 10
49.100000
 20
7.500000
 11
49.100000
 21
8.700000
 12
0.900000
 22
7.500000
 13
0.900000
 23
8.700000
  0
POLYLINE
  8
58
 62
7
  6
CONTINUOUS
 70
1
 66
1
  0
VERTEX
 10
49.100000
 20
7.500000
 30
0.000000
  8
58
 62
7
  6
CONTINUOUS
  0
VERTEX
 10
49.100000
 20
8.700000
 30
0.000000
  8
58
 62
7
  6
CONTINUOUS
  0
VERTEX
 10
0.900000
 20
8.700000
 30
0.000000
  8
58
 62
7
  6
CONTINUOUS
  0
VERTEX
 10
0.900000
 20
7.500000
 30
0.000000
  8
58
 62
7
  6
CONTINUOUS
  0
SEQEND
  0
SOLID
  8
58
 62
30
  6
CONTINUOUS
 10
49.100000
 20
23.500000
 11
49.100000
 21
24.700000
 12
0.900000
 22
23.500000
 13
0.900000
 23
24.700000
  0
POLYLINE
  8
58
 62
7
  6
CONTINUOUS
 70
1
 66
1
  0
VERTEX
 10
49.100000
 20
23.500000
 30
0.000000
  8
58
 62
7
  6
CONTINUOUS
  0
VERTEX
 10
49.100000
 20
24.700000
 30
0.000000
  8
58
 62
7
  6
CONTINUOUS
  0
VERTEX
 10
0.900000
 20
24.700000
 30
0.000000
  8
58
 62
7
  6
CONTINUOUS
  0
VERTEX
 10
0.900000
 20
23.500000
 30
0.000000
  8
58
 62
7
  6
CONTINUOUS
  0
SEQEND
  0
SOLID
  8
58
 62
30
  6
CONTINUOUS
 10
49.100000
 20
19.500000
 11
49.100000
 21
20.700000
 12
0.900000
 22
19.500000
 13
0.900000
 23
20.700000
  0
POLYLINE
  8
58
 62
7
  6
CONTINUOUS
 70
1
 66
1
  0
VERTEX
 10
49.100000
 20
19.500000
 30
0.000000
  8
58
 62
7
  6
CONTINUOUS
  0
VERTEX
 10
49.100000
 20
20.700000
 30
0.000000
  8
58
 62
7
  6
CONTINUOUS
  0
VERTEX
 10
0.900000
 20
20.700000
 30
0.000000
  8
58
 62
7
  6
CONTINUOUS
  0
VERTEX
 10
0.900000
 20
19.500000
 30
0.000000
  8
58
 62
7
  6
CONTINUOUS
  0
SEQEND
  0
SOLID
  8
58
 62
30
  6
CONTINUOUS
 10
49.100000
 20
15.500000
 11
49.100000
 21
16.700000
 12
0.900000
 22
15.500000
 13
0.900000
 23
16.700000
  0
POLYLINE
  8
58
 62
7
  6
CONTINUOUS
 70
1
 66
1
  0
VERTEX
 10
49.100000
 20
15.500000
 30
0.000000
  8
58
 62
7
  6
CONTINUOUS
  0
VERTEX
 10
49.100000
 20
16.700000
 30
0.000000
  8
58
 62
7
  6
CONTINUOUS
  0
VERTEX
 10
0.900000
 20
16.700000
 30
0.000000
  8
58
 62
7
  6
CONTINUOUS
  0
VERTEX
 10
0.900000
 20
15.500000
 30
0.000000
  8
58
 62
7
  6
CONTINUOUS
  0
SEQEND
  0
SOLID
  8
58
 62
30
  6
CONTINUOUS
 10
49.100000
 20
11.500000
 11
49.100000
 21
12.700000
 12
0.900000
 22
11.500000
 13
0.900000
 23
12.700000
  0
POLYLINE
  8
58
 62
7
  6
CONTINUOUS
 70
1
 66
1
  0
VERTEX
 10
49.100000
 20
11.500000
 30
0.000000
  8
58
 62
7
  6
CONTINUOUS
  0
VERTEX
 10
49.100000
 20
12.700000
 30
0.000000
  8
58
 62
7
  6
CONTINUOUS
  0
VERTEX
 10
0.900000
 20
12.700000
 30
0.000000
  8
58
 62
7
  6
CONTINUOUS
  0
VERTEX
 10
0.900000
 20
11.500000
 30
0.000000
  8
58
 62
7
  6
CONTINUOUS
  0
SEQEND
  0
SOLID
  8
59
 62
7
  6
CONTINUOUS
 10
49.100000
 20
15.800000
 11
49.100000
 21
16.400000
 12
0.900000
 22
15.800000
 13
0.900000
 23
16.400000
  0
POLYLINE
  8
59
 62
7
  6
CONTINUOUS
 70
1
 66
1
  0
VERTEX
 10
49.100000
 20
15.800000
 30
0.000000
  8
59
 62
7
  6
CONTINUOUS
  0
VERTEX
 10
49.100000
 20
16.400000
 30
0.000000
  8
59
 62
7
  6
CONTINUOUS
  0
VERTEX
 10
0.900000
 20
16.400000
 30
0.000000
  8
59
 62
7
  6
CONTINUOUS
  0
VERTEX
 10
0.900000
 20
15.800000
 30
0.000000
  8
59
 62
7
  6
CONTINUOUS
  0
SEQEND
  0
SOLID
  8
59
 62
7
  6
CONTINUOUS
 10
48.700000
 20
14.800000
 11
48.700000
 21
17.400000
 12
49.100000
 22
14.800000
 13
49.100000
 23
17.400000
  0
POLYLINE
  8
59
 62
7
  6
CONTINUOUS
 70
1
 66
1
  0
VERTEX
 10
48.700000
 20
14.800000
 30
0.000000
  8
59
 62
7
  6
CONTINUOUS
  0
VERTEX
 10
48.700000
 20
17.400000
 30
0.000000
  8
59
 62
7
  6
CONTINUOUS
  0
VERTEX
 10
49.100000
 20
17.400000
 30
0.000000
  8
59
 62
7
  6
CONTINUOUS
  0
VERTEX
 10
49.100000
 20
14.800000
 30
0.000000
  8
59
 62
7
  6
CONTINUOUS
  0
SEQEND
  0
LINE
  8
59
 62
7
  6
CONTINUOUS
 10
25.500000
 20
18.100000
 11
24.500000
 21
14.100000
  0
LINE
  8
59
 62
7
  6
CONTINUOUS
 10
23.500000
 20
18.100000
 11
22.500000
 21
14.100000
  0
LINE
  8
59
 62
7
  6
CONTINUOUS
 10
24.500000
 20
18.100000
 11
23.500000
 21
14.100000
  0
LINE
  8
59
 62
7
  6
CONTINUOUS
 10
27.500000
 20
18.100000
 11
26.500000
 21
14.100000
  0
LINE
  8
59
 62
7
  6
CONTINUOUS
 10
26.500000
 20
18.100000
 11
25.500000
 21
14.100000
  0
SOLID
  8
59
 62
7
  6
CONTINUOUS
 10
0.900000
 20
14.800000
 11
0.900000
 21
17.400000
 12
1.300000
 22
14.800000
 13
1.300000
 23
17.400000
  0
POLYLINE
  8
59
 62
7
  6
CONTINUOUS
 70
1
 66
1
  0
VERTEX
 10
0.900000
 20
14.800000
 30
0.000000
  8
59
 62
7
  6
CONTINUOUS
  0
VERTEX
 10
0.900000
 20
17.400000
 30
0.000000
  8
59
 62
7
  6
CONTINUOUS
  0
VERTEX
 10
1.300000
 20
17.400000
 30
0.000000
  8
59
 62
7
  6
CONTINUOUS
  0
VERTEX
 10
1.300000
 20
14.800000
 30
0.000000
  8
59
 62
7
  6
CONTINUOUS
  0
SEQEND
  0
SOLID
  8
60
 62
7
  6
CONTINUOUS
 10
49.100000
 20
23.500000
 11
49.100000
 21
24.700000
 12
0.900000
 22
23.500000
 13
0.900000
 23
24.700000
  0
POLYLINE
  8
60
 62
7
  6
CONTINUOUS
 70
1
 66
1
  0
VERTEX
 10
49.100000
 20
23.500000
 30
0.000000
  8
60
 62
7
  6
CONTINUOUS
  0
VERTEX
 10
49.100000
 20
24.700000
 30
0.000000
  8
60
 62
7
  6
CONTINUOUS
  0
VERTEX
 10
0.900000
 20
24.700000
 30
0.000000
  8
60
 62
7
  6
CONTINUOUS
  0
VERTEX
 10
0.900000
 20
23.500000
 30
0.000000
  8
60
 62
7
  6
CONTINUOUS
  0
SEQEND
  0
SOLID
  8
60
 62
7
  6
CONTINUOUS
 10
49.100000
 20
11.500000
 11
49.100000
 21
12.700000
 12
0.900000
 22
11.500000
 13
0.900000
 23
12.700000
  0
POLYLINE
  8
60
 62
7
  6
CONTINUOUS
 70
1
 66
1
  0
VERTEX
 10
49.100000
 20
11.500000
 30
0.000000
  8
60
 62
7
  6
CONTINUOUS
  0
VERTEX
 10
49.100000
 20
12.700000
 30
0.000000
  8
60
 62
7
  6
CONTINUOUS
  0
VERTEX
 10
0.900000
 20
12.700000
 30
0.000000
  8
60
 62
7
  6
CONTINUOUS
  0
VERTEX
 10
0.900000
 20
11.500000
 30
0.000000
  8
60
 62
7
  6
CONTINUOUS
  0
SEQEND
  0
SOLID
  8
60
 62
7
  6
CONTINUOUS
 10
49.100000
 20
15.500000
 11
49.100000
 21
16.700000
 12
0.900000
 22
15.500000
 13
0.900000
 23
16.700000
  0
POLYLINE
  8
60
 62
7
  6
CONTINUOUS
 70
1
 66
1
  0
VERTEX
 10
49.100000
 20
15.500000
 30
0.000000
  8
60
 62
7
  6
CONTINUOUS
  0
VERTEX
 10
49.100000
 20
16.700000
 30
0.000000
  8
60
 62
7
  6
CONTINUOUS
  0
VERTEX
 10
0.900000
 20
16.700000
 30
0.000000
  8
60
 62
7
  6
CONTINUOUS
  0
VERTEX
 10
0.900000
 20
15.500000
 30
0.000000
  8
60
 62
7
  6
CONTINUOUS
  0
SEQEND
  0
SOLID
  8
60
 62
7
  6
CONTINUOUS
 10
49.100000
 20
19.500000
 11
49.100000
 21
20.700000
 12
0.900000
 22
19.500000
 13
0.900000
 23
20.700000
  0
POLYLINE
  8
60
 62
7
  6
CONTINUOUS
 70
1
 66
1
  0
VERTEX
 10
49.100000
 20
19.500000
 30
0.000000
  8
60
 62
7
  6
CONTINUOUS
  0
VERTEX
 10
49.100000
 20
20.700000
 30
0.000000
  8
60
 62
7
  6
CONTINUOUS
  0
VERTEX
 10
0.900000
 20
20.700000
 30
0.000000
  8
60
 62
7
  6
CONTINUOUS
  0
VERTEX
 10
0.900000
 20
19.500000
 30
0.000000
  8
60
 62
7
  6
CONTINUOUS
  0
SEQEND
  0
SOLID
  8
60
 62
7
  6
CONTINUOUS
 10
49.100000
 20
7.500000
 11
49.100000
 21
8.700000
 12
0.900000
 22
7.500000
 13
0.900000
 23
8.700000
  0
POLYLINE
  8
60
 62
7
  6
CONTINUOUS
 70
1
 66
1
  0
VERTEX
 10
49.100000
 20
7.500000
 30
0.000000
  8
60
 62
7
  6
CONTINUOUS
  0
VERTEX
 10
49.100000
 20
8.700000
 30
0.000000
  8
60
 62
7
  6
CONTINUOUS
  0
VERTEX
 10
0.900000
 20
8.700000
 30
0.000000
  8
60
 62
7
  6
CONTINUOUS
  0
VERTEX
 10
0.900000
 20
7.500000
 30
0.000000
  8
60
 62
7
  6
CONTINUOUS
  0
SEQEND
  0
SOLID
  8
30
 62
255
  6
CONTINUOUS
 10
2.000000
 20
5.500000
 11
2.000000
 21
28.000000
 12
0.600000
 22
5.500000
 13
0.600000
 23
28.000000
  0
POLYLINE
  8
30
 62
7
  6
CONTINUOUS
 70
1
 66
1
  0
VERTEX
 10
2.000000
 20
5.500000
 30
0.000000
  8
30
 62
7
  6
CONTINUOUS
  0
VERTEX
 10
2.000000
 20
28.000000
 30
0.000000
  8
30
 62
7
  6
CONTINUOUS
  0
VERTEX
 10
0.600000
 20
28.000000
 30
0.000000
  8
30
 62
7
  6
CONTINUOUS
  0
VERTEX
 10
0.600000
 20
5.500000
 30
0.000000
  8
30
 62
7
  6
CONTINUOUS
  0
SEQEND
  0
SOLID
  8
30
 62
255
  6
CONTINUOUS
 10
49.400000
 20
5.500000
 11
49.400000
 21
28.000000
 12
48.000000
 22
5.500000
 13
48.000000
 23
28.000000
  0
POLYLINE
  8
30
 62
7
  6
CONTINUOUS
 70
1
 66
1
  0
VERTEX
 10
49.400000
 20
5.500000
 30
0.000000
  8
30
 62
7
  6
CONTINUOUS
  0
VERTEX
 10
49.400000
 20
28.000000
 30
0.000000
  8
30
 62
7
  6
CONTINUOUS
  0
VERTEX
 10
48.000000
 20
28.000000
 30
0.000000
  8
30
 62
7
  6
CONTINUOUS
  0
VERTEX
 10
48.000000
 20
5.500000
 30
0.000000
  8
30
 62
7
  6
CONTINUOUS
  0
SEQEND
  0
SOLID
  8
30
 62
255
  6
CONTINUOUS
 10
27.000000
 20
5.500000
 11
27.000000
 21
28.000000
 12
23.000000
 22
5.500000
 13
23.000000
 23
28.000000
  0
POLYLINE
  8
30
 62
7
  6
CONTINUOUS
 70
1
 66
1
  0
VERTEX
 10
27.000000
 20
5.500000
 30
0.000000
  8
30
 62
7
  6
CONTINUOUS
  0
VERTEX
 10
27.000000
 20
28.000000
 30
0.000000
  8
30
 62
7
  6
CONTINUOUS
  0
VERTEX
 10
23.000000
 20
28.000000
 30
0.000000
  8
30
 62
7
  6
CONTINUOUS
  0
VERTEX
 10
23.000000
 20
5.500000
 30
0.000000
  8
30
 62
7
  6
CONTINUOUS
  0
SEQEND
  0
SOLID
  8
30
 62
255
  6
CONTINUOUS
 10
2.000000
 20
5.500000
 11
2.000000
 21
28.000000
 12
0.600000
 22
5.500000
 13
0.600000
 23
28.000000
  0
POLYLINE
  8
30
 62
7
  6
CONTINUOUS
 70
1
 66
1
  0
VERTEX
 10
2.000000
 20
5.500000
 30
0.000000
  8
30
 62
7
  6
CONTINUOUS
  0
VERTEX
 10
2.000000
 20
28.000000
 30
0.000000
  8
30
 62
7
  6
CONTINUOUS
  0
VERTEX
 10
0.600000
 20
28.000000
 30
0.000000
  8
30
 62
7
  6
CONTINUOUS
  0
VERTEX
 10
0.600000
 20
5.500000
 30
0.000000
  8
30
 62
7
  6
CONTINUOUS
  0
SEQEND
  0
SOLID
  8
30
 62
255
  6
CONTINUOUS
 10
27.000000
 20
5.500000
 11
27.000000
 21
28.000000
 12
23.000000
 22
5.500000
 13
23.000000
 23
28.000000
  0
POLYLINE
  8
30
 62
7
  6
CONTINUOUS
 70
1
 66
1
  0
VERTEX
 10
27.000000
 20
5.500000
 30
0.000000
  8
30
 62
7
  6
CONTINUOUS
  0
VERTEX
 10
27.000000
 20
28.000000
 30
0.000000
  8
30
 62
7
  6
CONTINUOUS
  0
VERTEX
 10
23.000000
 20
28.000000
 30
0.000000
  8
30
 62
7
  6
CONTINUOUS
  0
VERTEX
 10
23.000000
 20
5.500000
 30
0.000000
  8
30
 62
7
  6
CONTINUOUS
  0
SEQEND
  0
SOLID
  8
30
 62
255
  6
CONTINUOUS
 10
49.400000
 20
5.500000
 11
49.400000
 21
28.000000
 12
48.000000
 22
5.500000
 13
48.000000
 23
28.000000
  0
POLYLINE
  8
30
 62
7
  6
CONTINUOUS
 70
1
 66
1
  0
VERTEX
 10
49.400000
 20
5.500000
 30
0.000000
  8
30
 62
7
  6
CONTINUOUS
  0
VERTEX
 10
49.400000
 20
28.000000
 30
0.000000
  8
30
 62
7
  6
CONTINUOUS
  0
VERTEX
 10
48.000000
 20
28.000000
 30
0.000000
  8
30
 62
7
  6
CONTINUOUS
  0
VERTEX
 10
48.000000
 20
5.500000
 30
0.000000
  8
30
 62
7
  6
CONTINUOUS
  0
SEQEND
  0
ENDBLK
  0
BLOCK
  8
1
  2
128252
 70
 0
 10
0.0
 20
0.0
 30
0.0
  0
SOLID
  8
1
 62
255
  6
CONTINUOUS
 10
24.800000
 20
0.200000
 11
24.800000
 21
134.800000
 12
0.200000
 22
0.200000
 13
0.200000
 23
134.800000
  0
POLYLINE
  8
1
 62
7
  6
CONTINUOUS
 70
1
 66
1
  0
VERTEX
 10
24.800000
 20
0.200000
 30
0.000000
  8
1
 62
7
  6
CONTINUOUS
  0
VERTEX
 10
24.800000
 20
134.800000
 30
0.000000
  8
1
 62
7
  6
CONTINUOUS
  0
VERTEX
 10
0.200000
 20
134.800000
 30
0.000000
  8
1
 62
7
  6
CONTINUOUS
  0
VERTEX
 10
0.200000
 20
0.200000
 30
0.000000
  8
1
 62
7
  6
CONTINUOUS
  0
SEQEND
  0
LINE
  8
1
 62
7
  6
CONTINUOUS
 10
24.800000
 20
75.000000
 11
0.200000
 21
75.000000
  0
LINE
  8
1
 62
7
  6
CONTINUOUS
 10
24.000000
 20
107.100000
 11
24.000000
 21
107.600000
  0
LINE
  8
1
 62
7
  6
CONTINUOUS
 10
24.000000
 20
110.500000
 11
24.000000
 21
110.000000
  0
LINE
  8
1
 62
7
  6
CONTINUOUS
 10
23.600000
 20
108.800000
 11
24.500000
 21
108.800000
  0
CIRCLE
  8
1
 62
7
  6
CONTINUOUS
 10
24.000000
 20
108.800000
 30
0.0
 40
0.700000
  0
LINE
  8
1
 62
7
  6
CONTINUOUS
 10
1.000000
 20
107.100000
 11
1.000000
 21
107.600000
  0
LINE
  8
1
 62
7
  6
CONTINUOUS
 10
1.000000
 20
110.500000
 11
1.000000
 21
110.000000
  0
LINE
  8
1
 62
7
  6
CONTINUOUS
 10
1.400000
 20
108.800000
 11
0.500000
 21
108.800000
  0
CIRCLE
  8
1
 62
7
  6
CONTINUOUS
 10
1.000000
 20
108.800000
 30
0.0
 40
0.700000
  0
LINE
  8
1
 62
7
  6
CONTINUOUS
 10
1.000000
 20
27.900000
 11
1.000000
 21
27.400000
  0
LINE
  8
1
 62
7
  6
CONTINUOUS
 10
1.000000
 20
24.500000
 11
1.000000
 21
25.000000
  0
LINE
  8
1
 62
7
  6
CONTINUOUS
 10
1.400000
 20
26.200000
 11
0.500000
 21
26.200000
  0
CIRCLE
  8
1
 62
7
  6
CONTINUOUS
 10
1.000000
 20
26.200000
 30
0.0
 40
0.700000
  0
LINE
  8
1
 62
7
  6
CONTINUOUS
 10
24.000000
 20
27.900000
 11
24.000000
 21
27.400000
  0
LINE
  8
1
 62
7
  6
CONTINUOUS
 10
24.000000
 20
24.500000
 11
24.000000
 21
25.000000
  0
LINE
  8
1
 62
7
  6
CONTINUOUS
 10
23.600000
 20
26.200000
 11
24.500000
 21
26.200000
  0
CIRCLE
  8
1
 62
7
  6
CONTINUOUS
 10
24.000000
 20
26.200000
 30
0.0
 40
0.700000
  0
LINE
  8
1
 62
7
  6
CONTINUOUS
 10
24.000000
 20
2.100000
 11
24.000000
 21
2.600000
  0
LINE
  8
1
 62
7
  6
CONTINUOUS
 10
24.000000
 20
5.500000
 11
24.000000
 21
5.000000
  0
LINE
  8
1
 62
7
  6
CONTINUOUS
 10
23.600000
 20
3.800000
 11
24.500000
 21
3.800000
  0
CIRCLE
  8
1
 62
7
  6
CONTINUOUS
 10
24.000000
 20
3.800000
 30
0.0
 40
0.700000
  0
LINE
  8
1
 62
7
  6
CONTINUOUS
 10
1.000000
 20
2.100000
 11
1.000000
 21
2.600000
  0
LINE
  8
1
 62
7
  6
CONTINUOUS
 10
1.000000
 20
5.500000
 11
1.000000
 21
5.000000
  0
LINE
  8
1
 62
7
  6
CONTINUOUS
 10
1.400000
 20
3.800000
 11
0.500000
 21
3.800000
  0
CIRCLE
  8
1
 62
7
  6
CONTINUOUS
 10
1.000000
 20
3.800000
 30
0.0
 40
0.700000
  0
LINE
  8
1
 62
7
  6
CONTINUOUS
 10
1.000000
 20
72.900000
 11
1.000000
 21
72.400000
  0
LINE
  8
1
 62
7
  6
CONTINUOUS
 10
1.000000
 20
69.500000
 11
1.000000
 21
70.000000
  0
LINE
  8
1
 62
7
  6
CONTINUOUS
 10
1.400000
 20
71.200000
 11
0.500000
 21
71.200000
  0
CIRCLE
  8
1
 62
7
  6
CONTINUOUS
 10
1.000000
 20
71.200000
 30
0.0
 40
0.700000
  0
LINE
  8
1
 62
7
  6
CONTINUOUS
 10
24.000000
 20
72.900000
 11
24.000000
 21
72.400000
  0
LINE
  8
1
 62
7
  6
CONTINUOUS
 10
24.000000
 20
69.500000
 11
24.000000
 21
70.000000
  0
LINE
  8
1
 62
7
  6
CONTINUOUS
 10
23.600000
 20
71.200000
 11
24.500000
 21
71.200000
  0
CIRCLE
  8
1
 62
7
  6
CONTINUOUS
 10
24.000000
 20
71.200000
 30
0.0
 40
0.700000
  0
LINE
  8
1
 62
7
  6
CONTINUOUS
 10
24.000000
 20
32.100000
 11
24.000000
 21
32.600000
  0
LINE
  8
1
 62
7
  6
CONTINUOUS
 10
24.000000
 20
35.500000
 11
24.000000
 21
35.000000
  0
LINE
  8
1
 62
7
  6
CONTINUOUS
 10
23.600000
 20
33.800000
 11
24.500000
 21
33.800000
  0
CIRCLE
  8
1
 62
7
  6
CONTINUOUS
 10
24.000000
 20
33.800000
 30
0.0
 40
0.700000
  0
LINE
  8
1
 62
7
  6
CONTINUOUS
 10
1.000000
 20
32.100000
 11
1.000000
 21
32.600000
  0
LINE
  8
1
 62
7
  6
CONTINUOUS
 10
1.000000
 20
35.500000
 11
1.000000
 21
35.000000
  0
LINE
  8
1
 62
7
  6
CONTINUOUS
 10
1.400000
 20
33.800000
 11
0.500000
 21
33.800000
  0
CIRCLE
  8
1
 62
7
  6
CONTINUOUS
 10
1.000000
 20
33.800000
 30
0.0
 40
0.700000
  0
LINE
  8
1
 62
7
  6
CONTINUOUS
 10
24.800000
 20
30.000000
 11
0.200000
 21
30.000000
  0
LINE
  8
1
 62
7
  6
CONTINUOUS
 10
24.800000
 20
105.000000
 11
0.200000
 21
105.000000
  0
POLYLINE
  8
1
 62
7
  6
CONTINUOUS
 70
1
 66
1
  0
VERTEX
 10
22.500000
 20
4.100000
 30
0.000000
  8
1
 62
7
  6
CONTINUOUS
  0
VERTEX
 10
22.500000
 20
25.000000
 30
0.000000
  8
1
 62
7
  6
CONTINUOUS
  0
VERTEX
 10
2.500000
 20
25.000000
 30
0.000000
  8
1
 62
7
  6
CONTINUOUS
  0
VERTEX
 10
2.500000
 20
4.100000
 30
0.000000
  8
1
 62
7
  6
CONTINUOUS
  0
SEQEND
  0
SOLID
  8
1
 62
255
  6
L014100020032000000
 10
24.800000
 20
37.500000
 11
24.800000
 21
67.500000
 12
0.200000
 22
37.500000
 13
0.200000
 23
67.500000
  0
POLYLINE
  8
1
 62
7
  6
L014100020032000000
 70
1
 66
1
  0
VERTEX
 10
24.800000
 20
37.500000
 30
0.000000
  8
1
 62
7
  6
L014100020032000000
  0
VERTEX
 10
24.800000
 20
67.500000
 30
0.000000
  8
1
 62
7
  6
L014100020032000000
  0
VERTEX
 10
0.200000
 20
67.500000
 30
0.000000
  8
1
 62
7
  6
L014100020032000000
  0
VERTEX
 10
0.200000
 20
37.500000
 30
0.000000
  8
1
 62
7
  6
L014100020032000000
  0
SEQEND
  0
LINE
  8
1
 62
7
  6
CONTINUOUS
 10
1.000000
 20
132.900000
 11
1.000000
 21
132.400000
  0
LINE
  8
1
 62
7
  6
CONTINUOUS
 10
1.000000
 20
129.500000
 11
1.000000
 21
130.000000
  0
LINE
  8
1
 62
7
  6
CONTINUOUS
 10
1.400000
 20
131.200000
 11
0.500000
 21
131.200000
  0
CIRCLE
  8
1
 62
7
  6
CONTINUOUS
 10
1.000000
 20
131.200000
 30
0.0
 40
0.700000
  0
LINE
  8
1
 62
7
  6
CONTINUOUS
 10
24.000000
 20
132.900000
 11
24.000000
 21
132.400000
  0
LINE
  8
1
 62
7
  6
CONTINUOUS
 10
24.000000
 20
129.500000
 11
24.000000
 21
130.000000
  0
LINE
  8
1
 62
7
  6
CONTINUOUS
 10
23.600000
 20
131.200000
 11
24.500000
 21
131.200000
  0
CIRCLE
  8
1
 62
7
  6
CONTINUOUS
 10
24.000000
 20
131.200000
 30
0.0
 40
0.700000
  0
LINE
  8
1
 62
7
  6
CONTINUOUS
 10
24.000000
 20
80.500000
 11
24.000000
 21
80.000000
  0
LINE
  8
1
 62
7
  6
CONTINUOUS
 10
1.000000
 20
80.500000
 11
1.000000
 21
80.000000
  0
POLYLINE
  8
1
 62
7
  6
L014100020032000000
 70
1
 66
1
  0
VERTEX
 10
24.800000
 20
81.300000
 30
0.000000
  8
1
 62
7
  6
L014100020032000000
  0
VERTEX
 10
24.800000
 20
93.900000
 30
0.000000
  8
1
 62
7
  6
L014100020032000000
  0
VERTEX
 10
0.200000
 20
93.900000
 30
0.000000
  8
1
 62
7
  6
L014100020032000000
  0
VERTEX
 10
0.200000
 20
81.300000
 30
0.000000
  8
1
 62
7
  6
L014100020032000000
  0
SEQEND
  0
LINE
  8
1
 62
7
  6
CONTINUOUS
 10
24.000000
 20
77.100000
 11
24.000000
 21
77.600000
  0
LINE
  8
1
 62
7
  6
CONTINUOUS
 10
23.600000
 20
78.800000
 11
24.500000
 21
78.800000
  0
CIRCLE
  8
1
 62
7
  6
CONTINUOUS
 10
24.000000
 20
78.800000
 30
0.0
 40
0.700000
  0
LINE
  8
1
 62
7
  6
CONTINUOUS
 10
1.000000
 20
77.100000
 11
1.000000
 21
77.600000
  0
LINE
  8
1
 62
7
  6
CONTINUOUS
 10
1.400000
 20
78.800000
 11
0.500000
 21
78.800000
  0
CIRCLE
  8
1
 62
7
  6
CONTINUOUS
 10
1.000000
 20
78.800000
 30
0.0
 40
0.700000
  0
LINE
  8
1
 62
7
  6
CONTINUOUS
 10
24.000000
 20
102.900000
 11
24.000000
 21
102.400000
  0
LINE
  8
1
 62
7
  6
CONTINUOUS
 10
24.000000
 20
99.500000
 11
24.000000
 21
100.000000
  0
LINE
  8
1
 62
7
  6
CONTINUOUS
 10
23.600000
 20
101.200000
 11
24.500000
 21
101.200000
  0
CIRCLE
  8
1
 62
7
  6
CONTINUOUS
 10
24.000000
 20
101.200000
 30
0.0
 40
0.700000
  0
LINE
  8
1
 62
7
  6
CONTINUOUS
 10
1.000000
 20
102.900000
 11
1.000000
 21
102.400000
  0
LINE
  8
1
 62
7
  6
CONTINUOUS
 10
1.000000
 20
99.500000
 11
1.000000
 21
100.000000
  0
LINE
  8
1
 62
7
  6
CONTINUOUS
 10
1.400000
 20
101.200000
 11
0.500000
 21
101.200000
  0
CIRCLE
  8
1
 62
7
  6
CONTINUOUS
 10
1.000000
 20
101.200000
 30
0.0
 40
0.700000
  0
LINE
  8
1
 62
7
  6
CONTINUOUS
 10
24.000000
 20
102.900000
 11
24.000000
 21
102.400000
  0
LINE
  8
1
 62
7
  6
CONTINUOUS
 10
24.000000
 20
99.500000
 11
24.000000
 21
100.000000
  0
LINE
  8
1
 62
7
  6
CONTINUOUS
 10
23.600000
 20
101.200000
 11
24.500000
 21
101.200000
  0
CIRCLE
  8
1
 62
7
  6
CONTINUOUS
 10
24.000000
 20
101.200000
 30
0.0
 40
0.700000
  0
LINE
  8
1
 62
7
  6
CONTINUOUS
 10
1.000000
 20
102.900000
 11
1.000000
 21
102.400000
  0
LINE
  8
1
 62
7
  6
CONTINUOUS
 10
1.000000
 20
99.500000
 11
1.000000
 21
100.000000
  0
LINE
  8
1
 62
7
  6
CONTINUOUS
 10
1.400000
 20
101.200000
 11
0.500000
 21
101.200000
  0
CIRCLE
  8
1
 62
7
  6
CONTINUOUS
 10
1.000000
 20
101.200000
 30
0.0
 40
0.700000
  0
SOLID
  8
57
 62
255
  6
L014100020032000000
 10
22.500000
 20
54.000000
 11
22.500000
 21
51.000000
 12
17.500000
 22
54.000000
 13
17.500000
 23
51.000000
  0
POLYLINE
  8
57
 62
7
  6
L014100020032000000
 70
1
 66
1
  0
VERTEX
 10
22.500000
 20
54.000000
 30
0.000000
  8
57
 62
7
  6
L014100020032000000
  0
VERTEX
 10
22.500000
 20
51.000000
 30
0.000000
  8
57
 62
7
  6
L014100020032000000
  0
VERTEX
 10
17.500000
 20
51.000000
 30
0.000000
  8
57
 62
7
  6
L014100020032000000
  0
VERTEX
 10
17.500000
 20
54.000000
 30
0.000000
  8
57
 62
7
  6
L014100020032000000
  0
SEQEND
  0
SOLID
  8
57
 62
255
  6
L014100020032000000
 10
7.700000
 20
54.000000
 11
7.700000
 21
51.000000
 12
2.700000
 22
54.000000
 13
2.700000
 23
51.000000
  0
POLYLINE
  8
57
 62
7
  6
L014100020032000000
 70
1
 66
1
  0
VERTEX
 10
7.700000
 20
54.000000
 30
0.000000
  8
57
 62
7
  6
L014100020032000000
  0
VERTEX
 10
7.700000
 20
51.000000
 30
0.000000
  8
57
 62
7
  6
L014100020032000000
  0
VERTEX
 10
2.700000
 20
51.000000
 30
0.000000
  8
57
 62
7
  6
L014100020032000000
  0
VERTEX
 10
2.700000
 20
54.000000
 30
0.000000
  8
57
 62
7
  6
L014100020032000000
  0
SEQEND
  0
SOLID
  8
57
 62
255
  6
L014100020032000000
 10
7.500000
 20
43.100000
 11
7.500000
 21
38.000000
 12
4.500000
 22
43.100000
 13
4.500000
 23
38.000000
  0
POLYLINE
  8
57
 62
7
  6
L014100020032000000
 70
1
 66
1
  0
VERTEX
 10
7.500000
 20
43.100000
 30
0.000000
  8
57
 62
7
  6
L014100020032000000
  0
VERTEX
 10
7.500000
 20
38.000000
 30
0.000000
  8
57
 62
7
  6
L014100020032000000
  0
VERTEX
 10
4.500000
 20
38.000000
 30
0.000000
  8
57
 62
7
  6
L014100020032000000
  0
VERTEX
 10
4.500000
 20
43.100000
 30
0.000000
  8
57
 62
7
  6
L014100020032000000
  0
SEQEND
  0
SOLID
  8
57
 62
255
  6
L014100020032000000
 10
20.500000
 20
43.000000
 11
20.500000
 21
38.000000
 12
17.500000
 22
43.000000
 13
17.500000
 23
38.000000
  0
POLYLINE
  8
57
 62
7
  6
L014100020032000000
 70
1
 66
1
  0
VERTEX
 10
20.500000
 20
43.000000
 30
0.000000
  8
57
 62
7
  6
L014100020032000000
  0
VERTEX
 10
20.500000
 20
38.000000
 30
0.000000
  8
57
 62
7
  6
L014100020032000000
  0
VERTEX
 10
17.500000
 20
38.000000
 30
0.000000
  8
57
 62
7
  6
L014100020032000000
  0
VERTEX
 10
17.500000
 20
43.000000
 30
0.000000
  8
57
 62
7
  6
L014100020032000000
  0
SEQEND
  0
SOLID
  8
57
 62
255
  6
L014100020032000000
 10
7.500000
 20
67.000000
 11
7.500000
 21
62.000000
 12
4.500000
 22
67.000000
 13
4.500000
 23
62.000000
  0
POLYLINE
  8
57
 62
7
  6
L014100020032000000
 70
1
 66
1
  0
VERTEX
 10
7.500000
 20
67.000000
 30
0.000000
  8
57
 62
7
  6
L014100020032000000
  0
VERTEX
 10
7.500000
 20
62.000000
 30
0.000000
  8
57
 62
7
  6
L014100020032000000
  0
VERTEX
 10
4.500000
 20
62.000000
 30
0.000000
  8
57
 62
7
  6
L014100020032000000
  0
VERTEX
 10
4.500000
 20
67.000000
 30
0.000000
  8
57
 62
7
  6
L014100020032000000
  0
SEQEND
  0
SOLID
  8
57
 62
255
  6
L014100020032000000
 10
20.500000
 20
67.000000
 11
20.500000
 21
62.000000
 12
17.500000
 22
67.000000
 13
17.500000
 23
62.000000
  0
POLYLINE
  8
57
 62
7
  6
L014100020032000000
 70
1
 66
1
  0
VERTEX
 10
20.500000
 20
67.000000
 30
0.000000
  8
57
 62
7
  6
L014100020032000000
  0
VERTEX
 10
20.500000
 20
62.000000
 30
0.000000
  8
57
 62
7
  6
L014100020032000000
  0
VERTEX
 10
17.500000
 20
62.000000
 30
0.000000
  8
57
 62
7
  6
L014100020032000000
  0
VERTEX
 10
17.500000
 20
67.000000
 30
0.000000
  8
57
 62
7
  6
L014100020032000000
  0
SEQEND
  0
CIRCLE
  8
57
 62
7
  6
L014100020032000000
 10
6.000000
 20
63.500000
 30
0.0
 40
0.800000
  0
CIRCLE
  8
57
 62
7
  6
L014100020032000000
 10
19.000000
 20
63.500000
 30
0.0
 40
0.800000
  0
CIRCLE
  8
57
 62
7
  6
L014100020032000000
 10
6.000000
 20
52.500000
 30
0.0
 40
0.800000
  0
CIRCLE
  8
57
 62
7
  6
L014100020032000000
 10
19.000000
 20
52.500000
 30
0.0
 40
0.800000
  0
CIRCLE
  8
57
 62
7
  6
L014100020032000000
 10
6.000000
 20
41.500000
 30
0.0
 40
0.800000
  0
CIRCLE
  8
57
 62
7
  6
L014100020032000000
 10
19.000000
 20
41.500000
 30
0.0
 40
0.800000
  0
SOLID
  8
29
 62
255
  6
CONTINUOUS
 10
24.800000
 20
0.200000
 11
24.800000
 21
134.800000
 12
0.200000
 22
0.200000
 13
0.200000
 23
134.800000
  0
POLYLINE
  8
29
 62
7
  6
CONTINUOUS
 70
1
 66
1
  0
VERTEX
 10
24.800000
 20
0.200000
 30
0.000000
  8
29
 62
7
  6
CONTINUOUS
  0
VERTEX
 10
24.800000
 20
134.800000
 30
0.000000
  8
29
 62
7
  6
CONTINUOUS
  0
VERTEX
 10
0.200000
 20
134.800000
 30
0.000000
  8
29
 62
7
  6
CONTINUOUS
  0
VERTEX
 10
0.200000
 20
0.200000
 30
0.000000
  8
29
 62
7
  6
CONTINUOUS
  0
SEQEND
  0
LINE
  8
29
 62
7
  6
CONTINUOUS
 10
24.800000
 20
75.000000
 11
0.200000
 21
75.000000
  0
LINE
  8
29
 62
7
  6
CONTINUOUS
 10
24.800000
 20
30.000000
 11
0.200000
 21
30.000000
  0
LINE
  8
29
 62
7
  6
CONTINUOUS
 10
24.800000
 20
105.000000
 11
0.200000
 21
105.000000
  0
SOLID
  8
29
 62
255
  6
CONTINUOUS
 10
24.800000
 20
37.500000
 11
24.800000
 21
67.500000
 12
0.200000
 22
37.500000
 13
0.200000
 23
67.500000
  0
POLYLINE
  8
29
 62
7
  6
CONTINUOUS
 70
1
 66
1
  0
VERTEX
 10
24.800000
 20
37.500000
 30
0.000000
  8
29
 62
7
  6
CONTINUOUS
  0
VERTEX
 10
24.800000
 20
67.500000
 30
0.000000
  8
29
 62
7
  6
CONTINUOUS
  0
VERTEX
 10
0.200000
 20
67.500000
 30
0.000000
  8
29
 62
7
  6
CONTINUOUS
  0
VERTEX
 10
0.200000
 20
37.500000
 30
0.000000
  8
29
 62
7
  6
CONTINUOUS
  0
SEQEND
  0
POLYLINE
  8
29
 62
7
  6
CONTINUOUS
 70
1
 66
1
  0
VERTEX
 10
24.800000
 20
81.300000
 30
0.000000
  8
29
 62
7
  6
CONTINUOUS
  0
VERTEX
 10
24.800000
 20
93.900000
 30
0.000000
  8
29
 62
7
  6
CONTINUOUS
  0
VERTEX
 10
0.200000
 20
93.900000
 30
0.000000
  8
29
 62
7
  6
CONTINUOUS
  0
VERTEX
 10
0.200000
 20
81.300000
 30
0.000000
  8
29
 62
7
  6
CONTINUOUS
  0
SEQEND
  0
SOLID
  8
56
 62
255
  6
CONTINUOUS
 10
22.500000
 20
54.000000
 11
22.500000
 21
51.000000
 12
17.500000
 22
54.000000
 13
17.500000
 23
51.000000
  0
POLYLINE
  8
56
 62
7
  6
CONTINUOUS
 70
1
 66
1
  0
VERTEX
 10
22.500000
 20
54.000000
 30
0.000000
  8
56
 62
7
  6
CONTINUOUS
  0
VERTEX
 10
22.500000
 20
51.000000
 30
0.000000
  8
56
 62
7
  6
CONTINUOUS
  0
VERTEX
 10
17.500000
 20
51.000000
 30
0.000000
  8
56
 62
7
  6
CONTINUOUS
  0
VERTEX
 10
17.500000
 20
54.000000
 30
0.000000
  8
56
 62
7
  6
CONTINUOUS
  0
SEQEND
  0
SOLID
  8
56
 62
255
  6
CONTINUOUS
 10
7.700000
 20
54.000000
 11
7.700000
 21
51.000000
 12
2.700000
 22
54.000000
 13
2.700000
 23
51.000000
  0
POLYLINE
  8
56
 62
7
  6
CONTINUOUS
 70
1
 66
1
  0
VERTEX
 10
7.700000
 20
54.000000
 30
0.000000
  8
56
 62
7
  6
CONTINUOUS
  0
VERTEX
 10
7.700000
 20
51.000000
 30
0.000000
  8
56
 62
7
  6
CONTINUOUS
  0
VERTEX
 10
2.700000
 20
51.000000
 30
0.000000
  8
56
 62
7
  6
CONTINUOUS
  0
VERTEX
 10
2.700000
 20
54.000000
 30
0.000000
  8
56
 62
7
  6
CONTINUOUS
  0
SEQEND
  0
SOLID
  8
56
 62
255
  6
CONTINUOUS
 10
7.500000
 20
43.100000
 11
7.500000
 21
38.000000
 12
4.500000
 22
43.100000
 13
4.500000
 23
38.000000
  0
POLYLINE
  8
56
 62
7
  6
CONTINUOUS
 70
1
 66
1
  0
VERTEX
 10
7.500000
 20
43.100000
 30
0.000000
  8
56
 62
7
  6
CONTINUOUS
  0
VERTEX
 10
7.500000
 20
38.000000
 30
0.000000
  8
56
 62
7
  6
CONTINUOUS
  0
VERTEX
 10
4.500000
 20
38.000000
 30
0.000000
  8
56
 62
7
  6
CONTINUOUS
  0
VERTEX
 10
4.500000
 20
43.100000
 30
0.000000
  8
56
 62
7
  6
CONTINUOUS
  0
SEQEND
  0
SOLID
  8
56
 62
255
  6
CONTINUOUS
 10
20.500000
 20
43.000000
 11
20.500000
 21
38.000000
 12
17.500000
 22
43.000000
 13
17.500000
 23
38.000000
  0
POLYLINE
  8
56
 62
7
  6
CONTINUOUS
 70
1
 66
1
  0
VERTEX
 10
20.500000
 20
43.000000
 30
0.000000
  8
56
 62
7
  6
CONTINUOUS
  0
VERTEX
 10
20.500000
 20
38.000000
 30
0.000000
  8
56
 62
7
  6
CONTINUOUS
  0
VERTEX
 10
17.500000
 20
38.000000
 30
0.000000
  8
56
 62
7
  6
CONTINUOUS
  0
VERTEX
 10
17.500000
 20
43.000000
 30
0.000000
  8
56
 62
7
  6
CONTINUOUS
  0
SEQEND
  0
SOLID
  8
56
 62
255
  6
CONTINUOUS
 10
7.500000
 20
67.000000
 11
7.500000
 21
62.000000
 12
4.500000
 22
67.000000
 13
4.500000
 23
62.000000
  0
POLYLINE
  8
56
 62
7
  6
CONTINUOUS
 70
1
 66
1
  0
VERTEX
 10
7.500000
 20
67.000000
 30
0.000000
  8
56
 62
7
  6
CONTINUOUS
  0
VERTEX
 10
7.500000
 20
62.000000
 30
0.000000
  8
56
 62
7
  6
CONTINUOUS
  0
VERTEX
 10
4.500000
 20
62.000000
 30
0.000000
  8
56
 62
7
  6
CONTINUOUS
  0
VERTEX
 10
4.500000
 20
67.000000
 30
0.000000
  8
56
 62
7
  6
CONTINUOUS
  0
SEQEND
  0
SOLID
  8
56
 62
255
  6
CONTINUOUS
 10
20.500000
 20
67.000000
 11
20.500000
 21
62.000000
 12
17.500000
 22
67.000000
 13
17.500000
 23
62.000000
  0
POLYLINE
  8
56
 62
7
  6
CONTINUOUS
 70
1
 66
1
  0
VERTEX
 10
20.500000
 20
67.000000
 30
0.000000
  8
56
 62
7
  6
CONTINUOUS
  0
VERTEX
 10
20.500000
 20
62.000000
 30
0.000000
  8
56
 62
7
  6
CONTINUOUS
  0
VERTEX
 10
17.500000
 20
62.000000
 30
0.000000
  8
56
 62
7
  6
CONTINUOUS
  0
VERTEX
 10
17.500000
 20
67.000000
 30
0.000000
  8
56
 62
7
  6
CONTINUOUS
  0
SEQEND
  0
CIRCLE
  8
56
 62
7
  6
CONTINUOUS
 10
6.000000
 20
63.500000
 30
0.0
 40
0.800000
  0
CIRCLE
  8
56
 62
7
  6
CONTINUOUS
 10
19.000000
 20
63.500000
 30
0.0
 40
0.800000
  0
CIRCLE
  8
56
 62
7
  6
CONTINUOUS
 10
6.000000
 20
52.500000
 30
0.0
 40
0.800000
  0
CIRCLE
  8
56
 62
7
  6
CONTINUOUS
 10
19.000000
 20
52.500000
 30
0.0
 40
0.800000
  0
CIRCLE
  8
56
 62
7
  6
CONTINUOUS
 10
6.000000
 20
41.500000
 30
0.0
 40
0.800000
  0
CIRCLE
  8
56
 62
7
  6
CONTINUOUS
 10
19.000000
 20
41.500000
 30
0.0
 40
0.800000
  0
SOLID
  8
58
 62
30
  6
CONTINUOUS
 10
22.500000
 20
54.000000
 11
22.500000
 21
51.000000
 12
17.500000
 22
54.000000
 13
17.500000
 23
51.000000
  0
POLYLINE
  8
58
 62
7
  6
CONTINUOUS
 70
1
 66
1
  0
VERTEX
 10
22.500000
 20
54.000000
 30
0.000000
  8
58
 62
7
  6
CONTINUOUS
  0
VERTEX
 10
22.500000
 20
51.000000
 30
0.000000
  8
58
 62
7
  6
CONTINUOUS
  0
VERTEX
 10
17.500000
 20
51.000000
 30
0.000000
  8
58
 62
7
  6
CONTINUOUS
  0
VERTEX
 10
17.500000
 20
54.000000
 30
0.000000
  8
58
 62
7
  6
CONTINUOUS
  0
SEQEND
  0
SOLID
  8
58
 62
30
  6
CONTINUOUS
 10
7.700000
 20
54.000000
 11
7.700000
 21
51.000000
 12
2.700000
 22
54.000000
 13
2.700000
 23
51.000000
  0
POLYLINE
  8
58
 62
7
  6
CONTINUOUS
 70
1
 66
1
  0
VERTEX
 10
7.700000
 20
54.000000
 30
0.000000
  8
58
 62
7
  6
CONTINUOUS
  0
VERTEX
 10
7.700000
 20
51.000000
 30
0.000000
  8
58
 62
7
  6
CONTINUOUS
  0
VERTEX
 10
2.700000
 20
51.000000
 30
0.000000
  8
58
 62
7
  6
CONTINUOUS
  0
VERTEX
 10
2.700000
 20
54.000000
 30
0.000000
  8
58
 62
7
  6
CONTINUOUS
  0
SEQEND
  0
SOLID
  8
58
 62
30
  6
CONTINUOUS
 10
7.500000
 20
43.100000
 11
7.500000
 21
38.000000
 12
4.500000
 22
43.100000
 13
4.500000
 23
38.000000
  0
POLYLINE
  8
58
 62
7
  6
CONTINUOUS
 70
1
 66
1
  0
VERTEX
 10
7.500000
 20
43.100000
 30
0.000000
  8
58
 62
7
  6
CONTINUOUS
  0
VERTEX
 10
7.500000
 20
38.000000
 30
0.000000
  8
58
 62
7
  6
CONTINUOUS
  0
VERTEX
 10
4.500000
 20
38.000000
 30
0.000000
  8
58
 62
7
  6
CONTINUOUS
  0
VERTEX
 10
4.500000
 20
43.100000
 30
0.000000
  8
58
 62
7
  6
CONTINUOUS
  0
SEQEND
  0
SOLID
  8
58
 62
30
  6
CONTINUOUS
 10
20.500000
 20
43.000000
 11
20.500000
 21
38.000000
 12
17.500000
 22
43.000000
 13
17.500000
 23
38.000000
  0
POLYLINE
  8
58
 62
7
  6
CONTINUOUS
 70
1
 66
1
  0
VERTEX
 10
20.500000
 20
43.000000
 30
0.000000
  8
58
 62
7
  6
CONTINUOUS
  0
VERTEX
 10
20.500000
 20
38.000000
 30
0.000000
  8
58
 62
7
  6
CONTINUOUS
  0
VERTEX
 10
17.500000
 20
38.000000
 30
0.000000
  8
58
 62
7
  6
CONTINUOUS
  0
VERTEX
 10
17.500000
 20
43.000000
 30
0.000000
  8
58
 62
7
  6
CONTINUOUS
  0
SEQEND
  0
SOLID
  8
58
 62
30
  6
CONTINUOUS
 10
7.500000
 20
67.000000
 11
7.500000
 21
62.000000
 12
4.500000
 22
67.000000
 13
4.500000
 23
62.000000
  0
POLYLINE
  8
58
 62
7
  6
CONTINUOUS
 70
1
 66
1
  0
VERTEX
 10
7.500000
 20
67.000000
 30
0.000000
  8
58
 62
7
  6
CONTINUOUS
  0
VERTEX
 10
7.500000
 20
62.000000
 30
0.000000
  8
58
 62
7
  6
CONTINUOUS
  0
VERTEX
 10
4.500000
 20
62.000000
 30
0.000000
  8
58
 62
7
  6
CONTINUOUS
  0
VERTEX
 10
4.500000
 20
67.000000
 30
0.000000
  8
58
 62
7
  6
CONTINUOUS
  0
SEQEND
  0
SOLID
  8
58
 62
30
  6
CONTINUOUS
 10
20.500000
 20
67.000000
 11
20.500000
 21
62.000000
 12
17.500000
 22
67.000000
 13
17.500000
 23
62.000000
  0
POLYLINE
  8
58
 62
7
  6
CONTINUOUS
 70
1
 66
1
  0
VERTEX
 10
20.500000
 20
67.000000
 30
0.000000
  8
58
 62
7
  6
CONTINUOUS
  0
VERTEX
 10
20.500000
 20
62.000000
 30
0.000000
  8
58
 62
7
  6
CONTINUOUS
  0
VERTEX
 10
17.500000
 20
62.000000
 30
0.000000
  8
58
 62
7
  6
CONTINUOUS
  0
VERTEX
 10
17.500000
 20
67.000000
 30
0.000000
  8
58
 62
7
  6
CONTINUOUS
  0
SEQEND
  0
CIRCLE
  8
58
 62
7
  6
CONTINUOUS
 10
6.000000
 20
63.500000
 30
0.0
 40
0.800000
  0
CIRCLE
  8
58
 62
7
  6
CONTINUOUS
 10
19.000000
 20
63.500000
 30
0.0
 40
0.800000
  0
CIRCLE
  8
58
 62
7
  6
CONTINUOUS
 10
6.000000
 20
52.500000
 30
0.0
 40
0.800000
  0
CIRCLE
  8
58
 62
7
  6
CONTINUOUS
 10
19.000000
 20
52.500000
 30
0.0
 40
0.800000
  0
CIRCLE
  8
58
 62
7
  6
CONTINUOUS
 10
6.000000
 20
41.500000
 30
0.0
 40
0.800000
  0
CIRCLE
  8
58
 62
7
  6
CONTINUOUS
 10
19.000000
 20
41.500000
 30
0.0
 40
0.800000
  0
SOLID
  8
60
 62
7
  6
CONTINUOUS
 10
22.500000
 20
54.000000
 11
22.500000
 21
51.000000
 12
17.500000
 22
54.000000
 13
17.500000
 23
51.000000
  0
POLYLINE
  8
60
 62
7
  6
CONTINUOUS
 70
1
 66
1
  0
VERTEX
 10
22.500000
 20
54.000000
 30
0.000000
  8
60
 62
7
  6
CONTINUOUS
  0
VERTEX
 10
22.500000
 20
51.000000
 30
0.000000
  8
60
 62
7
  6
CONTINUOUS
  0
VERTEX
 10
17.500000
 20
51.000000
 30
0.000000
  8
60
 62
7
  6
CONTINUOUS
  0
VERTEX
 10
17.500000
 20
54.000000
 30
0.000000
  8
60
 62
7
  6
CONTINUOUS
  0
SEQEND
  0
SOLID
  8
60
 62
7
  6
CONTINUOUS
 10
7.700000
 20
54.000000
 11
7.700000
 21
51.000000
 12
2.700000
 22
54.000000
 13
2.700000
 23
51.000000
  0
POLYLINE
  8
60
 62
7
  6
CONTINUOUS
 70
1
 66
1
  0
VERTEX
 10
7.700000
 20
54.000000
 30
0.000000
  8
60
 62
7
  6
CONTINUOUS
  0
VERTEX
 10
7.700000
 20
51.000000
 30
0.000000
  8
60
 62
7
  6
CONTINUOUS
  0
VERTEX
 10
2.700000
 20
51.000000
 30
0.000000
  8
60
 62
7
  6
CONTINUOUS
  0
VERTEX
 10
2.700000
 20
54.000000
 30
0.000000
  8
60
 62
7
  6
CONTINUOUS
  0
SEQEND
  0
SOLID
  8
60
 62
7
  6
CONTINUOUS
 10
7.500000
 20
43.100000
 11
7.500000
 21
38.000000
 12
4.500000
 22
43.100000
 13
4.500000
 23
38.000000
  0
POLYLINE
  8
60
 62
7
  6
CONTINUOUS
 70
1
 66
1
  0
VERTEX
 10
7.500000
 20
43.100000
 30
0.000000
  8
60
 62
7
  6
CONTINUOUS
  0
VERTEX
 10
7.500000
 20
38.000000
 30
0.000000
  8
60
 62
7
  6
CONTINUOUS
  0
VERTEX
 10
4.500000
 20
38.000000
 30
0.000000
  8
60
 62
7
  6
CONTINUOUS
  0
VERTEX
 10
4.500000
 20
43.100000
 30
0.000000
  8
60
 62
7
  6
CONTINUOUS
  0
SEQEND
  0
SOLID
  8
60
 62
7
  6
CONTINUOUS
 10
20.500000
 20
43.000000
 11
20.500000
 21
38.000000
 12
17.500000
 22
43.000000
 13
17.500000
 23
38.000000
  0
POLYLINE
  8
60
 62
7
  6
CONTINUOUS
 70
1
 66
1
  0
VERTEX
 10
20.500000
 20
43.000000
 30
0.000000
  8
60
 62
7
  6
CONTINUOUS
  0
VERTEX
 10
20.500000
 20
38.000000
 30
0.000000
  8
60
 62
7
  6
CONTINUOUS
  0
VERTEX
 10
17.500000
 20
38.000000
 30
0.000000
  8
60
 62
7
  6
CONTINUOUS
  0
VERTEX
 10
17.500000
 20
43.000000
 30
0.000000
  8
60
 62
7
  6
CONTINUOUS
  0
SEQEND
  0
SOLID
  8
60
 62
7
  6
CONTINUOUS
 10
7.500000
 20
67.000000
 11
7.500000
 21
62.000000
 12
4.500000
 22
67.000000
 13
4.500000
 23
62.000000
  0
POLYLINE
  8
60
 62
7
  6
CONTINUOUS
 70
1
 66
1
  0
VERTEX
 10
7.500000
 20
67.000000
 30
0.000000
  8
60
 62
7
  6
CONTINUOUS
  0
VERTEX
 10
7.500000
 20
62.000000
 30
0.000000
  8
60
 62
7
  6
CONTINUOUS
  0
VERTEX
 10
4.500000
 20
62.000000
 30
0.000000
  8
60
 62
7
  6
CONTINUOUS
  0
VERTEX
 10
4.500000
 20
67.000000
 30
0.000000
  8
60
 62
7
  6
CONTINUOUS
  0
SEQEND
  0
SOLID
  8
60
 62
7
  6
CONTINUOUS
 10
20.500000
 20
67.000000
 11
20.500000
 21
62.000000
 12
17.500000
 22
67.000000
 13
17.500000
 23
62.000000
  0
POLYLINE
  8
60
 62
7
  6
CONTINUOUS
 70
1
 66
1
  0
VERTEX
 10
20.500000
 20
67.000000
 30
0.000000
  8
60
 62
7
  6
CONTINUOUS
  0
VERTEX
 10
20.500000
 20
62.000000
 30
0.000000
  8
60
 62
7
  6
CONTINUOUS
  0
VERTEX
 10
17.500000
 20
62.000000
 30
0.000000
  8
60
 62
7
  6
CONTINUOUS
  0
VERTEX
 10
17.500000
 20
67.000000
 30
0.000000
  8
60
 62
7
  6
CONTINUOUS
  0
SEQEND
  0
CIRCLE
  8
60
 62
7
  6
CONTINUOUS
 10
6.000000
 20
63.500000
 30
0.0
 40
0.800000
  0
CIRCLE
  8
60
 62
7
  6
CONTINUOUS
 10
19.000000
 20
63.500000
 30
0.0
 40
0.800000
  0
CIRCLE
  8
60
 62
7
  6
CONTINUOUS
 10
6.000000
 20
52.500000
 30
0.0
 40
0.800000
  0
CIRCLE
  8
60
 62
7
  6
CONTINUOUS
 10
19.000000
 20
52.500000
 30
0.0
 40
0.800000
  0
CIRCLE
  8
60
 62
7
  6
CONTINUOUS
 10
6.000000
 20
41.500000
 30
0.0
 40
0.800000
  0
CIRCLE
  8
60
 62
7
  6
CONTINUOUS
 10
19.000000
 20
41.500000
 30
0.0
 40
0.800000
  0
CIRCLE
  8
38
 62
7
  6
CONTINUOUS
 10
24.000000
 20
61.300000
 30
0.0
 40
0.200000
  0
CIRCLE
  8
38
 62
7
  6
CONTINUOUS
 10
24.000000
 20
65.000000
 30
0.0
 40
0.200000
  0
CIRCLE
  8
38
 62
7
  6
CONTINUOUS
 10
24.000000
 20
40.000000
 30
0.0
 40
0.200000
  0
CIRCLE
  8
38
 62
7
  6
CONTINUOUS
 10
24.000000
 20
43.800000
 30
0.0
 40
0.200000
  0
CIRCLE
  8
38
 62
7
  6
CONTINUOUS
 10
1.000000
 20
61.300000
 30
0.0
 40
0.200000
  0
CIRCLE
  8
38
 62
7
  6
CONTINUOUS
 10
1.000000
 20
65.000000
 30
0.0
 40
0.200000
  0
CIRCLE
  8
38
 62
7
  6
CONTINUOUS
 10
1.000000
 20
40.000000
 30
0.0
 40
0.200000
  0
CIRCLE
  8
38
 62
7
  6
CONTINUOUS
 10
1.000000
 20
43.800000
 30
0.0
 40
0.200000
  0
SOLID
  8
38
 62
255
  6
CONTINUOUS
 10
17.700000
 20
82.500000
 11
17.700000
 21
92.500000
 12
3.100000
 22
82.500000
 13
3.100000
 23
92.500000
  0
POLYLINE
  8
38
 62
7
  6
CONTINUOUS
 70
1
 66
1
  0
VERTEX
 10
17.700000
 20
82.500000
 30
0.000000
  8
38
 62
7
  6
CONTINUOUS
  0
VERTEX
 10
17.700000
 20
92.500000
 30
0.000000
  8
38
 62
7
  6
CONTINUOUS
  0
VERTEX
 10
3.100000
 20
92.500000
 30
0.000000
  8
38
 62
7
  6
CONTINUOUS
  0
VERTEX
 10
3.100000
 20
82.500000
 30
0.000000
  8
38
 62
7
  6
CONTINUOUS
  0
SEQEND
  0
SOLID
  8
38
 62
255
  6
CONTINUOUS
 10
3.100000
 20
82.500000
 11
3.100000
 21
92.500000
 12
6.500000
 22
82.500000
 13
6.500000
 23
92.500000
  0
POLYLINE
  8
38
 62
7
  6
CONTINUOUS
 70
1
 66
1
  0
VERTEX
 10
3.100000
 20
82.500000
 30
0.000000
  8
38
 62
7
  6
CONTINUOUS
  0
VERTEX
 10
3.100000
 20
92.500000
 30
0.000000
  8
38
 62
7
  6
CONTINUOUS
  0
VERTEX
 10
6.500000
 20
92.500000
 30
0.000000
  8
38
 62
7
  6
CONTINUOUS
  0
VERTEX
 10
6.500000
 20
82.500000
 30
0.000000
  8
38
 62
7
  6
CONTINUOUS
  0
SEQEND
  0
POLYLINE
  8
38
 62
7
  6
CONTINUOUS
 70
1
 66
1
  0
VERTEX
 10
5.900000
 20
85.800000
 30
0.000000
  8
38
 62
7
  6
CONTINUOUS
  0
VERTEX
 10
5.900000
 20
89.200000
 30
0.000000
  8
38
 62
7
  6
CONTINUOUS
  0
VERTEX
 10
3.900000
 20
89.200000
 30
0.000000
  8
38
 62
7
  6
CONTINUOUS
  0
VERTEX
 10
3.900000
 20
85.800000
 30
0.000000
  8
38
 62
7
  6
CONTINUOUS
  0
SEQEND
  0
SOLID
  8
38
 62
255
  6
CONTINUOUS
 10
13.500000
 20
95.000000
 11
13.500000
 21
92.200000
 12
11.500000
 22
95.000000
 13
11.500000
 23
92.200000
  0
POLYLINE
  8
38
 62
7
  6
CONTINUOUS
 70
1
 66
1
  0
VERTEX
 10
13.500000
 20
95.000000
 30
0.000000
  8
38
 62
7
  6
CONTINUOUS
  0
VERTEX
 10
13.500000
 20
92.200000
 30
0.000000
  8
38
 62
7
  6
CONTINUOUS
  0
VERTEX
 10
11.500000
 20
92.200000
 30
0.000000
  8
38
 62
7
  6
CONTINUOUS
  0
VERTEX
 10
11.500000
 20
95.000000
 30
0.000000
  8
38
 62
7
  6
CONTINUOUS
  0
SEQEND
  0
SOLID
  8
38
 62
255
  6
CONTINUOUS
 10
10.800000
 20
82.500000
 11
10.800000
 21
92.500000
 12
14.200000
 22
82.500000
 13
14.200000
 23
92.500000
  0
POLYLINE
  8
38
 62
7
  6
CONTINUOUS
 70
1
 66
1
  0
VERTEX
 10
10.800000
 20
82.500000
 30
0.000000
  8
38
 62
7
  6
CONTINUOUS
  0
VERTEX
 10
10.800000
 20
92.500000
 30
0.000000
  8
38
 62
7
  6
CONTINUOUS
  0
VERTEX
 10
14.200000
 20
92.500000
 30
0.000000
  8
38
 62
7
  6
CONTINUOUS
  0
VERTEX
 10
14.200000
 20
82.500000
 30
0.000000
  8
38
 62
7
  6
CONTINUOUS
  0
SEQEND
  0
SOLID
  8
38
 62
255
  6
CONTINUOUS
 10
13.600000
 20
82.500000
 11
13.600000
 21
80.000000
 12
11.600000
 22
82.500000
 13
11.600000
 23
80.000000
  0
POLYLINE
  8
38
 62
7
  6
CONTINUOUS
 70
1
 66
1
  0
VERTEX
 10
13.600000
 20
82.500000
 30
0.000000
  8
38
 62
7
  6
CONTINUOUS
  0
VERTEX
 10
13.600000
 20
80.000000
 30
0.000000
  8
38
 62
7
  6
CONTINUOUS
  0
VERTEX
 10
11.600000
 20
80.000000
 30
0.000000
  8
38
 62
7
  6
CONTINUOUS
  0
VERTEX
 10
11.600000
 20
82.500000
 30
0.000000
  8
38
 62
7
  6
CONTINUOUS
  0
SEQEND
  0
SOLID
  8
38
 62
255
  6
CONTINUOUS
 10
6.600000
 20
82.500000
 11
6.600000
 21
92.500000
 12
10.700000
 22
82.500000
 13
10.700000
 23
92.500000
  0
POLYLINE
  8
38
 62
7
  6
CONTINUOUS
 70
1
 66
1
  0
VERTEX
 10
6.600000
 20
82.500000
 30
0.000000
  8
38
 62
7
  6
CONTINUOUS
  0
VERTEX
 10
6.600000
 20
92.500000
 30
0.000000
  8
38
 62
7
  6
CONTINUOUS
  0
VERTEX
 10
10.700000
 20
92.500000
 30
0.000000
  8
38
 62
7
  6
CONTINUOUS
  0
VERTEX
 10
10.700000
 20
82.500000
 30
0.000000
  8
38
 62
7
  6
CONTINUOUS
  0
SEQEND
  0
SOLID
  8
38
 62
9
  6
CONTINUOUS
 10
9.100000
 20
86.600000
 11
9.100000
 21
88.400000
 12
7.700000
 22
86.600000
 13
7.700000
 23
88.400000
  0
POLYLINE
  8
38
 62
7
  6
CONTINUOUS
 70
1
 66
1
  0
VERTEX
 10
9.100000
 20
86.600000
 30
0.000000
  8
38
 62
7
  6
CONTINUOUS
  0
VERTEX
 10
9.100000
 20
88.400000
 30
0.000000
  8
38
 62
7
  6
CONTINUOUS
  0
VERTEX
 10
7.700000
 20
88.400000
 30
0.000000
  8
38
 62
7
  6
CONTINUOUS
  0
VERTEX
 10
7.700000
 20
86.600000
 30
0.000000
  8
38
 62
7
  6
CONTINUOUS
  0
SEQEND
  0
CIRCLE
  8
38
 62
7
  6
CONTINUOUS
 10
12.500000
 20
93.700000
 30
0.0
 40
0.500000
  0
CIRCLE
  8
38
 62
7
  6
CONTINUOUS
 10
12.600000
 20
81.300000
 30
0.0
 40
0.500000
  0
CIRCLE
  8
38
 62
7
  6
CONTINUOUS
 10
8.400000
 20
87.500000
 30
0.0
 40
0.400000
  0
TEXT
  8
38
 62
7
  6
CONTINUOUS
 10
8.100000
 20
86.766667
 40
0.400000
  1
O
 50
0.000000
 51
0.000000
 72
1
 73
0
 11
8.100000
 21
86.766667
  0
TEXT
  8
38
 62
7
  6
CONTINUOUS
 10
8.100000
 20
87.966667
 40
0.400000
  1
I
 50
0.000000
 51
0.000000
 72
1
 73
0
 11
8.100000
 21
87.966667
  0
POLYLINE
  8
38
 62
7
  6
CONTINUOUS
 70
1
 66
1
  0
VERTEX
 10
13.500000
 20
85.800000
 30
0.000000
  8
38
 62
7
  6
CONTINUOUS
  0
VERTEX
 10
13.500000
 20
89.200000
 30
0.000000
  8
38
 62
7
  6
CONTINUOUS
  0
VERTEX
 10
11.500000
 20
89.200000
 30
0.000000
  8
38
 62
7
  6
CONTINUOUS
  0
VERTEX
 10
11.500000
 20
85.800000
 30
0.000000
  8
38
 62
7
  6
CONTINUOUS
  0
SEQEND
  0
SOLID
  8
38
 62
255
  6
CONTINUOUS
 10
5.800000
 20
95.000000
 11
5.800000
 21
92.500000
 12
3.800000
 22
95.000000
 13
3.800000
 23
92.500000
  0
POLYLINE
  8
38
 62
7
  6
CONTINUOUS
 70
1
 66
1
  0
VERTEX
 10
5.800000
 20
95.000000
 30
0.000000
  8
38
 62
7
  6
CONTINUOUS
  0
VERTEX
 10
5.800000
 20
92.500000
 30
0.000000
  8
38
 62
7
  6
CONTINUOUS
  0
VERTEX
 10
3.800000
 20
92.500000
 30
0.000000
  8
38
 62
7
  6
CONTINUOUS
  0
VERTEX
 10
3.800000
 20
95.000000
 30
0.000000
  8
38
 62
7
  6
CONTINUOUS
  0
SEQEND
  0
CIRCLE
  8
38
 62
7
  6
CONTINUOUS
 10
4.800000
 20
93.700000
 30
0.0
 40
0.500000
  0
SOLID
  8
38
 62
255
  6
CONTINUOUS
 10
5.900000
 20
82.500000
 11
5.900000
 21
80.000000
 12
3.900000
 22
82.500000
 13
3.900000
 23
80.000000
  0
POLYLINE
  8
38
 62
7
  6
CONTINUOUS
 70
1
 66
1
  0
VERTEX
 10
5.900000
 20
82.500000
 30
0.000000
  8
38
 62
7
  6
CONTINUOUS
  0
VERTEX
 10
5.900000
 20
80.000000
 30
0.000000
  8
38
 62
7
  6
CONTINUOUS
  0
VERTEX
 10
3.900000
 20
80.000000
 30
0.000000
  8
38
 62
7
  6
CONTINUOUS
  0
VERTEX
 10
3.900000
 20
82.500000
 30
0.000000
  8
38
 62
7
  6
CONTINUOUS
  0
SEQEND
  0
CIRCLE
  8
38
 62
7
  6
CONTINUOUS
 10
4.900000
 20
81.300000
 30
0.0
 40
0.500000
  0
SOLID
  8
38
 62
255
  6
CONTINUOUS
 10
17.000000
 20
95.000000
 11
17.000000
 21
92.200000
 12
15.000000
 22
95.000000
 13
15.000000
 23
92.200000
  0
POLYLINE
  8
38
 62
7
  6
CONTINUOUS
 70
1
 66
1
  0
VERTEX
 10
17.000000
 20
95.000000
 30
0.000000
  8
38
 62
7
  6
CONTINUOUS
  0
VERTEX
 10
17.000000
 20
92.200000
 30
0.000000
  8
38
 62
7
  6
CONTINUOUS
  0
VERTEX
 10
15.000000
 20
92.200000
 30
0.000000
  8
38
 62
7
  6
CONTINUOUS
  0
VERTEX
 10
15.000000
 20
95.000000
 30
0.000000
  8
38
 62
7
  6
CONTINUOUS
  0
SEQEND
  0
SOLID
  8
38
 62
255
  6
CONTINUOUS
 10
14.300000
 20
82.500000
 11
14.300000
 21
92.500000
 12
17.700000
 22
82.500000
 13
17.700000
 23
92.500000
  0
POLYLINE
  8
38
 62
7
  6
CONTINUOUS
 70
1
 66
1
  0
VERTEX
 10
14.300000
 20
82.500000
 30
0.000000
  8
38
 62
7
  6
CONTINUOUS
  0
VERTEX
 10
14.300000
 20
92.500000
 30
0.000000
  8
38
 62
7
  6
CONTINUOUS
  0
VERTEX
 10
17.700000
 20
92.500000
 30
0.000000
  8
38
 62
7
  6
CONTINUOUS
  0
VERTEX
 10
17.700000
 20
82.500000
 30
0.000000
  8
38
 62
7
  6
CONTINUOUS
  0
SEQEND
  0
CIRCLE
  8
38
 62
7
  6
CONTINUOUS
 10
16.000000
 20
93.700000
 30
0.0
 40
0.500000
  0
SOLID
  8
38
 62
255
  6
CONTINUOUS
 10
17.100000
 20
82.500000
 11
17.100000
 21
80.000000
 12
15.100000
 22
82.500000
 13
15.100000
 23
80.000000
  0
POLYLINE
  8
38
 62
7
  6
CONTINUOUS
 70
1
 66
1
  0
VERTEX
 10
17.100000
 20
82.500000
 30
0.000000
  8
38
 62
7
  6
CONTINUOUS
  0
VERTEX
 10
17.100000
 20
80.000000
 30
0.000000
  8
38
 62
7
  6
CONTINUOUS
  0
VERTEX
 10
15.100000
 20
80.000000
 30
0.000000
  8
38
 62
7
  6
CONTINUOUS
  0
VERTEX
 10
15.100000
 20
82.500000
 30
0.000000
  8
38
 62
7
  6
CONTINUOUS
  0
SEQEND
  0
CIRCLE
  8
38
 62
7
  6
CONTINUOUS
 10
16.100000
 20
81.300000
 30
0.0
 40
0.500000
  0
POLYLINE
  8
38
 62
7
  6
CONTINUOUS
 70
1
 66
1
  0
VERTEX
 10
17.100000
 20
85.800000
 30
0.000000
  8
38
 62
7
  6
CONTINUOUS
  0
VERTEX
 10
17.100000
 20
89.200000
 30
0.000000
  8
38
 62
7
  6
CONTINUOUS
  0
VERTEX
 10
15.100000
 20
89.200000
 30
0.000000
  8
38
 62
7
  6
CONTINUOUS
  0
VERTEX
 10
15.100000
 20
85.800000
 30
0.000000
  8
38
 62
7
  6
CONTINUOUS
  0
SEQEND
  0
POLYLINE
  8
38
 62
7
  6
CONTINUOUS
 70
1
 66
1
  0
VERTEX
 10
18.100000
 20
86.500000
 30
0.000000
  8
38
 62
7
  6
CONTINUOUS
  0
VERTEX
 10
18.100000
 20
88.500000
 30
0.000000
  8
38
 62
7
  6
CONTINUOUS
  0
VERTEX
 10
17.700000
 20
88.500000
 30
0.000000
  8
38
 62
7
  6
CONTINUOUS
  0
VERTEX
 10
17.700000
 20
86.500000
 30
0.000000
  8
38
 62
7
  6
CONTINUOUS
  0
SEQEND
  0
POLYLINE
  8
2
 62
7
  6
CONTINUOUS
 70
1
 66
1
  0
VERTEX
 10
18.000000
 20
23.600000
  8
2
 62
7
  6
CONTINUOUS
  0
VERTEX
 10
18.000000
 20
20.600000
  8
2
 62
7
  6
CONTINUOUS
  0
VERTEX
 10
16.000000
 20
20.600000
  8
2
 62
7
  6
CONTINUOUS
  0
VERTEX
 10
16.000000
 20
8.600000
  8
2
 62
7
  6
CONTINUOUS
  0
VERTEX
 10
18.000000
 20
8.600000
  8
2
 62
7
  6
CONTINUOUS
  0
VERTEX
 10
18.000000
 20
5.600000
  8
2
 62
7
  6
CONTINUOUS
  0
VERTEX
 10
20.000000
 20
5.600000
  8
2
 62
7
  6
CONTINUOUS
  0
VERTEX
 10
20.000000
 20
8.600000
  8
2
 62
7
  6
CONTINUOUS
  0
VERTEX
 10
22.000000
 20
8.600000
  8
2
 62
7
  6
CONTINUOUS
  0
VERTEX
 10
22.000000
 20
20.600000
  8
2
 62
7
  6
CONTINUOUS
  0
VERTEX
 10
20.000000
 20
20.600000
  8
2
 62
7
  6
CONTINUOUS
  0
VERTEX
 10
20.000000
 20
23.600000
  8
2
 62
7
  6
CONTINUOUS
  0
SEQEND
  0
POLYLINE
  8
2
 62
7
  6
CONTINUOUS
 70
1
 66
1
  0
VERTEX
 10
5.000000
 20
23.600000
  8
2
 62
7
  6
CONTINUOUS
  0
VERTEX
 10
5.000000
 20
20.600000
  8
2
 62
7
  6
CONTINUOUS
  0
VERTEX
 10
3.000000
 20
20.600000
  8
2
 62
7
  6
CONTINUOUS
  0
VERTEX
 10
3.000000
 20
8.600000
  8
2
 62
7
  6
CONTINUOUS
  0
VERTEX
 10
5.000000
 20
8.600000
  8
2
 62
7
  6
CONTINUOUS
  0
VERTEX
 10
5.000000
 20
5.600000
  8
2
 62
7
  6
CONTINUOUS
  0
VERTEX
 10
7.000000
 20
5.600000
  8
2
 62
7
  6
CONTINUOUS
  0
VERTEX
 10
7.000000
 20
8.600000
  8
2
 62
7
  6
CONTINUOUS
  0
VERTEX
 10
9.000000
 20
8.600000
  8
2
 62
7
  6
CONTINUOUS
  0
VERTEX
 10
9.000000
 20
20.600000
  8
2
 62
7
  6
CONTINUOUS
  0
VERTEX
 10
7.000000
 20
20.600000
  8
2
 62
7
  6
CONTINUOUS
  0
VERTEX
 10
7.000000
 20
23.600000
  8
2
 62
7
  6
CONTINUOUS
  0
SEQEND
  0
POLYLINE
  8
2
 62
7
  6
CONTINUOUS
 70
1
 66
1
  0
VERTEX
 10
11.500000
 20
23.600000
  8
2
 62
7
  6
CONTINUOUS
  0
VERTEX
 10
11.500000
 20
20.600000
  8
2
 62
7
  6
CONTINUOUS
  0
VERTEX
 10
9.500000
 20
20.600000
  8
2
 62
7
  6
CONTINUOUS
  0
VERTEX
 10
9.500000
 20
8.600000
  8
2
 62
7
  6
CONTINUOUS
  0
VERTEX
 10
11.500000
 20
8.600000
  8
2
 62
7
  6
CONTINUOUS
  0
VERTEX
 10
11.500000
 20
5.600000
  8
2
 62
7
  6
CONTINUOUS
  0
VERTEX
 10
13.500000
 20
5.600000
  8
2
 62
7
  6
CONTINUOUS
  0
VERTEX
 10
13.500000
 20
8.600000
  8
2
 62
7
  6
CONTINUOUS
  0
VERTEX
 10
15.500000
 20
8.600000
  8
2
 62
7
  6
CONTINUOUS
  0
VERTEX
 10
15.500000
 20
20.600000
  8
2
 62
7
  6
CONTINUOUS
  0
VERTEX
 10
13.500000
 20
20.600000
  8
2
 62
7
  6
CONTINUOUS
  0
VERTEX
 10
13.500000
 20
23.600000
  8
2
 62
7
  6
CONTINUOUS
  0
SEQEND
  0
SOLID
  8
2
 62
7
  6
CONTINUOUS
 10
16.000000
 20
4.100000
 11
16.000000
 21
25.000000
 12
15.500000
 22
4.100000
 13
15.500000
 23
25.000000
  0
POLYLINE
  8
2
 62
7
  6
CONTINUOUS
 70
1
 66
1
  0
VERTEX
 10
16.000000
 20
4.100000
 30
0.000000
  8
2
 62
7
  6
CONTINUOUS
  0
VERTEX
 10
16.000000
 20
25.000000
 30
0.000000
  8
2
 62
7
  6
CONTINUOUS
  0
VERTEX
 10
15.500000
 20
25.000000
 30
0.000000
  8
2
 62
7
  6
CONTINUOUS
  0
VERTEX
 10
15.500000
 20
4.100000
 30
0.000000
  8
2
 62
7
  6
CONTINUOUS
  0
SEQEND
  0
SOLID
  8
2
 62
7
  6
CONTINUOUS
 10
9.500000
 20
4.100000
 11
9.500000
 21
25.000000
 12
9.000000
 22
4.100000
 13
9.000000
 23
25.000000
  0
POLYLINE
  8
2
 62
7
  6
CONTINUOUS
 70
1
 66
1
  0
VERTEX
 10
9.500000
 20
4.100000
 30
0.000000
  8
2
 62
7
  6
CONTINUOUS
  0
VERTEX
 10
9.500000
 20
25.000000
 30
0.000000
  8
2
 62
7
  6
CONTINUOUS
  0
VERTEX
 10
9.000000
 20
25.000000
 30
0.000000
  8
2
 62
7
  6
CONTINUOUS
  0
VERTEX
 10
9.000000
 20
4.100000
 30
0.000000
  8
2
 62
7
  6
CONTINUOUS
  0
SEQEND
  0
SOLID
  8
2
 62
255
  6
L00A100020014000000
 10
17.700000
 20
82.500000
 11
17.700000
 21
92.500000
 12
3.100000
 22
82.500000
 13
3.100000
 23
92.500000
  0
POLYLINE
  8
2
 62
7
  6
L00A100020014000000
 70
1
 66
1
  0
VERTEX
 10
17.700000
 20
82.500000
 30
0.000000
  8
2
 62
7
  6
L00A100020014000000
  0
VERTEX
 10
17.700000
 20
92.500000
 30
0.000000
  8
2
 62
7
  6
L00A100020014000000
  0
VERTEX
 10
3.100000
 20
92.500000
 30
0.000000
  8
2
 62
7
  6
L00A100020014000000
  0
VERTEX
 10
3.100000
 20
82.500000
 30
0.000000
  8
2
 62
7
  6
L00A100020014000000
  0
SEQEND
  0
SOLID
  8
2
 62
255
  6
L00A100020014000000
 10
3.100000
 20
82.500000
 11
3.100000
 21
92.500000
 12
6.500000
 22
82.500000
 13
6.500000
 23
92.500000
  0
POLYLINE
  8
2
 62
7
  6
L00A100020014000000
 70
1
 66
1
  0
VERTEX
 10
3.100000
 20
82.500000
 30
0.000000
  8
2
 62
7
  6
L00A100020014000000
  0
VERTEX
 10
3.100000
 20
92.500000
 30
0.000000
  8
2
 62
7
  6
L00A100020014000000
  0
VERTEX
 10
6.500000
 20
92.500000
 30
0.000000
  8
2
 62
7
  6
L00A100020014000000
  0
VERTEX
 10
6.500000
 20
82.500000
 30
0.000000
  8
2
 62
7
  6
L00A100020014000000
  0
SEQEND
  0
POLYLINE
  8
2
 62
7
  6
L00A100020014000000
 70
1
 66
1
  0
VERTEX
 10
5.900000
 20
85.800000
 30
0.000000
  8
2
 62
7
  6
L00A100020014000000
  0
VERTEX
 10
5.900000
 20
89.200000
 30
0.000000
  8
2
 62
7
  6
L00A100020014000000
  0
VERTEX
 10
3.900000
 20
89.200000
 30
0.000000
  8
2
 62
7
  6
L00A100020014000000
  0
VERTEX
 10
3.900000
 20
85.800000
 30
0.000000
  8
2
 62
7
  6
L00A100020014000000
  0
SEQEND
  0
SOLID
  8
2
 62
255
  6
L00A100020014000000
 10
13.500000
 20
95.000000
 11
13.500000
 21
92.200000
 12
11.500000
 22
95.000000
 13
11.500000
 23
92.200000
  0
POLYLINE
  8
2
 62
7
  6
L00A100020014000000
 70
1
 66
1
  0
VERTEX
 10
13.500000
 20
95.000000
 30
0.000000
  8
2
 62
7
  6
L00A100020014000000
  0
VERTEX
 10
13.500000
 20
92.200000
 30
0.000000
  8
2
 62
7
  6
L00A100020014000000
  0
VERTEX
 10
11.500000
 20
92.200000
 30
0.000000
  8
2
 62
7
  6
L00A100020014000000
  0
VERTEX
 10
11.500000
 20
95.000000
 30
0.000000
  8
2
 62
7
  6
L00A100020014000000
  0
SEQEND
  0
SOLID
  8
2
 62
255
  6
L00A100020014000000
 10
10.800000
 20
82.500000
 11
10.800000
 21
92.500000
 12
14.200000
 22
82.500000
 13
14.200000
 23
92.500000
  0
POLYLINE
  8
2
 62
7
  6
L00A100020014000000
 70
1
 66
1
  0
VERTEX
 10
10.800000
 20
82.500000
 30
0.000000
  8
2
 62
7
  6
L00A100020014000000
  0
VERTEX
 10
10.800000
 20
92.500000
 30
0.000000
  8
2
 62
7
  6
L00A100020014000000
  0
VERTEX
 10
14.200000
 20
92.500000
 30
0.000000
  8
2
 62
7
  6
L00A100020014000000
  0
VERTEX
 10
14.200000
 20
82.500000
 30
0.000000
  8
2
 62
7
  6
L00A100020014000000
  0
SEQEND
  0
SOLID
  8
2
 62
255
  6
L00A100020014000000
 10
13.600000
 20
82.500000
 11
13.600000
 21
80.000000
 12
11.600000
 22
82.500000
 13
11.600000
 23
80.000000
  0
POLYLINE
  8
2
 62
7
  6
L00A100020014000000
 70
1
 66
1
  0
VERTEX
 10
13.600000
 20
82.500000
 30
0.000000
  8
2
 62
7
  6
L00A100020014000000
  0
VERTEX
 10
13.600000
 20
80.000000
 30
0.000000
  8
2
 62
7
  6
L00A100020014000000
  0
VERTEX
 10
11.600000
 20
80.000000
 30
0.000000
  8
2
 62
7
  6
L00A100020014000000
  0
VERTEX
 10
11.600000
 20
82.500000
 30
0.000000
  8
2
 62
7
  6
L00A100020014000000
  0
SEQEND
  0
SOLID
  8
2
 62
255
  6
L00A100020014000000
 10
6.600000
 20
82.500000
 11
6.600000
 21
92.500000
 12
10.700000
 22
82.500000
 13
10.700000
 23
92.500000
  0
POLYLINE
  8
2
 62
7
  6
L00A100020014000000
 70
1
 66
1
  0
VERTEX
 10
6.600000
 20
82.500000
 30
0.000000
  8
2
 62
7
  6
L00A100020014000000
  0
VERTEX
 10
6.600000
 20
92.500000
 30
0.000000
  8
2
 62
7
  6
L00A100020014000000
  0
VERTEX
 10
10.700000
 20
92.500000
 30
0.000000
  8
2
 62
7
  6
L00A100020014000000
  0
VERTEX
 10
10.700000
 20
82.500000
 30
0.000000
  8
2
 62
7
  6
L00A100020014000000
  0
SEQEND
  0
SOLID
  8
2
 62
9
  6
L00A100020014000000
 10
9.100000
 20
86.600000
 11
9.100000
 21
88.400000
 12
7.700000
 22
86.600000
 13
7.700000
 23
88.400000
  0
POLYLINE
  8
2
 62
7
  6
L00A100020014000000
 70
1
 66
1
  0
VERTEX
 10
9.100000
 20
86.600000
 30
0.000000
  8
2
 62
7
  6
L00A100020014000000
  0
VERTEX
 10
9.100000
 20
88.400000
 30
0.000000
  8
2
 62
7
  6
L00A100020014000000
  0
VERTEX
 10
7.700000
 20
88.400000
 30
0.000000
  8
2
 62
7
  6
L00A100020014000000
  0
VERTEX
 10
7.700000
 20
86.600000
 30
0.000000
  8
2
 62
7
  6
L00A100020014000000
  0
SEQEND
  0
CIRCLE
  8
2
 62
7
  6
L00A100020014000000
 10
12.500000
 20
93.700000
 30
0.0
 40
0.500000
  0
CIRCLE
  8
2
 62
7
  6
L00A100020014000000
 10
12.600000
 20
81.300000
 30
0.0
 40
0.500000
  0
CIRCLE
  8
2
 62
7
  6
L00A100020014000000
 10
8.400000
 20
87.500000
 30
0.0
 40
0.400000
  0
TEXT
  8
2
 62
7
  6
CONTINUOUS
 10
8.100000
 20
86.766667
 40
0.400000
  1
O
 50
0.000000
 51
0.000000
 72
1
 73
0
 11
8.100000
 21
86.766667
  0
TEXT
  8
2
 62
7
  6
CONTINUOUS
 10
8.100000
 20
87.966667
 40
0.400000
  1
I
 50
0.000000
 51
0.000000
 72
1
 73
0
 11
8.100000
 21
87.966667
  0
POLYLINE
  8
2
 62
7
  6
L00A100020014000000
 70
1
 66
1
  0
VERTEX
 10
13.500000
 20
85.800000
 30
0.000000
  8
2
 62
7
  6
L00A100020014000000
  0
VERTEX
 10
13.500000
 20
89.200000
 30
0.000000
  8
2
 62
7
  6
L00A100020014000000
  0
VERTEX
 10
11.500000
 20
89.200000
 30
0.000000
  8
2
 62
7
  6
L00A100020014000000
  0
VERTEX
 10
11.500000
 20
85.800000
 30
0.000000
  8
2
 62
7
  6
L00A100020014000000
  0
SEQEND
  0
SOLID
  8
2
 62
255
  6
L00A100020014000000
 10
5.800000
 20
95.000000
 11
5.800000
 21
92.500000
 12
3.800000
 22
95.000000
 13
3.800000
 23
92.500000
  0
POLYLINE
  8
2
 62
7
  6
L00A100020014000000
 70
1
 66
1
  0
VERTEX
 10
5.800000
 20
95.000000
 30
0.000000
  8
2
 62
7
  6
L00A100020014000000
  0
VERTEX
 10
5.800000
 20
92.500000
 30
0.000000
  8
2
 62
7
  6
L00A100020014000000
  0
VERTEX
 10
3.800000
 20
92.500000
 30
0.000000
  8
2
 62
7
  6
L00A100020014000000
  0
VERTEX
 10
3.800000
 20
95.000000
 30
0.000000
  8
2
 62
7
  6
L00A100020014000000
  0
SEQEND
  0
CIRCLE
  8
2
 62
7
  6
L00A100020014000000
 10
4.800000
 20
93.700000
 30
0.0
 40
0.500000
  0
SOLID
  8
2
 62
255
  6
L00A100020014000000
 10
5.900000
 20
82.500000
 11
5.900000
 21
80.000000
 12
3.900000
 22
82.500000
 13
3.900000
 23
80.000000
  0
POLYLINE
  8
2
 62
7
  6
L00A100020014000000
 70
1
 66
1
  0
VERTEX
 10
5.900000
 20
82.500000
 30
0.000000
  8
2
 62
7
  6
L00A100020014000000
  0
VERTEX
 10
5.900000
 20
80.000000
 30
0.000000
  8
2
 62
7
  6
L00A100020014000000
  0
VERTEX
 10
3.900000
 20
80.000000
 30
0.000000
  8
2
 62
7
  6
L00A100020014000000
  0
VERTEX
 10
3.900000
 20
82.500000
 30
0.000000
  8
2
 62
7
  6
L00A100020014000000
  0
SEQEND
  0
CIRCLE
  8
2
 62
7
  6
L00A100020014000000
 10
4.900000
 20
81.300000
 30
0.0
 40
0.500000
  0
SOLID
  8
2
 62
255
  6
L00A100020014000000
 10
17.000000
 20
95.000000
 11
17.000000
 21
92.200000
 12
15.000000
 22
95.000000
 13
15.000000
 23
92.200000
  0
POLYLINE
  8
2
 62
7
  6
L00A100020014000000
 70
1
 66
1
  0
VERTEX
 10
17.000000
 20
95.000000
 30
0.000000
  8
2
 62
7
  6
L00A100020014000000
  0
VERTEX
 10
17.000000
 20
92.200000
 30
0.000000
  8
2
 62
7
  6
L00A100020014000000
  0
VERTEX
 10
15.000000
 20
92.200000
 30
0.000000
  8
2
 62
7
  6
L00A100020014000000
  0
VERTEX
 10
15.000000
 20
95.000000
 30
0.000000
  8
2
 62
7
  6
L00A100020014000000
  0
SEQEND
  0
SOLID
  8
2
 62
255
  6
L00A100020014000000
 10
14.300000
 20
82.500000
 11
14.300000
 21
92.500000
 12
17.700000
 22
82.500000
 13
17.700000
 23
92.500000
  0
POLYLINE
  8
2
 62
7
  6
L00A100020014000000
 70
1
 66
1
  0
VERTEX
 10
14.300000
 20
82.500000
 30
0.000000
  8
2
 62
7
  6
L00A100020014000000
  0
VERTEX
 10
14.300000
 20
92.500000
 30
0.000000
  8
2
 62
7
  6
L00A100020014000000
  0
VERTEX
 10
17.700000
 20
92.500000
 30
0.000000
  8
2
 62
7
  6
L00A100020014000000
  0
VERTEX
 10
17.700000
 20
82.500000
 30
0.000000
  8
2
 62
7
  6
L00A100020014000000
  0
SEQEND
  0
CIRCLE
  8
2
 62
7
  6
L00A100020014000000
 10
16.000000
 20
93.700000
 30
0.0
 40
0.500000
  0
SOLID
  8
2
 62
255
  6
L00A100020014000000
 10
17.100000
 20
82.500000
 11
17.100000
 21
80.000000
 12
15.100000
 22
82.500000
 13
15.100000
 23
80.000000
  0
POLYLINE
  8
2
 62
7
  6
L00A100020014000000
 70
1
 66
1
  0
VERTEX
 10
17.100000
 20
82.500000
 30
0.000000
  8
2
 62
7
  6
L00A100020014000000
  0
VERTEX
 10
17.100000
 20
80.000000
 30
0.000000
  8
2
 62
7
  6
L00A100020014000000
  0
VERTEX
 10
15.100000
 20
80.000000
 30
0.000000
  8
2
 62
7
  6
L00A100020014000000
  0
VERTEX
 10
15.100000
 20
82.500000
 30
0.000000
  8
2
 62
7
  6
L00A100020014000000
  0
SEQEND
  0
CIRCLE
  8
2
 62
7
  6
L00A100020014000000
 10
16.100000
 20
81.300000
 30
0.0
 40
0.500000
  0
POLYLINE
  8
2
 62
7
  6
L00A100020014000000
 70
1
 66
1
  0
VERTEX
 10
17.100000
 20
85.800000
 30
0.000000
  8
2
 62
7
  6
L00A100020014000000
  0
VERTEX
 10
17.100000
 20
89.200000
 30
0.000000
  8
2
 62
7
  6
L00A100020014000000
  0
VERTEX
 10
15.100000
 20
89.200000
 30
0.000000
  8
2
 62
7
  6
L00A100020014000000
  0
VERTEX
 10
15.100000
 20
85.800000
 30
0.000000
  8
2
 62
7
  6
L00A100020014000000
  0
SEQEND
  0
POLYLINE
  8
2
 62
7
  6
L00A100020014000000
 70
1
 66
1
  0
VERTEX
 10
18.100000
 20
86.500000
 30
0.000000
  8
2
 62
7
  6
L00A100020014000000
  0
VERTEX
 10
18.100000
 20
88.500000
 30
0.000000
  8
2
 62
7
  6
L00A100020014000000
  0
VERTEX
 10
17.700000
 20
88.500000
 30
0.000000
  8
2
 62
7
  6
L00A100020014000000
  0
VERTEX
 10
17.700000
 20
86.500000
 30
0.000000
  8
2
 62
7
  6
L00A100020014000000
  0
SEQEND
  0
SOLID
  8
2
 62
255
  6
L000000020000FFFFFF
 10
13.000000
 20
89.500000
 11
13.000000
 21
85.500000
 12
8.200000
 22
89.500000
 13
8.200000
 23
85.500000
  0
POLYLINE
  8
2
 62
255
  6
L000000020000FFFFFF
 70
1
 66
1
  0
VERTEX
 10
13.000000
 20
89.500000
 30
0.000000
  8
2
 62
255
  6
L000000020000FFFFFF
  0
VERTEX
 10
13.000000
 20
85.500000
 30
0.000000
  8
2
 62
255
  6
L000000020000FFFFFF
  0
VERTEX
 10
8.200000
 20
85.500000
 30
0.000000
  8
2
 62
255
  6
L000000020000FFFFFF
  0
VERTEX
 10
8.200000
 20
89.500000
 30
0.000000
  8
2
 62
255
  6
L000000020000FFFFFF
  0
SEQEND
  0
CIRCLE
  8
2
 62
7
  6
CONTINUOUS
 10
8.400000
 20
87.500000
 30
0.0
 40
3.300000
  0
TEXT
  8
2
 62
7
  6
CONTINUOUS
 10
5.333333
 20
88.000000
 40
0.800000
  1
O
 50
-90.000000
 51
0.000000
 72
0
 73
0
  0
TEXT
  8
2
 62
7
  6
CONTINUOUS
 10
8.400000
 20
90.033333
 40
0.800000
  1
I
 50
0.000000
 51
0.000000
 72
1
 73
0
 11
8.400000
 21
90.033333
  0
CIRCLE
  8
2
 62
7
  6
CONTINUOUS
 10
13.000000
 20
87.500000
 30
0.0
 40
2.000000
  0
SOLID
  8
2
 62
255
  6
L000000020000FFFFFF
 10
12.700000
 20
89.500000
 11
12.700000
 21
85.500000
 12
8.400000
 22
89.500000
 13
8.400000
 23
85.500000
  0
POLYLINE
  8
2
 62
255
  6
L000000020000FFFFFF
 70
1
 66
1
  0
VERTEX
 10
12.700000
 20
89.500000
 30
0.000000
  8
2
 62
255
  6
L000000020000FFFFFF
  0
VERTEX
 10
12.700000
 20
85.500000
 30
0.000000
  8
2
 62
255
  6
L000000020000FFFFFF
  0
VERTEX
 10
8.400000
 20
85.500000
 30
0.000000
  8
2
 62
255
  6
L000000020000FFFFFF
  0
VERTEX
 10
8.400000
 20
89.500000
 30
0.000000
  8
2
 62
255
  6
L000000020000FFFFFF
  0
SEQEND
  0
SOLID
  8
2
 62
1
  6
CONTINUOUS
 10
11.200000
 20
87.200000
 11
11.200000
 21
87.800000
 12
6.400000
 22
87.200000
 13
6.400000
 23
87.800000
  0
POLYLINE
  8
2
 62
7
  6
CONTINUOUS
 70
1
 66
1
  0
VERTEX
 10
11.200000
 20
87.200000
 30
0.000000
  8
2
 62
7
  6
CONTINUOUS
  0
VERTEX
 10
11.200000
 20
87.800000
 30
0.000000
  8
2
 62
7
  6
CONTINUOUS
  0
VERTEX
 10
6.400000
 20
87.800000
 30
0.000000
  8
2
 62
7
  6
CONTINUOUS
  0
VERTEX
 10
6.400000
 20
87.200000
 30
0.000000
  8
2
 62
7
  6
CONTINUOUS
  0
SEQEND
  0
CIRCLE
  8
2
 62
7
  6
CONTINUOUS
 10
8.400000
 20
87.500000
 30
0.0
 40
2.000000
  0
POLYLINE
  8
2
 62
7
  6
CONTINUOUS
 70
0
 66
1
  0
VERTEX
 10
8.400000
 20
89.500000
  8
2
 62
7
  6
CONTINUOUS
  0
VERTEX
 10
13.000000
 20
89.500000
  8
2
 62
7
  6
CONTINUOUS
  0
SEQEND
  0
POLYLINE
  8
2
 62
7
  6
CONTINUOUS
 70
0
 66
1
  0
VERTEX
 10
8.400000
 20
85.500000
  8
2
 62
7
  6
CONTINUOUS
  0
VERTEX
 10
13.000000
 20
85.500000
  8
2
 62
7
  6
CONTINUOUS
  0
SEQEND
  0
CIRCLE
  8
157
 62
7
  6
CONTINUOUS
 10
6.000000
 20
63.500000
 30
0.0
 40
0.800000
  0
CIRCLE
  8
157
 62
7
  6
CONTINUOUS
 10
19.000000
 20
63.500000
 30
0.0
 40
0.800000
  0
CIRCLE
  8
157
 62
7
  6
CONTINUOUS
 10
19.000000
 20
52.500000
 30
0.0
 40
0.800000
  0
CIRCLE
  8
157
 62
7
  6
CONTINUOUS
 10
19.000000
 20
41.500000
 30
0.0
 40
0.800000
  0
CIRCLE
  8
157
 62
7
  6
CONTINUOUS
 10
6.000000
 20
41.500000
 30
0.0
 40
0.800000
  0
SOLID
  8
157
 62
255
  6
CONTINUOUS
 10
15.400000
 20
60.600000
 11
15.400000
 21
66.600000
 12
9.400000
 22
60.600000
 13
9.400000
 23
66.600000
  0
POLYLINE
  8
157
 62
7
  6
CONTINUOUS
 70
1
 66
1
  0
VERTEX
 10
15.400000
 20
60.600000
 30
0.000000
  8
157
 62
7
  6
CONTINUOUS
  0
VERTEX
 10
15.400000
 20
66.600000
 30
0.000000
  8
157
 62
7
  6
CONTINUOUS
  0
VERTEX
 10
9.400000
 20
66.600000
 30
0.000000
  8
157
 62
7
  6
CONTINUOUS
  0
VERTEX
 10
9.400000
 20
60.600000
 30
0.000000
  8
157
 62
7
  6
CONTINUOUS
  0
SEQEND
  0
TEXT
  8
157
 62
7
  6
CONTINUOUS
 10
12.400000
 20
62.266667
 40
4.000000
  1
W
 50
0.000000
 51
0.000000
 72
1
 73
0
 11
12.400000
 21
62.266667
  0
SOLID
  8
157
 62
255
  6
CONTINUOUS
 10
15.400000
 20
49.600000
 11
15.400000
 21
55.600000
 12
9.400000
 22
49.600000
 13
9.400000
 23
55.600000
  0
POLYLINE
  8
157
 62
7
  6
CONTINUOUS
 70
1
 66
1
  0
VERTEX
 10
15.400000
 20
49.600000
 30
0.000000
  8
157
 62
7
  6
CONTINUOUS
  0
VERTEX
 10
15.400000
 20
55.600000
 30
0.000000
  8
157
 62
7
  6
CONTINUOUS
  0
VERTEX
 10
9.400000
 20
55.600000
 30
0.000000
  8
157
 62
7
  6
CONTINUOUS
  0
VERTEX
 10
9.400000
 20
49.600000
 30
0.000000
  8
157
 62
7
  6
CONTINUOUS
  0
SEQEND
  0
TEXT
  8
157
 62
7
  6
CONTINUOUS
 10
12.400000
 20
51.266667
 40
4.000000
  1
W
 50
0.000000
 51
0.000000
 72
1
 73
0
 11
12.400000
 21
51.266667
  0
SOLID
  8
157
 62
255
  6
CONTINUOUS
 10
15.400000
 20
38.600000
 11
15.400000
 21
44.600000
 12
9.400000
 22
38.600000
 13
9.400000
 23
44.600000
  0
POLYLINE
  8
157
 62
7
  6
CONTINUOUS
 70
1
 66
1
  0
VERTEX
 10
15.400000
 20
38.600000
 30
0.000000
  8
157
 62
7
  6
CONTINUOUS
  0
VERTEX
 10
15.400000
 20
44.600000
 30
0.000000
  8
157
 62
7
  6
CONTINUOUS
  0
VERTEX
 10
9.400000
 20
44.600000
 30
0.000000
  8
157
 62
7
  6
CONTINUOUS
  0
VERTEX
 10
9.400000
 20
38.600000
 30
0.000000
  8
157
 62
7
  6
CONTINUOUS
  0
SEQEND
  0
TEXT
  8
157
 62
7
  6
CONTINUOUS
 10
12.400000
 20
40.266667
 40
4.000000
  1
W
 50
0.000000
 51
0.000000
 72
1
 73
0
 11
12.400000
 21
40.266667
  0
CIRCLE
  8
157
 62
7
  6
CONTINUOUS
 10
6.000000
 20
52.500000
 30
0.0
 40
0.800000
  0
TEXT
  8
157
 62
7
  6
CONTINUOUS
 10
12.500000
 20
13.333333
 40
5.000000
  1
2
 50
0.000000
 51
0.000000
 72
1
 73
0
 11
12.500000
 21
13.333333
  0
ENDBLK
  0
BLOCK
  8
2
  2
ze15
 70
 0
 10
0.0
 20
0.0
 30
0.0
  0
SOLID
  8
38
 62
255
  6
CONTINUOUS
 10
2.700000
 20
-1.500000
 11
2.700000
 21
6.100000
 12
0.000000
 22
-1.500000
 13
0.000000
 23
6.100000
  0
POLYLINE
  8
38
 62
7
  6
CONTINUOUS
 70
1
 66
1
  0
VERTEX
 10
2.700000
 20
-1.500000
 30
0.000000
  8
38
 62
7
  6
CONTINUOUS
  0
VERTEX
 10
2.700000
 20
6.100000
 30
0.000000
  8
38
 62
7
  6
CONTINUOUS
  0
VERTEX
 10
0.000000
 20
6.100000
 30
0.000000
  8
38
 62
7
  6
CONTINUOUS
  0
VERTEX
 10
0.000000
 20
-1.500000
 30
0.000000
  8
38
 62
7
  6
CONTINUOUS
  0
SEQEND
  0
POLYLINE
  8
38
 62
7
  6
CONTINUOUS
 70
0
 66
1
  0
VERTEX
 10
0.200000
 20
4.600000
  8
38
 62
7
  6
CONTINUOUS
  0
VERTEX
 10
0.200000
 20
5.900000
  8
38
 62
7
  6
CONTINUOUS
  0
VERTEX
 10
2.500000
 20
5.900000
  8
38
 62
7
  6
CONTINUOUS
  0
VERTEX
 10
2.500000
 20
4.600000
  8
38
 62
7
  6
CONTINUOUS
  0
SEQEND
  0
POLYLINE
  8
38
 62
7
  6
CONTINUOUS
 70
0
 66
1
  0
VERTEX
 10
2.300000
 20
4.600000
  8
38
 62
7
  6
CONTINUOUS
  0
VERTEX
 10
2.300000
 20
5.900000
  8
38
 62
7
  6
CONTINUOUS
  0
SEQEND
  0
POLYLINE
  8
38
 62
7
  6
CONTINUOUS
 70
0
 66
1
  0
VERTEX
 10
0.400000
 20
5.900000
  8
38
 62
7
  6
CONTINUOUS
  0
VERTEX
 10
0.400000
 20
4.600000
  8
38
 62
7
  6
CONTINUOUS
  0
SEQEND
  0
POLYLINE
  8
38
 62
7
  6
CONTINUOUS
 70
0
 66
1
  0
VERTEX
 10
0.200000
 20
0.000000
  8
38
 62
7
  6
CONTINUOUS
  0
VERTEX
 10
0.200000
 20
-1.300000
  8
38
 62
7
  6
CONTINUOUS
  0
VERTEX
 10
2.500000
 20
-1.300000
  8
38
 62
7
  6
CONTINUOUS
  0
VERTEX
 10
2.500000
 20
0.000000
  8
38
 62
7
  6
CONTINUOUS
  0
SEQEND
  0
POLYLINE
  8
38
 62
7
  6
CONTINUOUS
 70
0
 66
1
  0
VERTEX
 10
2.300000
 20
0.000000
  8
38
 62
7
  6
CONTINUOUS
  0
VERTEX
 10
2.300000
 20
-1.300000
  8
38
 62
7
  6
CONTINUOUS
  0
SEQEND
  0
POLYLINE
  8
38
 62
7
  6
CONTINUOUS
 70
0
 66
1
  0
VERTEX
 10
0.400000
 20
-1.300000
  8
38
 62
7
  6
CONTINUOUS
  0
VERTEX
 10
0.400000
 20
0.000000
  8
38
 62
7
  6
CONTINUOUS
  0
SEQEND
  0
SOLID
  8
2
 62
255
  6
CONTINUOUS
 10
2.700000
 20
0.000000
 11
2.700000
 21
4.600000
 12
0.000000
 22
0.000000
 13
0.000000
 23
4.600000
  0
POLYLINE
  8
2
 62
7
  6
CONTINUOUS
 70
1
 66
1
  0
VERTEX
 10
2.700000
 20
0.000000
 30
0.000000
  8
2
 62
7
  6
CONTINUOUS
  0
VERTEX
 10
2.700000
 20
4.600000
 30
0.000000
  8
2
 62
7
  6
CONTINUOUS
  0
VERTEX
 10
0.000000
 20
4.600000
 30
0.000000
  8
2
 62
7
  6
CONTINUOUS
  0
VERTEX
 10
0.000000
 20
0.000000
 30
0.000000
  8
2
 62
7
  6
CONTINUOUS
  0
SEQEND
  0
CIRCLE
  8
2
 62
7
  6
CONTINUOUS
 10
1.400000
 20
2.300000
 30
0.0
 40
1.000000
  0
ENDBLK
  0
BLOCK
  8
3
  2
2_5ad
 70
 0
 10
0.0
 20
0.0
 30
0.0
  0
SOLID
  8
3
 62
255
  6
CONTINUOUS
 10
50.500000
 20
135.500000
 11
50.500000
 21
-0.500000
 12
-0.500000
 22
135.500000
 13
-0.500000
 23
-0.500000
  0
POLYLINE
  8
3
 62
7
  6
CONTINUOUS
 70
1
 66
1
  0
VERTEX
 10
50.500000
 20
135.500000
 30
0.000000
  8
3
 62
7
  6
CONTINUOUS
  0
VERTEX
 10
50.500000
 20
-0.500000
 30
0.000000
  8
3
 62
7
  6
CONTINUOUS
  0
VERTEX
 10
-0.500000
 20
-0.500000
 30
0.000000
  8
3
 62
7
  6
CONTINUOUS
  0
VERTEX
 10
-0.500000
 20
135.500000
 30
0.000000
  8
3
 62
7
  6
CONTINUOUS
  0
SEQEND
  0
POLYLINE
  8
3
 62
7
  6
CONTINUOUS
 70
1
 66
1
  0
VERTEX
 10
50.000000
 20
135.000000
 30
0.000000
  8
3
 62
7
  6
CONTINUOUS
  0
VERTEX
 10
50.000000
 20
0.000000
 30
0.000000
  8
3
 62
7
  6
CONTINUOUS
  0
VERTEX
 10
0.000000
 20
0.000000
 30
0.000000
  8
3
 62
7
  6
CONTINUOUS
  0
VERTEX
 10
0.000000
 20
135.000000
 30
0.000000
  8
3
 62
7
  6
CONTINUOUS
  0
SEQEND
  0
ENDBLK
  0
BLOCK
  8
47
  2
zb113
 70
 0
 10
0.0
 20
0.0
 30
0.0
  0
SOLID
  8
47
 62
255
  6
L000000020000FFFFFF
 10
1.900000
 20
-8.500000
 11
1.900000
 21
8.600000
 12
-1.900000
 22
-8.500000
 13
-1.900000
 23
8.600000
  0
POLYLINE
  8
47
 62
255
  6
L000000020000FFFFFF
 70
1
 66
1
  0
VERTEX
 10
1.900000
 20
-8.500000
 30
0.000000
  8
47
 62
255
  6
L000000020000FFFFFF
  0
VERTEX
 10
1.900000
 20
8.600000
 30
0.000000
  8
47
 62
255
  6
L000000020000FFFFFF
  0
VERTEX
 10
-1.900000
 20
8.600000
 30
0.000000
  8
47
 62
255
  6
L000000020000FFFFFF
  0
VERTEX
 10
-1.900000
 20
-8.500000
 30
0.000000
  8
47
 62
255
  6
L000000020000FFFFFF
  0
SEQEND
  0
POLYLINE
  8
47
 62
7
  6
CONTINUOUS
 70
0
 66
1
  0
VERTEX
 10
1.600000
 20
3.300000
  8
47
 62
7
  6
CONTINUOUS
  0
VERTEX
 10
1.600000
 20
8.300000
  8
47
 62
7
  6
CONTINUOUS
  0
SEQEND
  0
ARC
  8
47
 62
7
  6
CONTINUOUS
 10
0.000000
 20
0.200000
 30
0.000000
 40
3.300000
 50
54.865807
 51
125.134193
  0
ARC
  8
47
 62
7
  6
CONTINUOUS
 10
0.000000
 20
-0.200000
 30
0.000000
 40
3.300000
 50
-125.134193
 51
-54.865807
  0
POLYLINE
  8
47
 62
7
  6
CONTINUOUS
 70
0
 66
1
  0
VERTEX
 10
-1.900000
 20
8.200000
  8
47
 62
7
  6
CONTINUOUS
  0
VERTEX
 10
-1.900000
 20
-8.100000
  8
47
 62
7
  6
CONTINUOUS
  0
SEQEND
  0
POLYLINE
  8
47
 62
7
  6
CONTINUOUS
 70
0
 66
1
  0
VERTEX
 10
1.900000
 20
-8.100000
  8
47
 62
7
  6
CONTINUOUS
  0
VERTEX
 10
1.900000
 20
8.200000
  8
47
 62
7
  6
CONTINUOUS
  0
SEQEND
  0
ARC
  8
47
 62
7
  6
CONTINUOUS
 10
0.000000
 20
0.300000
 30
0.000000
 40
3.900000
 50
-119.197486
 51
-60.802514
  0
ARC
  8
47
 62
7
  6
CONTINUOUS
 10
0.000000
 20
-0.300000
 30
0.000000
 40
3.900000
 50
60.802514
 51
119.197486
  0
POLYLINE
  8
47
 62
7
  6
CONTINUOUS
 70
0
 66
1
  0
VERTEX
 10
-1.600000
 20
8.400000
  8
47
 62
7
  6
CONTINUOUS
  0
VERTEX
 10
-1.600000
 20
3.300000
  8
47
 62
7
  6
CONTINUOUS
  0
SEQEND
  0
POLYLINE
  8
47
 62
7
  6
CONTINUOUS
 70
0
 66
1
  0
VERTEX
 10
-1.600000
 20
3.100000
  8
47
 62
7
  6
CONTINUOUS
  0
VERTEX
 10
-1.600000
 20
-3.000000
  8
47
 62
7
  6
CONTINUOUS
  0
SEQEND
  0
POLYLINE
  8
47
 62
7
  6
CONTINUOUS
 70
0
 66
1
  0
VERTEX
 10
-1.600000
 20
-3.300000
  8
47
 62
7
  6
CONTINUOUS
  0
VERTEX
 10
-1.600000
 20
-8.300000
  8
47
 62
7
  6
CONTINUOUS
  0
SEQEND
  0
POLYLINE
  8
47
 62
7
  6
CONTINUOUS
 70
0
 66
1
  0
VERTEX
 10
1.600000
 20
-8.200000
  8
47
 62
7
  6
CONTINUOUS
  0
VERTEX
 10
1.600000
 20
-3.200000
  8
47
 62
7
  6
CONTINUOUS
  0
SEQEND
  0
POLYLINE
  8
47
 62
7
  6
CONTINUOUS
 70
0
 66
1
  0
VERTEX
 10
1.600000
 20
-3.000000
  8
47
 62
7
  6
CONTINUOUS
  0
VERTEX
 10
1.600000
 20
3.000000
  8
47
 62
7
  6
CONTINUOUS
  0
SEQEND
  0
POLYLINE
  8
47
 62
7
  6
CONTINUOUS
 70
0
 66
1
  0
VERTEX
 10
0.000000
 20
3.500000
  8
47
 62
7
  6
CONTINUOUS
  0
VERTEX
 10
0.000000
 20
-3.400000
  8
47
 62
7
  6
CONTINUOUS
  0
SEQEND
  0
POLYLINE
  8
47
 62
7
  6
CONTINUOUS
 70
0
 66
1
  0
VERTEX
 10
-1.300000
 20
2.100000
  8
47
 62
7
  6
CONTINUOUS
  0
VERTEX
 10
-1.300000
 20
-2.000000
  8
47
 62
7
  6
CONTINUOUS
  0
SEQEND
  0
POLYLINE
  8
47
 62
7
  6
CONTINUOUS
 70
0
 66
1
  0
VERTEX
 10
-1.000000
 20
-1.500000
  8
47
 62
7
  6
CONTINUOUS
  0
VERTEX
 10
-1.000000
 20
1.600000
  8
47
 62
7
  6
CONTINUOUS
  0
SEQEND
  0
POLYLINE
  8
47
 62
7
  6
CONTINUOUS
 70
0
 66
1
  0
VERTEX
 10
-1.900000
 20
-8.100000
  8
47
 62
7
  6
CONTINUOUS
  0
VERTEX
 10
-1.600000
 20
-8.300000
  8
47
 62
7
  6
CONTINUOUS
  0
VERTEX
 10
-0.600000
 20
-8.500000
  8
47
 62
7
  6
CONTINUOUS
  0
VERTEX
 10
0.700000
 20
-8.500000
  8
47
 62
7
  6
CONTINUOUS
  0
VERTEX
 10
1.500000
 20
-8.300000
  8
47
 62
7
  6
CONTINUOUS
  0
VERTEX
 10
1.900000
 20
-8.100000
  8
47
 62
7
  6
CONTINUOUS
  0
SEQEND
  0
POLYLINE
  8
47
 62
7
  6
CONTINUOUS
 70
0
 66
1
  0
VERTEX
 10
-1.900000
 20
8.200000
  8
47
 62
7
  6
CONTINUOUS
  0
VERTEX
 10
-1.600000
 20
8.400000
  8
47
 62
7
  6
CONTINUOUS
  0
VERTEX
 10
-0.600000
 20
8.600000
  8
47
 62
7
  6
CONTINUOUS
  0
VERTEX
 10
0.700000
 20
8.600000
  8
47
 62
7
  6
CONTINUOUS
  0
VERTEX
 10
1.500000
 20
8.400000
  8
47
 62
7
  6
CONTINUOUS
  0
VERTEX
 10
1.900000
 20
8.200000
  8
47
 62
7
  6
CONTINUOUS
  0
SEQEND
  0
POLYLINE
  8
47
 62
7
  6
CONTINUOUS
 70
0
 66
1
  0
VERTEX
 10
-1.900000
 20
2.600000
  8
47
 62
7
  6
CONTINUOUS
  0
VERTEX
 10
-1.600000
 20
2.400000
  8
47
 62
7
  6
CONTINUOUS
  0
VERTEX
 10
-1.300000
 20
2.100000
  8
47
 62
7
  6
CONTINUOUS
  0
VERTEX
 10
-1.000000
 20
1.600000
  8
47
 62
7
  6
CONTINUOUS
  0
VERTEX
 10
-0.600000
 20
0.600000
  8
47
 62
7
  6
CONTINUOUS
  0
VERTEX
 10
-0.500000
 20
0.000000
  8
47
 62
7
  6
CONTINUOUS
  0
VERTEX
 10
-0.600000
 20
-0.700000
  8
47
 62
7
  6
CONTINUOUS
  0
VERTEX
 10
-1.000000
 20
-1.500000
  8
47
 62
7
  6
CONTINUOUS
  0
VERTEX
 10
-1.300000
 20
-2.000000
  8
47
 62
7
  6
CONTINUOUS
  0
VERTEX
 10
-1.900000
 20
-2.600000
  8
47
 62
7
  6
CONTINUOUS
  0
SEQEND
  0
ENDBLK
  0
ENDSEC
  0
SECTION
  2
ENTITIES
  0
INSERT
  8
0
 2
2_5a
 10
0.000000
 20
0.000000
 30
0.0
 50
0.0
  0
INSERT
  8
0
 2
zb43
 10
12.500000
 20
137.500000
 30
0.0
 50
0.0
  0
INSERT
  8
0
 2
zb43
 10
37.500000
 20
137.500000
 30
0.0
 50
0.0
  0
INSERT
  8
1
 2
128253
 10
25.000000
 20
0.000000
 30
0.0
 50
0.0
  0
INSERT
  8
1
 2
cu-12x05-5pol-fb2
 10
0.000000
 20
0.000000
 30
0.0
 50
0.0
  0
INSERT
  8
1
 2
128252
 10
0.000000
 20
0.000000
 30
0.0
 50
0.0
  0
INSERT
  8
2
 2
ze15
 10
29.100000
 20
35.300000
 30
0.0
 50
0.0
  0
INSERT
  8
2
 2
ze15
 10
31.800000
 20
35.300000
 30
0.0
 50
0.0
  0
INSERT
  8
2
 2
ze15
 10
34.400000
 20
35.300000
 30
0.0
 50
0.0
  0
INSERT
  8
2
 2
ze15
 10
37.100000
 20
35.300000
 30
0.0
 50
0.0
  0
INSERT
  8
3
 2
2_5ad
 10
0.000000
 20
0.000000
 30
0.0
 50
0.0
  0
INSERT
  8
47
 2
zb113
 10
3.000000
 20
67.500000
 30
0.0
 50
0.0
  0
ENDSEC
  0
EOF
