  0
SECTION
  2
HEADER
  9
$ACADVER
  1
AC1009
  9
$INSBASE
 10
0.0
 20
0.0
 30
0.0
  9
$EXTMIN
 10
0.0
 20
0.0
 30
0.0
  9
$EXTMAX
 10
0.000000
 20
0.000000
 30
0.0
  9
$LIMMIN
 10
0.0
 20
0.0
  9
$LIMMAX
 10
0.000000
 20
0.000000
  0
ENDSEC
  0
SECTION
  2
TABLES
  0
TABLE
  2
LTYPE
 70
4
  0
LTYPE
  2
CONTINUOUS
 70
64
  3
Solid line
 72
65
 73
0
 40
0.000000
  0
LTYPE
  2
L000000020000FFFFFF
 70
64
  3
Solid line
 72
65
 73
0
 40
0.000000
  0
LTYPE
  2
L000000000000000000
 70
64
  3
Solid line
 72
65
 73
0
 40
0.000000
  0
LTYPE
  2
L014100020032000000
 70
64
  3
- - - - - - - -
 72
65
 73
2
 40
0.500000
 49
0.300000
 49
-0.200000
  0
ENDTAB
  0
TABLE
  2
LAYER
 70
8
  0
LAYER
  2
0
 70
64
 62
7
  6
CONTINUOUS
  0
LAYER
  2
1
 70
64
 62
7
  6
CONTINUOUS
  0
LAYER
  2
2
 70
64
 62
7
  6
CONTINUOUS
  0
LAYER
  2
3
 70
64
 62
-7
  6
CONTINUOUS
  0
LAYER
  2
4
 70
64
 62
7
  6
CONTINUOUS
  0
LAYER
  2
5
 70
64
 62
7
  6
CONTINUOUS
  0
LAYER
  2
6
 70
64
 62
7
  6
CONTINUOUS
  0
LAYER
  2
7
 70
64
 62
7
  6
CONTINUOUS
  0
LAYER
  2
8
 70
64
 62
7
  6
CONTINUOUS
  0
LAYER
  2
9
 70
64
 62
7
  6
CONTINUOUS
  0
LAYER
  2
10
 70
64
 62
7
  6
CONTINUOUS
  0
LAYER
  2
11
 70
64
 62
7
  6
CONTINUOUS
  0
LAYER
  2
12
 70
64
 62
7
  6
CONTINUOUS
  0
LAYER
  2
13
 70
64
 62
7
  6
CONTINUOUS
  0
LAYER
  2
14
 70
64
 62
7
  6
CONTINUOUS
  0
LAYER
  2
15
 70
64
 62
-7
  6
CONTINUOUS
  0
LAYER
  2
16
 70
64
 62
7
  6
CONTINUOUS
  0
LAYER
  2
17
 70
64
 62
7
  6
CONTINUOUS
  0
LAYER
  2
18
 70
64
 62
7
  6
CONTINUOUS
  0
LAYER
  2
19
 70
64
 62
7
  6
CONTINUOUS
  0
LAYER
  2
20
 70
64
 62
7
  6
CONTINUOUS
  0
LAYER
  2
21
 70
64
 62
7
  6
CONTINUOUS
  0
LAYER
  2
22
 70
64
 62
7
  6
CONTINUOUS
  0
LAYER
  2
23
 70
64
 62
7
  6
CONTINUOUS
  0
LAYER
  2
24
 70
64
 62
7
  6
CONTINUOUS
  0
LAYER
  2
25
 70
64
 62
7
  6
CONTINUOUS
  0
LAYER
  2
26
 70
64
 62
7
  6
CONTINUOUS
  0
LAYER
  2
27
 70
64
 62
7
  6
CONTINUOUS
  0
LAYER
  2
28
 70
64
 62
7
  6
CONTINUOUS
  0
LAYER
  2
29
 70
64
 62
-7
  6
CONTINUOUS
  0
LAYER
  2
30
 70
64
 62
7
  6
CONTINUOUS
  0
LAYER
  2
31
 70
64
 62
7
  6
CONTINUOUS
  0
LAYER
  2
32
 70
64
 62
7
  6
CONTINUOUS
  0
LAYER
  2
33
 70
64
 62
7
  6
CONTINUOUS
  0
LAYER
  2
34
 70
64
 62
7
  6
CONTINUOUS
  0
LAYER
  2
35
 70
64
 62
7
  6
CONTINUOUS
  0
LAYER
  2
36
 70
64
 62
7
  6
CONTINUOUS
  0
LAYER
  2
37
 70
64
 62
7
  6
CONTINUOUS
  0
LAYER
  2
38
 70
64
 62
-7
  6
CONTINUOUS
  0
LAYER
  2
39
 70
64
 62
-7
  6
CONTINUOUS
  0
LAYER
  2
40
 70
64
 62
7
  6
CONTINUOUS
  0
LAYER
  2
41
 70
64
 62
7
  6
CONTINUOUS
  0
LAYER
  2
42
 70
64
 62
7
  6
CONTINUOUS
  0
LAYER
  2
43
 70
64
 62
7
  6
CONTINUOUS
  0
LAYER
  2
44
 70
64
 62
7
  6
CONTINUOUS
  0
LAYER
  2
45
 70
64
 62
7
  6
CONTINUOUS
  0
LAYER
  2
46
 70
64
 62
7
  6
CONTINUOUS
  0
LAYER
  2
47
 70
64
 62
-7
  6
CONTINUOUS
  0
LAYER
  2
48
 70
64
 62
-7
  6
CONTINUOUS
  0
LAYER
  2
49
 70
64
 62
-7
  6
CONTINUOUS
  0
LAYER
  2
50
 70
64
 62
-7
  6
CONTINUOUS
  0
LAYER
  2
51
 70
64
 62
-7
  6
CONTINUOUS
  0
LAYER
  2
52
 70
64
 62
-7
  6
CONTINUOUS
  0
LAYER
  2
53
 70
64
 62
-7
  6
CONTINUOUS
  0
LAYER
  2
54
 70
64
 62
-7
  6
CONTINUOUS
  0
LAYER
  2
55
 70
64
 62
-7
  6
CONTINUOUS
  0
LAYER
  2
56
 70
64
 62
-7
  6
CONTINUOUS
  0
LAYER
  2
57
 70
64
 62
-7
  6
CONTINUOUS
  0
LAYER
  2
58
 70
64
 62
7
  6
CONTINUOUS
  0
LAYER
  2
59
 70
64
 62
-7
  6
CONTINUOUS
  0
LAYER
  2
60
 70
64
 62
-7
  6
CONTINUOUS
  0
LAYER
  2
61
 70
64
 62
7
  6
CONTINUOUS
  0
LAYER
  2
62
 70
64
 62
7
  6
CONTINUOUS
  0
LAYER
  2
63
 70
64
 62
7
  6
CONTINUOUS
  0
LAYER
  2
64
 70
64
 62
7
  6
CONTINUOUS
  0
LAYER
  2
65
 70
64
 62
7
  6
CONTINUOUS
  0
LAYER
  2
66
 70
64
 62
7
  6
CONTINUOUS
  0
LAYER
  2
67
 70
64
 62
7
  6
CONTINUOUS
  0
LAYER
  2
68
 70
64
 62
7
  6
CONTINUOUS
  0
LAYER
  2
69
 70
64
 62
7
  6
CONTINUOUS
  0
LAYER
  2
70
 70
64
 62
7
  6
CONTINUOUS
  0
LAYER
  2
71
 70
64
 62
7
  6
CONTINUOUS
  0
LAYER
  2
72
 70
64
 62
7
  6
CONTINUOUS
  0
LAYER
  2
73
 70
64
 62
7
  6
CONTINUOUS
  0
LAYER
  2
74
 70
64
 62
7
  6
CONTINUOUS
  0
LAYER
  2
75
 70
64
 62
7
  6
CONTINUOUS
  0
LAYER
  2
76
 70
64
 62
7
  6
CONTINUOUS
  0
LAYER
  2
77
 70
64
 62
7
  6
CONTINUOUS
  0
LAYER
  2
78
 70
64
 62
7
  6
CONTINUOUS
  0
LAYER
  2
79
 70
64
 62
7
  6
CONTINUOUS
  0
LAYER
  2
80
 70
64
 62
7
  6
CONTINUOUS
  0
LAYER
  2
81
 70
64
 62
7
  6
CONTINUOUS
  0
LAYER
  2
82
 70
64
 62
7
  6
CONTINUOUS
  0
LAYER
  2
83
 70
64
 62
7
  6
CONTINUOUS
  0
LAYER
  2
84
 70
64
 62
7
  6
CONTINUOUS
  0
LAYER
  2
85
 70
64
 62
7
  6
CONTINUOUS
  0
LAYER
  2
86
 70
64
 62
7
  6
CONTINUOUS
  0
LAYER
  2
87
 70
64
 62
7
  6
CONTINUOUS
  0
LAYER
  2
88
 70
64
 62
7
  6
CONTINUOUS
  0
LAYER
  2
89
 70
64
 62
7
  6
CONTINUOUS
  0
LAYER
  2
90
 70
64
 62
7
  6
CONTINUOUS
  0
LAYER
  2
91
 70
64
 62
7
  6
CONTINUOUS
  0
LAYER
  2
92
 70
64
 62
7
  6
CONTINUOUS
  0
LAYER
  2
93
 70
64
 62
7
  6
CONTINUOUS
  0
LAYER
  2
94
 70
64
 62
7
  6
CONTINUOUS
  0
LAYER
  2
95
 70
64
 62
7
  6
CONTINUOUS
  0
LAYER
  2
96
 70
64
 62
7
  6
CONTINUOUS
  0
LAYER
  2
97
 70
64
 62
7
  6
CONTINUOUS
  0
LAYER
  2
98
 70
64
 62
7
  6
CONTINUOUS
  0
LAYER
  2
99
 70
64
 62
7
  6
CONTINUOUS
  0
LAYER
  2
100
 70
64
 62
7
  6
CONTINUOUS
  0
LAYER
  2
101
 70
64
 62
7
  6
CONTINUOUS
  0
LAYER
  2
102
 70
64
 62
7
  6
CONTINUOUS
  0
LAYER
  2
103
 70
64
 62
7
  6
CONTINUOUS
  0
LAYER
  2
104
 70
64
 62
7
  6
CONTINUOUS
  0
LAYER
  2
105
 70
64
 62
7
  6
CONTINUOUS
  0
LAYER
  2
106
 70
64
 62
7
  6
CONTINUOUS
  0
LAYER
  2
107
 70
64
 62
7
  6
CONTINUOUS
  0
LAYER
  2
108
 70
64
 62
7
  6
CONTINUOUS
  0
LAYER
  2
109
 70
64
 62
7
  6
CONTINUOUS
  0
LAYER
  2
110
 70
64
 62
7
  6
CONTINUOUS
  0
LAYER
  2
111
 70
64
 62
7
  6
CONTINUOUS
  0
LAYER
  2
112
 70
64
 62
7
  6
CONTINUOUS
  0
LAYER
  2
113
 70
64
 62
7
  6
CONTINUOUS
  0
LAYER
  2
114
 70
64
 62
7
  6
CONTINUOUS
  0
LAYER
  2
115
 70
64
 62
7
  6
CONTINUOUS
  0
LAYER
  2
116
 70
64
 62
7
  6
CONTINUOUS
  0
LAYER
  2
117
 70
64
 62
7
  6
CONTINUOUS
  0
LAYER
  2
118
 70
64
 62
7
  6
CONTINUOUS
  0
LAYER
  2
119
 70
64
 62
7
  6
CONTINUOUS
  0
LAYER
  2
120
 70
64
 62
7
  6
CONTINUOUS
  0
LAYER
  2
121
 70
64
 62
7
  6
CONTINUOUS
  0
LAYER
  2
122
 70
64
 62
7
  6
CONTINUOUS
  0
LAYER
  2
123
 70
64
 62
7
  6
CONTINUOUS
  0
LAYER
  2
124
 70
64
 62
7
  6
CONTINUOUS
  0
LAYER
  2
125
 70
64
 62
7
  6
CONTINUOUS
  0
LAYER
  2
126
 70
64
 62
7
  6
CONTINUOUS
  0
LAYER
  2
127
 70
64
 62
7
  6
CONTINUOUS
  0
LAYER
  2
128
 70
64
 62
7
  6
CONTINUOUS
  0
LAYER
  2
129
 70
64
 62
7
  6
CONTINUOUS
  0
LAYER
  2
130
 70
64
 62
7
  6
CONTINUOUS
  0
LAYER
  2
131
 70
64
 62
7
  6
CONTINUOUS
  0
LAYER
  2
132
 70
64
 62
7
  6
CONTINUOUS
  0
LAYER
  2
133
 70
64
 62
7
  6
CONTINUOUS
  0
LAYER
  2
134
 70
64
 62
7
  6
CONTINUOUS
  0
LAYER
  2
135
 70
64
 62
7
  6
CONTINUOUS
  0
LAYER
  2
136
 70
64
 62
7
  6
CONTINUOUS
  0
LAYER
  2
137
 70
64
 62
7
  6
CONTINUOUS
  0
LAYER
  2
138
 70
64
 62
7
  6
CONTINUOUS
  0
LAYER
  2
139
 70
64
 62
7
  6
CONTINUOUS
  0
LAYER
  2
140
 70
64
 62
7
  6
CONTINUOUS
  0
LAYER
  2
141
 70
64
 62
7
  6
CONTINUOUS
  0
LAYER
  2
142
 70
64
 62
7
  6
CONTINUOUS
  0
LAYER
  2
143
 70
64
 62
7
  6
CONTINUOUS
  0
LAYER
  2
144
 70
64
 62
7
  6
CONTINUOUS
  0
LAYER
  2
145
 70
64
 62
7
  6
CONTINUOUS
  0
LAYER
  2
146
 70
64
 62
7
  6
CONTINUOUS
  0
LAYER
  2
147
 70
64
 62
7
  6
CONTINUOUS
  0
LAYER
  2
148
 70
64
 62
7
  6
CONTINUOUS
  0
LAYER
  2
149
 70
64
 62
7
  6
CONTINUOUS
  0
LAYER
  2
150
 70
64
 62
7
  6
CONTINUOUS
  0
LAYER
  2
151
 70
64
 62
7
  6
CONTINUOUS
  0
LAYER
  2
152
 70
64
 62
7
  6
CONTINUOUS
  0
LAYER
  2
153
 70
64
 62
7
  6
CONTINUOUS
  0
LAYER
  2
154
 70
64
 62
7
  6
CONTINUOUS
  0
LAYER
  2
155
 70
64
 62
-7
  6
CONTINUOUS
  0
LAYER
  2
156
 70
64
 62
-7
  6
CONTINUOUS
  0
LAYER
  2
157
 70
64
 62
-7
  6
CONTINUOUS
  0
LAYER
  2
158
 70
64
 62
-7
  6
CONTINUOUS
  0
LAYER
  2
159
 70
64
 62
-7
  6
CONTINUOUS
  0
LAYER
  2
160
 70
64
 62
-7
  6
CONTINUOUS
  0
LAYER
  2
161
 70
64
 62
-7
  6
CONTINUOUS
  0
LAYER
  2
162
 70
64
 62
-7
  6
CONTINUOUS
  0
LAYER
  2
163
 70
64
 62
-7
  6
CONTINUOUS
  0
LAYER
  2
164
 70
64
 62
7
  6
CONTINUOUS
  0
LAYER
  2
165
 70
64
 62
7
  6
CONTINUOUS
  0
LAYER
  2
166
 70
64
 62
7
  6
CONTINUOUS
  0
LAYER
  2
167
 70
64
 62
7
  6
CONTINUOUS
  0
LAYER
  2
168
 70
64
 62
7
  6
CONTINUOUS
  0
LAYER
  2
169
 70
64
 62
7
  6
CONTINUOUS
  0
LAYER
  2
170
 70
64
 62
7
  6
CONTINUOUS
  0
LAYER
  2
171
 70
64
 62
7
  6
CONTINUOUS
  0
LAYER
  2
172
 70
64
 62
7
  6
CONTINUOUS
  0
LAYER
  2
173
 70
64
 62
7
  6
CONTINUOUS
  0
LAYER
  2
174
 70
64
 62
7
  6
CONTINUOUS
  0
LAYER
  2
175
 70
64
 62
7
  6
CONTINUOUS
  0
LAYER
  2
176
 70
64
 62
7
  6
CONTINUOUS
  0
LAYER
  2
177
 70
64
 62
7
  6
CONTINUOUS
  0
LAYER
  2
178
 70
64
 62
7
  6
CONTINUOUS
  0
LAYER
  2
179
 70
64
 62
7
  6
CONTINUOUS
  0
LAYER
  2
180
 70
64
 62
7
  6
CONTINUOUS
  0
LAYER
  2
181
 70
64
 62
7
  6
CONTINUOUS
  0
LAYER
  2
182
 70
64
 62
7
  6
CONTINUOUS
  0
LAYER
  2
183
 70
64
 62
7
  6
CONTINUOUS
  0
LAYER
  2
184
 70
64
 62
7
  6
CONTINUOUS
  0
LAYER
  2
185
 70
64
 62
7
  6
CONTINUOUS
  0
LAYER
  2
186
 70
64
 62
7
  6
CONTINUOUS
  0
LAYER
  2
187
 70
64
 62
7
  6
CONTINUOUS
  0
LAYER
  2
188
 70
64
 62
7
  6
CONTINUOUS
  0
LAYER
  2
189
 70
64
 62
7
  6
CONTINUOUS
  0
LAYER
  2
190
 70
64
 62
7
  6
CONTINUOUS
  0
LAYER
  2
191
 70
64
 62
7
  6
CONTINUOUS
  0
LAYER
  2
192
 70
64
 62
7
  6
CONTINUOUS
  0
LAYER
  2
193
 70
64
 62
7
  6
CONTINUOUS
  0
LAYER
  2
194
 70
64
 62
7
  6
CONTINUOUS
  0
LAYER
  2
195
 70
64
 62
7
  6
CONTINUOUS
  0
LAYER
  2
196
 70
64
 62
7
  6
CONTINUOUS
  0
LAYER
  2
197
 70
64
 62
7
  6
CONTINUOUS
  0
LAYER
  2
198
 70
64
 62
7
  6
CONTINUOUS
  0
LAYER
  2
199
 70
64
 62
7
  6
CONTINUOUS
  0
ENDTAB
  0
ENDSEC
  0
SECTION
  2
BLOCKS
  0
BLOCK
  8
0
  2
ks878
 70
 0
 10
0.0
 20
0.0
 30
0.0
  0
LINE
  8
5
 62
7
  6
L000000000000000000
 10
4.000000
 20
5.300000
 11
4.000000
 21
5.300000
  0
LINE
  8
5
 62
7
  6
L000000000000000000
 10
4.000000
 20
5.300000
 11
4.000000
 21
5.300000
  0
LINE
  8
5
 62
7
  6
L000000000000000000
 10
4.000000
 20
5.300000
 11
4.000000
 21
5.300000
  0
POLYLINE
  8
0
 62
7
  6
CONTINUOUS
 70
1
 66
1
  0
VERTEX
 10
-2.500000
 20
122.600000
 30
0.000000
  8
0
 62
7
  6
CONTINUOUS
  0
VERTEX
 10
-2.500000
 20
-2.400000
 30
0.000000
  8
0
 62
7
  6
CONTINUOUS
  0
VERTEX
 10
127.500000
 20
-2.400000
 30
0.000000
  8
0
 62
7
  6
CONTINUOUS
  0
VERTEX
 10
127.500000
 20
122.600000
 30
0.000000
  8
0
 62
7
  6
CONTINUOUS
  0
SEQEND
  0
POLYLINE
  8
0
 62
7
  6
CONTINUOUS
 70
1
 66
1
  0
VERTEX
 10
94.500000
 20
120.500000
 30
0.000000
  8
0
 62
7
  6
CONTINUOUS
  0
VERTEX
 10
94.500000
 20
-0.500000
 30
0.000000
  8
0
 62
7
  6
CONTINUOUS
  0
VERTEX
 10
125.500000
 20
-0.500000
 30
0.000000
  8
0
 62
7
  6
CONTINUOUS
  0
VERTEX
 10
125.500000
 20
120.500000
 30
0.000000
  8
0
 62
7
  6
CONTINUOUS
  0
SEQEND
  0
POLYLINE
  8
0
 62
7
  6
CONTINUOUS
 70
1
 66
1
  0
VERTEX
 10
-0.500000
 20
120.500000
 30
0.000000
  8
0
 62
7
  6
CONTINUOUS
  0
VERTEX
 10
-0.500000
 20
-0.500000
 30
0.000000
  8
0
 62
7
  6
CONTINUOUS
  0
VERTEX
 10
90.500000
 20
-0.500000
 30
0.000000
  8
0
 62
7
  6
CONTINUOUS
  0
VERTEX
 10
90.500000
 20
120.500000
 30
0.000000
  8
0
 62
7
  6
CONTINUOUS
  0
SEQEND
  0
LINE
  8
0
 62
7
  6
L014100020032000000
 10
92.500000
 20
-2.500000
 11
92.500000
 21
122.500000
  0
POLYLINE
  8
0
 62
7
  6
CONTINUOUS
 70
1
 66
1
  0
VERTEX
 10
112.000000
 20
-4.500000
 30
0.000000
  8
0
 62
7
  6
CONTINUOUS
  0
VERTEX
 10
112.000000
 20
-2.500000
 30
0.000000
  8
0
 62
7
  6
CONTINUOUS
  0
VERTEX
 10
118.000000
 20
-2.500000
 30
0.000000
  8
0
 62
7
  6
CONTINUOUS
  0
VERTEX
 10
118.000000
 20
-4.500000
 30
0.000000
  8
0
 62
7
  6
CONTINUOUS
  0
SEQEND
  0
POLYLINE
  8
0
 62
7
  6
CONTINUOUS
 70
1
 66
1
  0
VERTEX
 10
102.000000
 20
-4.500000
 30
0.000000
  8
0
 62
7
  6
CONTINUOUS
  0
VERTEX
 10
102.000000
 20
-2.500000
 30
0.000000
  8
0
 62
7
  6
CONTINUOUS
  0
VERTEX
 10
108.000000
 20
-2.500000
 30
0.000000
  8
0
 62
7
  6
CONTINUOUS
  0
VERTEX
 10
108.000000
 20
-4.500000
 30
0.000000
  8
0
 62
7
  6
CONTINUOUS
  0
SEQEND
  0
POLYLINE
  8
0
 62
7
  6
CONTINUOUS
 70
1
 66
1
  0
VERTEX
 10
77.000000
 20
-4.500000
 30
0.000000
  8
0
 62
7
  6
CONTINUOUS
  0
VERTEX
 10
77.000000
 20
-2.500000
 30
0.000000
  8
0
 62
7
  6
CONTINUOUS
  0
VERTEX
 10
83.000000
 20
-2.500000
 30
0.000000
  8
0
 62
7
  6
CONTINUOUS
  0
VERTEX
 10
83.000000
 20
-4.500000
 30
0.000000
  8
0
 62
7
  6
CONTINUOUS
  0
SEQEND
  0
POLYLINE
  8
0
 62
7
  6
CONTINUOUS
 70
1
 66
1
  0
VERTEX
 10
67.000000
 20
-4.500000
 30
0.000000
  8
0
 62
7
  6
CONTINUOUS
  0
VERTEX
 10
67.000000
 20
-2.500000
 30
0.000000
  8
0
 62
7
  6
CONTINUOUS
  0
VERTEX
 10
73.000000
 20
-2.500000
 30
0.000000
  8
0
 62
7
  6
CONTINUOUS
  0
VERTEX
 10
73.000000
 20
-4.500000
 30
0.000000
  8
0
 62
7
  6
CONTINUOUS
  0
SEQEND
  0
POLYLINE
  8
0
 62
7
  6
CONTINUOUS
 70
1
 66
1
  0
VERTEX
 10
57.000000
 20
-4.500000
 30
0.000000
  8
0
 62
7
  6
CONTINUOUS
  0
VERTEX
 10
57.000000
 20
-2.500000
 30
0.000000
  8
0
 62
7
  6
CONTINUOUS
  0
VERTEX
 10
63.000000
 20
-2.500000
 30
0.000000
  8
0
 62
7
  6
CONTINUOUS
  0
VERTEX
 10
63.000000
 20
-4.500000
 30
0.000000
  8
0
 62
7
  6
CONTINUOUS
  0
SEQEND
  0
POLYLINE
  8
0
 62
7
  6
CONTINUOUS
 70
1
 66
1
  0
VERTEX
 10
47.000000
 20
-4.500000
 30
0.000000
  8
0
 62
7
  6
CONTINUOUS
  0
VERTEX
 10
47.000000
 20
-2.500000
 30
0.000000
  8
0
 62
7
  6
CONTINUOUS
  0
VERTEX
 10
53.000000
 20
-2.500000
 30
0.000000
  8
0
 62
7
  6
CONTINUOUS
  0
VERTEX
 10
53.000000
 20
-4.500000
 30
0.000000
  8
0
 62
7
  6
CONTINUOUS
  0
SEQEND
  0
POLYLINE
  8
0
 62
7
  6
CONTINUOUS
 70
1
 66
1
  0
VERTEX
 10
37.000000
 20
-4.500000
 30
0.000000
  8
0
 62
7
  6
CONTINUOUS
  0
VERTEX
 10
37.000000
 20
-2.500000
 30
0.000000
  8
0
 62
7
  6
CONTINUOUS
  0
VERTEX
 10
43.000000
 20
-2.500000
 30
0.000000
  8
0
 62
7
  6
CONTINUOUS
  0
VERTEX
 10
43.000000
 20
-4.500000
 30
0.000000
  8
0
 62
7
  6
CONTINUOUS
  0
SEQEND
  0
POLYLINE
  8
0
 62
7
  6
CONTINUOUS
 70
1
 66
1
  0
VERTEX
 10
124.000000
 20
122.500000
  8
0
 62
7
  6
CONTINUOUS
  0
VERTEX
 10
124.000000
 20
124.500000
  8
0
 62
7
  6
CONTINUOUS
  0
VERTEX
 10
123.000000
 20
125.500000
  8
0
 62
7
  6
CONTINUOUS
  0
VERTEX
 10
122.000000
 20
125.500000
  8
0
 62
7
  6
CONTINUOUS
  0
VERTEX
 10
121.000000
 20
124.500000
  8
0
 62
7
  6
CONTINUOUS
  0
VERTEX
 10
121.000000
 20
122.500000
  8
0
 62
7
  6
CONTINUOUS
  0
SEQEND
  0
POLYLINE
  8
0
 62
7
  6
CONTINUOUS
 70
1
 66
1
  0
VERTEX
 10
4.000000
 20
122.500000
  8
0
 62
7
  6
CONTINUOUS
  0
VERTEX
 10
4.000000
 20
124.500000
  8
0
 62
7
  6
CONTINUOUS
  0
VERTEX
 10
3.000000
 20
125.500000
  8
0
 62
7
  6
CONTINUOUS
  0
VERTEX
 10
2.000000
 20
125.500000
  8
0
 62
7
  6
CONTINUOUS
  0
VERTEX
 10
1.000000
 20
124.500000
  8
0
 62
7
  6
CONTINUOUS
  0
VERTEX
 10
1.000000
 20
122.500000
  8
0
 62
7
  6
CONTINUOUS
  0
SEQEND
  0
POLYLINE
  8
0
 62
7
  6
CONTINUOUS
 70
1
 66
1
  0
VERTEX
 10
-2.500000
 20
116.000000
  8
0
 62
7
  6
CONTINUOUS
  0
VERTEX
 10
-4.500000
 20
116.000000
  8
0
 62
7
  6
CONTINUOUS
  0
VERTEX
 10
-5.500000
 20
117.000000
  8
0
 62
7
  6
CONTINUOUS
  0
VERTEX
 10
-5.500000
 20
118.000000
  8
0
 62
7
  6
CONTINUOUS
  0
VERTEX
 10
-4.500000
 20
119.000000
  8
0
 62
7
  6
CONTINUOUS
  0
VERTEX
 10
-2.500000
 20
119.000000
  8
0
 62
7
  6
CONTINUOUS
  0
SEQEND
  0
POLYLINE
  8
0
 62
7
  6
CONTINUOUS
 70
1
 66
1
  0
VERTEX
 10
127.500000
 20
116.000000
  8
0
 62
7
  6
CONTINUOUS
  0
VERTEX
 10
129.500000
 20
116.000000
  8
0
 62
7
  6
CONTINUOUS
  0
VERTEX
 10
130.500000
 20
117.000000
  8
0
 62
7
  6
CONTINUOUS
  0
VERTEX
 10
130.500000
 20
118.000000
  8
0
 62
7
  6
CONTINUOUS
  0
VERTEX
 10
129.500000
 20
119.000000
  8
0
 62
7
  6
CONTINUOUS
  0
VERTEX
 10
127.500000
 20
119.000000
  8
0
 62
7
  6
CONTINUOUS
  0
SEQEND
  0
POLYLINE
  8
0
 62
7
  6
CONTINUOUS
 70
1
 66
1
  0
VERTEX
 10
127.500000
 20
1.000000
  8
0
 62
7
  6
CONTINUOUS
  0
VERTEX
 10
129.500000
 20
1.000000
  8
0
 62
7
  6
CONTINUOUS
  0
VERTEX
 10
130.500000
 20
2.000000
  8
0
 62
7
  6
CONTINUOUS
  0
VERTEX
 10
130.500000
 20
3.000000
  8
0
 62
7
  6
CONTINUOUS
  0
VERTEX
 10
129.500000
 20
4.000000
  8
0
 62
7
  6
CONTINUOUS
  0
VERTEX
 10
127.500000
 20
4.000000
  8
0
 62
7
  6
CONTINUOUS
  0
SEQEND
  0
POLYLINE
  8
0
 62
7
  6
CONTINUOUS
 70
1
 66
1
  0
VERTEX
 10
124.000000
 20
-2.500000
  8
0
 62
7
  6
CONTINUOUS
  0
VERTEX
 10
124.000000
 20
-4.500000
  8
0
 62
7
  6
CONTINUOUS
  0
VERTEX
 10
123.000000
 20
-5.500000
  8
0
 62
7
  6
CONTINUOUS
  0
VERTEX
 10
122.000000
 20
-5.500000
  8
0
 62
7
  6
CONTINUOUS
  0
VERTEX
 10
121.000000
 20
-4.500000
  8
0
 62
7
  6
CONTINUOUS
  0
VERTEX
 10
121.000000
 20
-2.500000
  8
0
 62
7
  6
CONTINUOUS
  0
SEQEND
  0
POLYLINE
  8
0
 62
7
  6
CONTINUOUS
 70
1
 66
1
  0
VERTEX
 10
4.000000
 20
-2.500000
  8
0
 62
7
  6
CONTINUOUS
  0
VERTEX
 10
4.000000
 20
-4.500000
  8
0
 62
7
  6
CONTINUOUS
  0
VERTEX
 10
3.000000
 20
-5.500000
  8
0
 62
7
  6
CONTINUOUS
  0
VERTEX
 10
2.000000
 20
-5.500000
  8
0
 62
7
  6
CONTINUOUS
  0
VERTEX
 10
1.000000
 20
-4.500000
  8
0
 62
7
  6
CONTINUOUS
  0
VERTEX
 10
1.000000
 20
-2.500000
  8
0
 62
7
  6
CONTINUOUS
  0
SEQEND
  0
POLYLINE
  8
0
 62
7
  6
CONTINUOUS
 70
1
 66
1
  0
VERTEX
 10
-2.500000
 20
1.000000
  8
0
 62
7
  6
CONTINUOUS
  0
VERTEX
 10
-4.500000
 20
1.000000
  8
0
 62
7
  6
CONTINUOUS
  0
VERTEX
 10
-5.500000
 20
2.000000
  8
0
 62
7
  6
CONTINUOUS
  0
VERTEX
 10
-5.500000
 20
3.000000
  8
0
 62
7
  6
CONTINUOUS
  0
VERTEX
 10
-4.500000
 20
4.000000
  8
0
 62
7
  6
CONTINUOUS
  0
VERTEX
 10
-2.500000
 20
4.000000
  8
0
 62
7
  6
CONTINUOUS
  0
SEQEND
  0
POLYLINE
  8
0
 62
7
  6
CONTINUOUS
 70
1
 66
1
  0
VERTEX
 10
27.000000
 20
-4.500000
 30
0.000000
  8
0
 62
7
  6
CONTINUOUS
  0
VERTEX
 10
27.000000
 20
-2.500000
 30
0.000000
  8
0
 62
7
  6
CONTINUOUS
  0
VERTEX
 10
33.000000
 20
-2.500000
 30
0.000000
  8
0
 62
7
  6
CONTINUOUS
  0
VERTEX
 10
33.000000
 20
-4.500000
 30
0.000000
  8
0
 62
7
  6
CONTINUOUS
  0
SEQEND
  0
POLYLINE
  8
0
 62
7
  6
CONTINUOUS
 70
1
 66
1
  0
VERTEX
 10
17.000000
 20
-4.500000
 30
0.000000
  8
0
 62
7
  6
CONTINUOUS
  0
VERTEX
 10
17.000000
 20
-2.500000
 30
0.000000
  8
0
 62
7
  6
CONTINUOUS
  0
VERTEX
 10
23.000000
 20
-2.500000
 30
0.000000
  8
0
 62
7
  6
CONTINUOUS
  0
VERTEX
 10
23.000000
 20
-4.500000
 30
0.000000
  8
0
 62
7
  6
CONTINUOUS
  0
SEQEND
  0
POLYLINE
  8
0
 62
7
  6
CONTINUOUS
 70
1
 66
1
  0
VERTEX
 10
7.000000
 20
-4.500000
 30
0.000000
  8
0
 62
7
  6
CONTINUOUS
  0
VERTEX
 10
7.000000
 20
-2.500000
 30
0.000000
  8
0
 62
7
  6
CONTINUOUS
  0
VERTEX
 10
13.000000
 20
-2.500000
 30
0.000000
  8
0
 62
7
  6
CONTINUOUS
  0
VERTEX
 10
13.000000
 20
-4.500000
 30
0.000000
  8
0
 62
7
  6
CONTINUOUS
  0
SEQEND
  0
TEXT
  8
1
 62
7
  6
CONTINUOUS
 10
45.000000
 20
34.000000
 40
3.000000
  1
Cu 30x10mm
 50
0.000000
 51
0.000000
 72
1
 73
0
 11
45.000000
 21
34.000000
  0
TEXT
  8
1
 62
7
  6
CONTINUOUS
 10
45.000000
 20
14.000000
 40
3.000000
  1
Abfangschiene
 50
0.000000
 51
0.000000
 72
1
 73
0
 11
45.000000
 21
14.000000
  0
POLYLINE
  8
1
 62
7
  6
L014100020032000000
 70
1
 66
1
  0
VERTEX
 10
95.000000
 20
24.000000
 30
0.000000
  8
1
 62
7
  6
L014100020032000000
  0
VERTEX
 10
95.000000
 20
20.000000
 30
0.000000
  8
1
 62
7
  6
L014100020032000000
  0
VERTEX
 10
125.000000
 20
20.000000
 30
0.000000
  8
1
 62
7
  6
L014100020032000000
  0
VERTEX
 10
125.000000
 20
24.000000
 30
0.000000
  8
1
 62
7
  6
L014100020032000000
  0
SEQEND
  0
POLYLINE
  8
1
 62
7
  6
L014100020032000000
 70
1
 66
1
  0
VERTEX
 10
0.000000
 20
24.000000
 30
0.000000
  8
1
 62
7
  6
L014100020032000000
  0
VERTEX
 10
0.000000
 20
20.000000
 30
0.000000
  8
1
 62
7
  6
L014100020032000000
  0
VERTEX
 10
90.000000
 20
20.000000
 30
0.000000
  8
1
 62
7
  6
L014100020032000000
  0
VERTEX
 10
90.000000
 20
24.000000
 30
0.000000
  8
1
 62
7
  6
L014100020032000000
  0
SEQEND
  0
TEXT
  8
1
 62
7
  6
L014100020032000000
 10
117.000000
 20
43.000000
 40
3.000000
  1
PEN
 50
0.000000
 51
0.000000
 72
0
 73
0
  0
TEXT
  8
1
 62
7
  6
L014100020032000000
 10
5.200000
 20
39.500000
 40
3.000000
  1
PE
 50
0.000000
 51
0.000000
 72
2
 73
0
 11
5.200000
 21
39.500000
  0
TEXT
  8
1
 62
7
  6
L014100020032000000
 10
10.200000
 20
45.500000
 40
3.000000
  1
N
 50
0.000000
 51
0.000000
 72
2
 73
0
 11
10.200000
 21
45.500000
  0
POLYLINE
  8
29
 62
7
  6
CONTINUOUS
 70
1
 66
1
  0
VERTEX
 10
0.000000
 20
24.000000
 30
0.000000
  8
29
 62
7
  6
CONTINUOUS
  0
VERTEX
 10
0.000000
 20
20.000000
 30
0.000000
  8
29
 62
7
  6
CONTINUOUS
  0
VERTEX
 10
90.000000
 20
20.000000
 30
0.000000
  8
29
 62
7
  6
CONTINUOUS
  0
VERTEX
 10
90.000000
 20
24.000000
 30
0.000000
  8
29
 62
7
  6
CONTINUOUS
  0
SEQEND
  0
POLYLINE
  8
29
 62
7
  6
CONTINUOUS
 70
1
 66
1
  0
VERTEX
 10
95.000000
 20
24.000000
 30
0.000000
  8
29
 62
7
  6
CONTINUOUS
  0
VERTEX
 10
95.000000
 20
20.000000
 30
0.000000
  8
29
 62
7
  6
CONTINUOUS
  0
VERTEX
 10
125.000000
 20
20.000000
 30
0.000000
  8
29
 62
7
  6
CONTINUOUS
  0
VERTEX
 10
125.000000
 20
24.000000
 30
0.000000
  8
29
 62
7
  6
CONTINUOUS
  0
SEQEND
  0
POLYLINE
  8
29
 62
7
  6
CONTINUOUS
 70
0
 66
1
  0
VERTEX
 10
125.000000
 20
21.000000
  8
29
 62
7
  6
CONTINUOUS
  0
VERTEX
 10
95.000000
 20
21.000000
  8
29
 62
7
  6
CONTINUOUS
  0
SEQEND
  0
POLYLINE
  8
29
 62
7
  6
CONTINUOUS
 70
0
 66
1
  0
VERTEX
 10
125.000000
 20
23.000000
  8
29
 62
7
  6
CONTINUOUS
  0
VERTEX
 10
95.000000
 20
23.000000
  8
29
 62
7
  6
CONTINUOUS
  0
SEQEND
  0
TEXT
  8
29
 62
7
  6
CONTINUOUS
 10
110.000000
 20
34.000000
 40
3.000000
  1
Zugang
 50
0.000000
 51
0.000000
 72
1
 73
0
 11
110.000000
 21
34.000000
  0
TEXT
  8
29
 62
7
  6
CONTINUOUS
 10
45.000000
 20
14.000000
 40
3.000000
  1
Abfangschiene
 50
0.000000
 51
0.000000
 72
1
 73
0
 11
45.000000
 21
14.000000
  0
TEXT
  8
29
 62
7
  6
CONTINUOUS
 10
110.000000
 20
49.000000
 40
3.000000
  1
Netz-
 50
0.000000
 51
0.000000
 72
1
 73
0
 11
110.000000
 21
49.000000
  0
TEXT
  8
29
 62
7
  6
CONTINUOUS
 10
45.000000
 20
49.000000
 40
3.000000
  1
Hausanschluß-
 50
0.000000
 51
0.000000
 72
1
 73
0
 11
45.000000
 21
49.000000
  0
POLYLINE
  8
29
 62
7
  6
CONTINUOUS
 70
0
 66
1
  0
VERTEX
 10
90.000000
 20
23.000000
  8
29
 62
7
  6
CONTINUOUS
  0
VERTEX
 10
0.000000
 20
23.000000
  8
29
 62
7
  6
CONTINUOUS
  0
SEQEND
  0
POLYLINE
  8
29
 62
7
  6
CONTINUOUS
 70
0
 66
1
  0
VERTEX
 10
90.000000
 20
21.000000
  8
29
 62
7
  6
CONTINUOUS
  0
VERTEX
 10
0.000000
 20
21.000000
  8
29
 62
7
  6
CONTINUOUS
  0
SEQEND
  0
TEXT
  8
29
 62
7
  6
L014100020032000000
 10
117.000000
 20
43.000000
 40
3.000000
  1
PEN
 50
0.000000
 51
0.000000
 72
0
 73
0
  0
TEXT
  8
29
 62
7
  6
L014100020032000000
 10
10.200000
 20
45.500000
 40
3.000000
  1
N
 50
0.000000
 51
0.000000
 72
2
 73
0
 11
10.200000
 21
45.500000
  0
TEXT
  8
29
 62
7
  6
L014100020032000000
 10
5.200000
 20
39.500000
 40
3.000000
  1
PE
 50
0.000000
 51
0.000000
 72
2
 73
0
 11
5.200000
 21
39.500000
  0
POLYLINE
  8
56
 62
7
  6
CONTINUOUS
 70
1
 66
1
  0
VERTEX
 10
6.100000
 20
42.000000
 30
0.000000
  8
56
 62
7
  6
CONTINUOUS
  0
VERTEX
 10
6.100000
 20
39.000000
 30
0.000000
  8
56
 62
7
  6
CONTINUOUS
  0
VERTEX
 10
120.000000
 20
39.000000
 30
0.000000
  8
56
 62
7
  6
CONTINUOUS
  0
VERTEX
 10
120.000000
 20
42.000000
 30
0.000000
  8
56
 62
7
  6
CONTINUOUS
  0
SEQEND
  0
POLYLINE
  8
56
 62
7
  6
CONTINUOUS
 70
1
 66
1
  0
VERTEX
 10
5.000000
 20
73.500000
 30
0.000000
  8
56
 62
7
  6
CONTINUOUS
  0
VERTEX
 10
5.000000
 20
76.500000
 30
0.000000
  8
56
 62
7
  6
CONTINUOUS
  0
VERTEX
 10
90.500000
 20
76.500000
 30
0.000000
  8
56
 62
7
  6
CONTINUOUS
  0
VERTEX
 10
90.500000
 20
73.500000
 30
0.000000
  8
56
 62
7
  6
CONTINUOUS
  0
SEQEND
  0
POLYLINE
  8
56
 62
7
  6
CONTINUOUS
 70
1
 66
1
  0
VERTEX
 10
5.000000
 20
90.500000
 30
0.000000
  8
56
 62
7
  6
CONTINUOUS
  0
VERTEX
 10
5.000000
 20
93.500000
 30
0.000000
  8
56
 62
7
  6
CONTINUOUS
  0
VERTEX
 10
90.500000
 20
93.500000
 30
0.000000
  8
56
 62
7
  6
CONTINUOUS
  0
VERTEX
 10
90.500000
 20
90.500000
 30
0.000000
  8
56
 62
7
  6
CONTINUOUS
  0
SEQEND
  0
POLYLINE
  8
56
 62
7
  6
CONTINUOUS
 70
1
 66
1
  0
VERTEX
 10
5.000000
 20
107.400000
 30
0.000000
  8
56
 62
7
  6
CONTINUOUS
  0
VERTEX
 10
5.000000
 20
110.400000
 30
0.000000
  8
56
 62
7
  6
CONTINUOUS
  0
VERTEX
 10
90.500000
 20
110.400000
 30
0.000000
  8
56
 62
7
  6
CONTINUOUS
  0
VERTEX
 10
90.500000
 20
107.400000
 30
0.000000
  8
56
 62
7
  6
CONTINUOUS
  0
SEQEND
  0
CIRCLE
  8
56
 62
7
  6
CONTINUOUS
 10
46.000000
 20
109.000000
 30
0.0
 40
0.700000
  0
CIRCLE
  8
56
 62
7
  6
CONTINUOUS
 10
46.000000
 20
92.000000
 30
0.0
 40
0.700000
  0
CIRCLE
  8
56
 62
7
  6
CONTINUOUS
 10
46.000000
 20
75.000000
 30
0.0
 40
0.700000
  0
CIRCLE
  8
56
 62
7
  6
CONTINUOUS
 10
37.500000
 20
40.500000
 30
0.0
 40
0.800000
  0
CIRCLE
  8
56
 62
7
  6
CONTINUOUS
 10
115.000000
 20
40.500000
 30
0.0
 40
0.800000
  0
CIRCLE
  8
56
 62
7
  6
CONTINUOUS
 10
105.000000
 20
40.500000
 30
0.0
 40
0.800000
  0
CIRCLE
  8
56
 62
7
  6
CONTINUOUS
 10
77.500000
 20
40.500000
 30
0.0
 40
0.800000
  0
CIRCLE
  8
56
 62
7
  6
CONTINUOUS
 10
47.500000
 20
40.500000
 30
0.0
 40
0.800000
  0
CIRCLE
  8
56
 62
7
  6
CONTINUOUS
 10
67.500000
 20
40.500000
 30
0.0
 40
0.800000
  0
CIRCLE
  8
56
 62
7
  6
CONTINUOUS
 10
57.500000
 20
40.500000
 30
0.0
 40
0.800000
  0
CIRCLE
  8
56
 62
7
  6
CONTINUOUS
 10
76.000000
 20
109.000000
 30
0.0
 40
0.700000
  0
CIRCLE
  8
56
 62
7
  6
CONTINUOUS
 10
76.000000
 20
92.000000
 30
0.0
 40
0.700000
  0
CIRCLE
  8
56
 62
7
  6
CONTINUOUS
 10
76.000000
 20
75.000000
 30
0.0
 40
0.700000
  0
POLYLINE
  8
56
 62
7
  6
CONTINUOUS
 70
1
 66
1
  0
VERTEX
 10
87.000000
 20
48.000000
 30
0.000000
  8
56
 62
7
  6
CONTINUOUS
  0
VERTEX
 10
87.000000
 20
39.000000
 30
0.000000
  8
56
 62
7
  6
CONTINUOUS
  0
VERTEX
 10
90.000000
 20
39.000000
 30
0.000000
  8
56
 62
7
  6
CONTINUOUS
  0
VERTEX
 10
90.000000
 20
48.000000
 30
0.000000
  8
56
 62
7
  6
CONTINUOUS
  0
SEQEND
  0
CIRCLE
  8
56
 62
7
  6
CONTINUOUS
 10
88.500000
 20
46.500000
 30
0.0
 40
0.800000
  0
CIRCLE
  8
56
 62
7
  6
CONTINUOUS
 10
88.500000
 20
40.500000
 30
0.0
 40
0.800000
  0
POLYLINE
  8
56
 62
7
  6
CONTINUOUS
 70
1
 66
1
  0
VERTEX
 10
11.100000
 20
48.000000
 30
0.000000
  8
56
 62
7
  6
CONTINUOUS
  0
VERTEX
 10
11.100000
 20
45.000000
 30
0.000000
  8
56
 62
7
  6
CONTINUOUS
  0
VERTEX
 10
90.000000
 20
45.000000
 30
0.000000
  8
56
 62
7
  6
CONTINUOUS
  0
VERTEX
 10
90.000000
 20
48.000000
 30
0.000000
  8
56
 62
7
  6
CONTINUOUS
  0
SEQEND
  0
CIRCLE
  8
56
 62
7
  6
CONTINUOUS
 10
82.500000
 20
46.500000
 30
0.0
 40
0.800000
  0
CIRCLE
  8
56
 62
7
  6
CONTINUOUS
 10
72.500000
 20
46.500000
 30
0.0
 40
0.800000
  0
CIRCLE
  8
56
 62
7
  6
CONTINUOUS
 10
62.500000
 20
46.500000
 30
0.0
 40
0.800000
  0
CIRCLE
  8
56
 62
7
  6
CONTINUOUS
 10
52.500000
 20
46.500000
 30
0.0
 40
0.800000
  0
CIRCLE
  8
56
 62
7
  6
CONTINUOUS
 10
42.500000
 20
46.500000
 30
0.0
 40
0.800000
  0
CIRCLE
  8
56
 62
7
  6
CONTINUOUS
 10
110.000000
 20
109.000000
 30
0.0
 40
0.700000
  0
CIRCLE
  8
56
 62
7
  6
CONTINUOUS
 10
110.000000
 20
92.000000
 30
0.0
 40
0.700000
  0
CIRCLE
  8
56
 62
7
  6
CONTINUOUS
 10
110.000000
 20
75.000000
 30
0.0
 40
0.700000
  0
POLYLINE
  8
56
 62
7
  6
CONTINUOUS
 70
1
 66
1
  0
VERTEX
 10
94.500000
 20
73.500000
 30
0.000000
  8
56
 62
7
  6
CONTINUOUS
  0
VERTEX
 10
94.500000
 20
76.500000
 30
0.000000
  8
56
 62
7
  6
CONTINUOUS
  0
VERTEX
 10
120.000000
 20
76.500000
 30
0.000000
  8
56
 62
7
  6
CONTINUOUS
  0
VERTEX
 10
120.000000
 20
73.500000
 30
0.000000
  8
56
 62
7
  6
CONTINUOUS
  0
SEQEND
  0
POLYLINE
  8
56
 62
7
  6
CONTINUOUS
 70
1
 66
1
  0
VERTEX
 10
94.500000
 20
90.500000
 30
0.000000
  8
56
 62
7
  6
CONTINUOUS
  0
VERTEX
 10
94.500000
 20
93.500000
 30
0.000000
  8
56
 62
7
  6
CONTINUOUS
  0
VERTEX
 10
120.000000
 20
93.500000
 30
0.000000
  8
56
 62
7
  6
CONTINUOUS
  0
VERTEX
 10
120.000000
 20
90.500000
 30
0.000000
  8
56
 62
7
  6
CONTINUOUS
  0
SEQEND
  0
POLYLINE
  8
56
 62
7
  6
CONTINUOUS
 70
1
 66
1
  0
VERTEX
 10
94.500000
 20
107.400000
 30
0.000000
  8
56
 62
7
  6
CONTINUOUS
  0
VERTEX
 10
94.500000
 20
110.400000
 30
0.000000
  8
56
 62
7
  6
CONTINUOUS
  0
VERTEX
 10
120.000000
 20
110.400000
 30
0.000000
  8
56
 62
7
  6
CONTINUOUS
  0
VERTEX
 10
120.000000
 20
107.400000
 30
0.000000
  8
56
 62
7
  6
CONTINUOUS
  0
SEQEND
  0
CIRCLE
  8
56
 62
7
  6
CONTINUOUS
 10
110.000000
 20
75.000000
 30
0.0
 40
0.700000
  0
CIRCLE
  8
56
 62
7
  6
CONTINUOUS
 10
110.000000
 20
92.000000
 30
0.0
 40
0.700000
  0
CIRCLE
  8
56
 62
7
  6
CONTINUOUS
 10
110.000000
 20
109.000000
 30
0.0
 40
0.700000
  0
CIRCLE
  8
56
 62
7
  6
CONTINUOUS
 10
16.000000
 20
109.000000
 30
0.0
 40
0.700000
  0
CIRCLE
  8
56
 62
7
  6
CONTINUOUS
 10
16.000000
 20
92.000000
 30
0.0
 40
0.700000
  0
CIRCLE
  8
56
 62
7
  6
CONTINUOUS
 10
16.000000
 20
75.000000
 30
0.0
 40
0.700000
  0
CIRCLE
  8
56
 62
7
  6
CONTINUOUS
 10
7.500000
 20
40.500000
 30
0.0
 40
0.800000
  0
CIRCLE
  8
56
 62
7
  6
CONTINUOUS
 10
17.500000
 20
40.500000
 30
0.0
 40
0.800000
  0
CIRCLE
  8
56
 62
7
  6
CONTINUOUS
 10
37.500000
 20
40.500000
 30
0.0
 40
0.800000
  0
CIRCLE
  8
56
 62
7
  6
CONTINUOUS
 10
27.500000
 20
40.500000
 30
0.0
 40
0.800000
  0
CIRCLE
  8
56
 62
7
  6
CONTINUOUS
 10
32.500000
 20
46.500000
 30
0.0
 40
0.800000
  0
CIRCLE
  8
56
 62
7
  6
CONTINUOUS
 10
22.500000
 20
46.500000
 30
0.0
 40
0.800000
  0
CIRCLE
  8
56
 62
7
  6
CONTINUOUS
 10
12.500000
 20
46.500000
 30
0.0
 40
0.800000
  0
POLYLINE
  8
57
 62
7
  6
L014100020032000000
 70
1
 66
1
  0
VERTEX
 10
4.900000
 20
73.500000
 30
0.000000
  8
57
 62
7
  6
L014100020032000000
  0
VERTEX
 10
4.900000
 20
76.500000
 30
0.000000
  8
57
 62
7
  6
L014100020032000000
  0
VERTEX
 10
90.500000
 20
76.500000
 30
0.000000
  8
57
 62
7
  6
L014100020032000000
  0
VERTEX
 10
90.500000
 20
73.500000
 30
0.000000
  8
57
 62
7
  6
L014100020032000000
  0
SEQEND
  0
POLYLINE
  8
57
 62
7
  6
L014100020032000000
 70
1
 66
1
  0
VERTEX
 10
5.000000
 20
90.500000
 30
0.000000
  8
57
 62
7
  6
L014100020032000000
  0
VERTEX
 10
5.000000
 20
93.500000
 30
0.000000
  8
57
 62
7
  6
L014100020032000000
  0
VERTEX
 10
90.500000
 20
93.500000
 30
0.000000
  8
57
 62
7
  6
L014100020032000000
  0
VERTEX
 10
90.500000
 20
90.500000
 30
0.000000
  8
57
 62
7
  6
L014100020032000000
  0
SEQEND
  0
POLYLINE
  8
57
 62
7
  6
L014100020032000000
 70
1
 66
1
  0
VERTEX
 10
5.000000
 20
107.400000
 30
0.000000
  8
57
 62
7
  6
L014100020032000000
  0
VERTEX
 10
5.000000
 20
110.400000
 30
0.000000
  8
57
 62
7
  6
L014100020032000000
  0
VERTEX
 10
90.500000
 20
110.400000
 30
0.000000
  8
57
 62
7
  6
L014100020032000000
  0
VERTEX
 10
90.500000
 20
107.400000
 30
0.000000
  8
57
 62
7
  6
L014100020032000000
  0
SEQEND
  0
CIRCLE
  8
57
 62
7
  6
L014100020032000000
 10
46.000000
 20
109.000000
 30
0.0
 40
0.700000
  0
CIRCLE
  8
57
 62
7
  6
L014100020032000000
 10
46.000000
 20
92.000000
 30
0.0
 40
0.700000
  0
CIRCLE
  8
57
 62
7
  6
L014100020032000000
 10
46.000000
 20
75.000000
 30
0.0
 40
0.700000
  0
POLYLINE
  8
57
 62
7
  6
L014100020032000000
 70
1
 66
1
  0
VERTEX
 10
6.100000
 20
42.000000
 30
0.000000
  8
57
 62
7
  6
L014100020032000000
  0
VERTEX
 10
6.100000
 20
39.000000
 30
0.000000
  8
57
 62
7
  6
L014100020032000000
  0
VERTEX
 10
120.000000
 20
39.000000
 30
0.000000
  8
57
 62
7
  6
L014100020032000000
  0
VERTEX
 10
120.000000
 20
42.000000
 30
0.000000
  8
57
 62
7
  6
L014100020032000000
  0
SEQEND
  0
CIRCLE
  8
57
 62
7
  6
L014100020032000000
 10
37.500000
 20
40.500000
 30
0.0
 40
0.800000
  0
CIRCLE
  8
57
 62
7
  6
L014100020032000000
 10
115.000000
 20
40.500000
 30
0.0
 40
0.800000
  0
CIRCLE
  8
57
 62
7
  6
L014100020032000000
 10
105.000000
 20
40.500000
 30
0.0
 40
0.800000
  0
CIRCLE
  8
57
 62
7
  6
L014100020032000000
 10
77.500000
 20
40.500000
 30
0.0
 40
0.800000
  0
CIRCLE
  8
57
 62
7
  6
L014100020032000000
 10
47.500000
 20
40.500000
 30
0.0
 40
0.800000
  0
CIRCLE
  8
57
 62
7
  6
L014100020032000000
 10
67.500000
 20
40.500000
 30
0.0
 40
0.800000
  0
CIRCLE
  8
57
 62
7
  6
L014100020032000000
 10
57.500000
 20
40.500000
 30
0.0
 40
0.800000
  0
CIRCLE
  8
57
 62
7
  6
L014100020032000000
 10
76.000000
 20
109.000000
 30
0.0
 40
0.700000
  0
CIRCLE
  8
57
 62
7
  6
L014100020032000000
 10
76.000000
 20
92.000000
 30
0.0
 40
0.700000
  0
CIRCLE
  8
57
 62
7
  6
L014100020032000000
 10
76.000000
 20
75.000000
 30
0.0
 40
0.700000
  0
POLYLINE
  8
57
 62
7
  6
L014100020032000000
 70
1
 66
1
  0
VERTEX
 10
87.000000
 20
48.000000
 30
0.000000
  8
57
 62
7
  6
L014100020032000000
  0
VERTEX
 10
87.000000
 20
39.000000
 30
0.000000
  8
57
 62
7
  6
L014100020032000000
  0
VERTEX
 10
90.000000
 20
39.000000
 30
0.000000
  8
57
 62
7
  6
L014100020032000000
  0
VERTEX
 10
90.000000
 20
48.000000
 30
0.000000
  8
57
 62
7
  6
L014100020032000000
  0
SEQEND
  0
CIRCLE
  8
57
 62
7
  6
L014100020032000000
 10
88.500000
 20
46.500000
 30
0.0
 40
0.800000
  0
CIRCLE
  8
57
 62
7
  6
L014100020032000000
 10
88.500000
 20
40.500000
 30
0.0
 40
0.800000
  0
POLYLINE
  8
57
 62
7
  6
L014100020032000000
 70
1
 66
1
  0
VERTEX
 10
11.100000
 20
48.000000
 30
0.000000
  8
57
 62
7
  6
L014100020032000000
  0
VERTEX
 10
11.100000
 20
45.000000
 30
0.000000
  8
57
 62
7
  6
L014100020032000000
  0
VERTEX
 10
90.000000
 20
45.000000
 30
0.000000
  8
57
 62
7
  6
L014100020032000000
  0
VERTEX
 10
90.000000
 20
48.000000
 30
0.000000
  8
57
 62
7
  6
L014100020032000000
  0
SEQEND
  0
CIRCLE
  8
57
 62
7
  6
L014100020032000000
 10
82.500000
 20
46.500000
 30
0.0
 40
0.800000
  0
CIRCLE
  8
57
 62
7
  6
L014100020032000000
 10
72.500000
 20
46.500000
 30
0.0
 40
0.800000
  0
CIRCLE
  8
57
 62
7
  6
L014100020032000000
 10
62.500000
 20
46.500000
 30
0.0
 40
0.800000
  0
CIRCLE
  8
57
 62
7
  6
L014100020032000000
 10
52.500000
 20
46.500000
 30
0.0
 40
0.800000
  0
CIRCLE
  8
57
 62
7
  6
L014100020032000000
 10
42.500000
 20
46.500000
 30
0.0
 40
0.800000
  0
CIRCLE
  8
57
 62
7
  6
L014100020032000000
 10
110.000000
 20
109.000000
 30
0.0
 40
0.700000
  0
CIRCLE
  8
57
 62
7
  6
L014100020032000000
 10
110.000000
 20
92.000000
 30
0.0
 40
0.700000
  0
CIRCLE
  8
57
 62
7
  6
L014100020032000000
 10
110.000000
 20
75.000000
 30
0.0
 40
0.700000
  0
POLYLINE
  8
57
 62
7
  6
L014100020032000000
 70
1
 66
1
  0
VERTEX
 10
94.500000
 20
73.500000
 30
0.000000
  8
57
 62
7
  6
L014100020032000000
  0
VERTEX
 10
94.500000
 20
76.500000
 30
0.000000
  8
57
 62
7
  6
L014100020032000000
  0
VERTEX
 10
120.000000
 20
76.500000
 30
0.000000
  8
57
 62
7
  6
L014100020032000000
  0
VERTEX
 10
120.000000
 20
73.500000
 30
0.000000
  8
57
 62
7
  6
L014100020032000000
  0
SEQEND
  0
POLYLINE
  8
57
 62
7
  6
L014100020032000000
 70
1
 66
1
  0
VERTEX
 10
94.500000
 20
90.500000
 30
0.000000
  8
57
 62
7
  6
L014100020032000000
  0
VERTEX
 10
94.500000
 20
93.500000
 30
0.000000
  8
57
 62
7
  6
L014100020032000000
  0
VERTEX
 10
120.000000
 20
93.500000
 30
0.000000
  8
57
 62
7
  6
L014100020032000000
  0
VERTEX
 10
120.000000
 20
90.500000
 30
0.000000
  8
57
 62
7
  6
L014100020032000000
  0
SEQEND
  0
POLYLINE
  8
57
 62
7
  6
L014100020032000000
 70
1
 66
1
  0
VERTEX
 10
94.500000
 20
107.400000
 30
0.000000
  8
57
 62
7
  6
L014100020032000000
  0
VERTEX
 10
94.500000
 20
110.400000
 30
0.000000
  8
57
 62
7
  6
L014100020032000000
  0
VERTEX
 10
120.000000
 20
110.400000
 30
0.000000
  8
57
 62
7
  6
L014100020032000000
  0
VERTEX
 10
120.000000
 20
107.400000
 30
0.000000
  8
57
 62
7
  6
L014100020032000000
  0
SEQEND
  0
CIRCLE
  8
57
 62
7
  6
L014100020032000000
 10
110.000000
 20
75.000000
 30
0.0
 40
0.700000
  0
CIRCLE
  8
57
 62
7
  6
L014100020032000000
 10
110.000000
 20
92.000000
 30
0.0
 40
0.700000
  0
CIRCLE
  8
57
 62
7
  6
L014100020032000000
 10
110.000000
 20
109.000000
 30
0.0
 40
0.700000
  0
CIRCLE
  8
57
 62
7
  6
L014100020032000000
 10
16.000000
 20
109.000000
 30
0.0
 40
0.700000
  0
CIRCLE
  8
57
 62
7
  6
L014100020032000000
 10
16.000000
 20
92.000000
 30
0.0
 40
0.700000
  0
CIRCLE
  8
57
 62
7
  6
L014100020032000000
 10
16.000000
 20
75.000000
 30
0.0
 40
0.700000
  0
CIRCLE
  8
57
 62
7
  6
L014100020032000000
 10
7.500000
 20
40.500000
 30
0.0
 40
0.800000
  0
CIRCLE
  8
57
 62
7
  6
L014100020032000000
 10
17.500000
 20
40.500000
 30
0.0
 40
0.800000
  0
CIRCLE
  8
57
 62
7
  6
L014100020032000000
 10
37.500000
 20
40.500000
 30
0.0
 40
0.800000
  0
CIRCLE
  8
57
 62
7
  6
L014100020032000000
 10
27.500000
 20
40.500000
 30
0.0
 40
0.800000
  0
CIRCLE
  8
57
 62
7
  6
L014100020032000000
 10
32.500000
 20
46.500000
 30
0.0
 40
0.800000
  0
CIRCLE
  8
57
 62
7
  6
L014100020032000000
 10
22.500000
 20
46.500000
 30
0.0
 40
0.800000
  0
CIRCLE
  8
57
 62
7
  6
L014100020032000000
 10
12.500000
 20
46.500000
 30
0.0
 40
0.800000
  0
POLYLINE
  8
60
 62
7
  6
CONTINUOUS
 70
1
 66
1
  0
VERTEX
 10
112.500000
 20
38.000000
 30
0.000000
  8
60
 62
7
  6
CONTINUOUS
  0
VERTEX
 10
112.500000
 20
43.000000
 30
0.000000
  8
60
 62
7
  6
CONTINUOUS
  0
VERTEX
 10
117.500000
 20
43.000000
 30
0.000000
  8
60
 62
7
  6
CONTINUOUS
  0
VERTEX
 10
117.500000
 20
38.000000
 30
0.000000
  8
60
 62
7
  6
CONTINUOUS
  0
SEQEND
  0
POLYLINE
  8
60
 62
7
  6
CONTINUOUS
 70
1
 66
1
  0
VERTEX
 10
6.100000
 20
42.000000
 30
0.000000
  8
60
 62
7
  6
CONTINUOUS
  0
VERTEX
 10
6.100000
 20
39.000000
 30
0.000000
  8
60
 62
7
  6
CONTINUOUS
  0
VERTEX
 10
120.000000
 20
39.000000
 30
0.000000
  8
60
 62
7
  6
CONTINUOUS
  0
VERTEX
 10
120.000000
 20
42.000000
 30
0.000000
  8
60
 62
7
  6
CONTINUOUS
  0
SEQEND
  0
POLYLINE
  8
60
 62
7
  6
CONTINUOUS
 70
1
 66
1
  0
VERTEX
 10
5.000000
 20
73.500000
 30
0.000000
  8
60
 62
7
  6
CONTINUOUS
  0
VERTEX
 10
5.000000
 20
76.500000
 30
0.000000
  8
60
 62
7
  6
CONTINUOUS
  0
VERTEX
 10
90.500000
 20
76.500000
 30
0.000000
  8
60
 62
7
  6
CONTINUOUS
  0
VERTEX
 10
90.500000
 20
73.500000
 30
0.000000
  8
60
 62
7
  6
CONTINUOUS
  0
SEQEND
  0
POLYLINE
  8
60
 62
7
  6
CONTINUOUS
 70
1
 66
1
  0
VERTEX
 10
5.000000
 20
90.500000
 30
0.000000
  8
60
 62
7
  6
CONTINUOUS
  0
VERTEX
 10
5.000000
 20
93.500000
 30
0.000000
  8
60
 62
7
  6
CONTINUOUS
  0
VERTEX
 10
90.500000
 20
93.500000
 30
0.000000
  8
60
 62
7
  6
CONTINUOUS
  0
VERTEX
 10
90.500000
 20
90.500000
 30
0.000000
  8
60
 62
7
  6
CONTINUOUS
  0
SEQEND
  0
POLYLINE
  8
60
 62
7
  6
CONTINUOUS
 70
1
 66
1
  0
VERTEX
 10
5.000000
 20
107.400000
 30
0.000000
  8
60
 62
7
  6
CONTINUOUS
  0
VERTEX
 10
5.000000
 20
110.400000
 30
0.000000
  8
60
 62
7
  6
CONTINUOUS
  0
VERTEX
 10
90.500000
 20
110.400000
 30
0.000000
  8
60
 62
7
  6
CONTINUOUS
  0
VERTEX
 10
90.500000
 20
107.400000
 30
0.000000
  8
60
 62
7
  6
CONTINUOUS
  0
SEQEND
  0
CIRCLE
  8
60
 62
7
  6
CONTINUOUS
 10
46.000000
 20
109.000000
 30
0.0
 40
0.700000
  0
CIRCLE
  8
60
 62
7
  6
CONTINUOUS
 10
46.000000
 20
92.000000
 30
0.0
 40
0.700000
  0
CIRCLE
  8
60
 62
7
  6
CONTINUOUS
 10
46.000000
 20
75.000000
 30
0.0
 40
0.700000
  0
CIRCLE
  8
60
 62
7
  6
CONTINUOUS
 10
37.600000
 20
40.500000
 30
0.0
 40
0.800000
  0
CIRCLE
  8
60
 62
7
  6
CONTINUOUS
 10
115.000000
 20
40.500000
 30
0.0
 40
0.800000
  0
CIRCLE
  8
60
 62
7
  6
CONTINUOUS
 10
105.000000
 20
40.500000
 30
0.0
 40
0.800000
  0
CIRCLE
  8
60
 62
7
  6
CONTINUOUS
 10
77.600000
 20
40.500000
 30
0.0
 40
0.800000
  0
CIRCLE
  8
60
 62
7
  6
CONTINUOUS
 10
47.600000
 20
40.500000
 30
0.0
 40
0.800000
  0
CIRCLE
  8
60
 62
7
  6
CONTINUOUS
 10
67.600000
 20
40.500000
 30
0.0
 40
0.800000
  0
CIRCLE
  8
60
 62
7
  6
CONTINUOUS
 10
57.600000
 20
40.500000
 30
0.0
 40
0.800000
  0
CIRCLE
  8
60
 62
7
  6
CONTINUOUS
 10
76.000000
 20
109.000000
 30
0.0
 40
0.700000
  0
CIRCLE
  8
60
 62
7
  6
CONTINUOUS
 10
76.000000
 20
92.000000
 30
0.0
 40
0.700000
  0
CIRCLE
  8
60
 62
7
  6
CONTINUOUS
 10
76.000000
 20
75.000000
 30
0.0
 40
0.700000
  0
POLYLINE
  8
60
 62
255
  6
L000000020000FFFFFF
 70
1
 66
1
  0
VERTEX
 10
87.000000
 20
48.000000
 30
0.000000
  8
60
 62
255
  6
L000000020000FFFFFF
  0
VERTEX
 10
87.000000
 20
39.000000
 30
0.000000
  8
60
 62
255
  6
L000000020000FFFFFF
  0
VERTEX
 10
90.000000
 20
39.000000
 30
0.000000
  8
60
 62
255
  6
L000000020000FFFFFF
  0
VERTEX
 10
90.000000
 20
48.000000
 30
0.000000
  8
60
 62
255
  6
L000000020000FFFFFF
  0
SEQEND
  0
POLYLINE
  8
60
 62
255
  6
L000000020000FFFFFF
 70
1
 66
1
  0
VERTEX
 10
11.100000
 20
48.000000
 30
0.000000
  8
60
 62
255
  6
L000000020000FFFFFF
  0
VERTEX
 10
11.100000
 20
45.000000
 30
0.000000
  8
60
 62
255
  6
L000000020000FFFFFF
  0
VERTEX
 10
90.000000
 20
45.000000
 30
0.000000
  8
60
 62
255
  6
L000000020000FFFFFF
  0
VERTEX
 10
90.000000
 20
48.000000
 30
0.000000
  8
60
 62
255
  6
L000000020000FFFFFF
  0
SEQEND
  0
CIRCLE
  8
60
 62
7
  6
CONTINUOUS
 10
88.500000
 20
46.500000
 30
0.0
 40
0.800000
  0
CIRCLE
  8
60
 62
7
  6
CONTINUOUS
 10
88.500000
 20
40.500000
 30
0.0
 40
0.800000
  0
CIRCLE
  8
60
 62
7
  6
CONTINUOUS
 10
82.500000
 20
46.500000
 30
0.0
 40
0.800000
  0
CIRCLE
  8
60
 62
7
  6
CONTINUOUS
 10
72.500000
 20
46.500000
 30
0.0
 40
0.800000
  0
CIRCLE
  8
60
 62
7
  6
CONTINUOUS
 10
62.500000
 20
46.500000
 30
0.0
 40
0.800000
  0
CIRCLE
  8
60
 62
7
  6
CONTINUOUS
 10
52.500000
 20
46.500000
 30
0.0
 40
0.800000
  0
CIRCLE
  8
60
 62
7
  6
CONTINUOUS
 10
42.500000
 20
46.500000
 30
0.0
 40
0.800000
  0
CIRCLE
  8
60
 62
7
  6
CONTINUOUS
 10
110.000000
 20
109.000000
 30
0.0
 40
0.700000
  0
CIRCLE
  8
60
 62
7
  6
CONTINUOUS
 10
110.000000
 20
92.000000
 30
0.0
 40
0.700000
  0
CIRCLE
  8
60
 62
7
  6
CONTINUOUS
 10
110.000000
 20
75.000000
 30
0.0
 40
0.700000
  0
POLYLINE
  8
60
 62
7
  6
CONTINUOUS
 70
1
 66
1
  0
VERTEX
 10
94.500000
 20
73.500000
 30
0.000000
  8
60
 62
7
  6
CONTINUOUS
  0
VERTEX
 10
94.500000
 20
76.500000
 30
0.000000
  8
60
 62
7
  6
CONTINUOUS
  0
VERTEX
 10
120.000000
 20
76.500000
 30
0.000000
  8
60
 62
7
  6
CONTINUOUS
  0
VERTEX
 10
120.000000
 20
73.500000
 30
0.000000
  8
60
 62
7
  6
CONTINUOUS
  0
SEQEND
  0
POLYLINE
  8
60
 62
7
  6
CONTINUOUS
 70
1
 66
1
  0
VERTEX
 10
94.500000
 20
90.500000
 30
0.000000
  8
60
 62
7
  6
CONTINUOUS
  0
VERTEX
 10
94.500000
 20
93.500000
 30
0.000000
  8
60
 62
7
  6
CONTINUOUS
  0
VERTEX
 10
120.000000
 20
93.500000
 30
0.000000
  8
60
 62
7
  6
CONTINUOUS
  0
VERTEX
 10
120.000000
 20
90.500000
 30
0.000000
  8
60
 62
7
  6
CONTINUOUS
  0
SEQEND
  0
POLYLINE
  8
60
 62
7
  6
CONTINUOUS
 70
1
 66
1
  0
VERTEX
 10
94.600000
 20
107.400000
 30
0.000000
  8
60
 62
7
  6
CONTINUOUS
  0
VERTEX
 10
94.600000
 20
110.400000
 30
0.000000
  8
60
 62
7
  6
CONTINUOUS
  0
VERTEX
 10
120.000000
 20
110.400000
 30
0.000000
  8
60
 62
7
  6
CONTINUOUS
  0
VERTEX
 10
120.000000
 20
107.400000
 30
0.000000
  8
60
 62
7
  6
CONTINUOUS
  0
SEQEND
  0
CIRCLE
  8
60
 62
7
  6
CONTINUOUS
 10
110.000000
 20
92.000000
 30
0.0
 40
0.700000
  0
CIRCLE
  8
60
 62
7
  6
CONTINUOUS
 10
110.000000
 20
109.000000
 30
0.0
 40
0.700000
  0
CIRCLE
  8
60
 62
7
  6
CONTINUOUS
 10
110.000000
 20
75.000000
 30
0.0
 40
0.700000
  0
CIRCLE
  8
60
 62
7
  6
CONTINUOUS
 10
16.000000
 20
109.000000
 30
0.0
 40
0.700000
  0
CIRCLE
  8
60
 62
7
  6
CONTINUOUS
 10
16.000000
 20
92.000000
 30
0.0
 40
0.700000
  0
CIRCLE
  8
60
 62
7
  6
CONTINUOUS
 10
16.000000
 20
75.000000
 30
0.0
 40
0.700000
  0
CIRCLE
  8
60
 62
7
  6
CONTINUOUS
 10
7.600000
 20
40.500000
 30
0.0
 40
0.800000
  0
CIRCLE
  8
60
 62
7
  6
CONTINUOUS
 10
17.600000
 20
40.500000
 30
0.0
 40
0.800000
  0
CIRCLE
  8
60
 62
7
  6
CONTINUOUS
 10
37.600000
 20
40.500000
 30
0.0
 40
0.800000
  0
CIRCLE
  8
60
 62
7
  6
CONTINUOUS
 10
27.600000
 20
40.500000
 30
0.0
 40
0.800000
  0
CIRCLE
  8
60
 62
7
  6
CONTINUOUS
 10
32.500000
 20
46.500000
 30
0.0
 40
0.800000
  0
CIRCLE
  8
60
 62
7
  6
CONTINUOUS
 10
22.500000
 20
46.500000
 30
0.0
 40
0.800000
  0
CIRCLE
  8
60
 62
7
  6
CONTINUOUS
 10
12.500000
 20
46.500000
 30
0.0
 40
0.800000
  0
POLYLINE
  8
157
 62
7
  6
L014100020032000000
 70
1
 66
1
  0
VERTEX
 10
100.000000
 20
54.500000
 30
0.000000
  8
157
 62
7
  6
L014100020032000000
  0
VERTEX
 10
100.000000
 20
117.500000
 30
0.000000
  8
157
 62
7
  6
L014100020032000000
  0
VERTEX
 10
110.000000
 20
117.500000
 30
0.000000
  8
157
 62
7
  6
L014100020032000000
  0
VERTEX
 10
110.000000
 20
54.500000
 30
0.000000
  8
157
 62
7
  6
L014100020032000000
  0
SEQEND
  0
POLYLINE
  8
157
 62
7
  6
L014100020032000000
 70
1
 66
1
  0
VERTEX
 10
107.000000
 20
70.500000
 30
0.000000
  8
157
 62
7
  6
L014100020032000000
  0
VERTEX
 10
107.000000
 20
79.500000
 30
0.000000
  8
157
 62
7
  6
L014100020032000000
  0
VERTEX
 10
103.000000
 20
79.500000
 30
0.000000
  8
157
 62
7
  6
L014100020032000000
  0
VERTEX
 10
103.000000
 20
70.500000
 30
0.000000
  8
157
 62
7
  6
L014100020032000000
  0
SEQEND
  0
CIRCLE
  8
157
 62
7
  6
CONTINUOUS
 10
107.700000
 20
57.800000
 30
0.0
 40
0.800000
  0
CIRCLE
  8
157
 62
7
  6
CONTINUOUS
 10
105.000000
 20
62.700000
 30
0.0
 40
0.800000
  0
CIRCLE
  8
157
 62
7
  6
CONTINUOUS
 10
102.300000
 20
57.800000
 30
0.0
 40
0.800000
  0
POLYLINE
  8
157
 62
7
  6
L014100020032000000
 70
1
 66
1
  0
VERTEX
 10
104.000000
 20
55.500000
 30
0.000000
  8
157
 62
7
  6
L014100020032000000
  0
VERTEX
 10
104.000000
 20
59.500000
 30
0.000000
  8
157
 62
7
  6
L014100020032000000
  0
VERTEX
 10
101.000000
 20
59.500000
 30
0.000000
  8
157
 62
7
  6
L014100020032000000
  0
VERTEX
 10
101.000000
 20
55.500000
 30
0.000000
  8
157
 62
7
  6
L014100020032000000
  0
SEQEND
  0
POLYLINE
  8
157
 62
7
  6
L014100020032000000
 70
1
 66
1
  0
VERTEX
 10
109.000000
 20
55.500000
 30
0.000000
  8
157
 62
7
  6
L014100020032000000
  0
VERTEX
 10
109.000000
 20
59.500000
 30
0.000000
  8
157
 62
7
  6
L014100020032000000
  0
VERTEX
 10
106.000000
 20
59.500000
 30
0.000000
  8
157
 62
7
  6
L014100020032000000
  0
VERTEX
 10
106.000000
 20
55.500000
 30
0.000000
  8
157
 62
7
  6
L014100020032000000
  0
SEQEND
  0
POLYLINE
  8
157
 62
7
  6
L014100020032000000
 70
1
 66
1
  0
VERTEX
 10
106.500000
 20
60.500000
 30
0.000000
  8
157
 62
7
  6
L014100020032000000
  0
VERTEX
 10
106.500000
 20
64.500000
 30
0.000000
  8
157
 62
7
  6
L014100020032000000
  0
VERTEX
 10
103.500000
 20
64.500000
 30
0.000000
  8
157
 62
7
  6
L014100020032000000
  0
VERTEX
 10
103.500000
 20
60.500000
 30
0.000000
  8
157
 62
7
  6
L014100020032000000
  0
SEQEND
  0
POLYLINE
  8
157
 62
7
  6
L014100020032000000
 70
1
 66
1
  0
VERTEX
 10
103.000000
 20
68.500000
 30
0.000000
  8
157
 62
7
  6
L014100020032000000
  0
VERTEX
 10
103.000000
 20
69.500000
 30
0.000000
  8
157
 62
7
  6
L014100020032000000
  0
VERTEX
 10
107.000000
 20
69.500000
 30
0.000000
  8
157
 62
7
  6
L014100020032000000
  0
VERTEX
 10
107.000000
 20
68.500000
 30
0.000000
  8
157
 62
7
  6
L014100020032000000
  0
SEQEND
  0
POLYLINE
  8
157
 62
7
  6
L014100020032000000
 70
1
 66
1
  0
VERTEX
 10
107.000000
 20
115.500000
 30
0.000000
  8
157
 62
7
  6
L014100020032000000
  0
VERTEX
 10
107.000000
 20
114.500000
 30
0.000000
  8
157
 62
7
  6
L014100020032000000
  0
VERTEX
 10
103.000000
 20
114.500000
 30
0.000000
  8
157
 62
7
  6
L014100020032000000
  0
VERTEX
 10
103.000000
 20
115.500000
 30
0.000000
  8
157
 62
7
  6
L014100020032000000
  0
SEQEND
  0
POLYLINE
  8
157
 62
7
  6
L014100020032000000
 70
1
 66
1
  0
VERTEX
 10
107.000000
 20
104.500000
 30
0.000000
  8
157
 62
7
  6
L014100020032000000
  0
VERTEX
 10
107.000000
 20
113.500000
 30
0.000000
  8
157
 62
7
  6
L014100020032000000
  0
VERTEX
 10
103.000000
 20
113.500000
 30
0.000000
  8
157
 62
7
  6
L014100020032000000
  0
VERTEX
 10
103.000000
 20
104.500000
 30
0.000000
  8
157
 62
7
  6
L014100020032000000
  0
SEQEND
  0
POLYLINE
  8
157
 62
7
  6
L014100020032000000
 70
1
 66
1
  0
VERTEX
 10
103.000000
 20
102.500000
 30
0.000000
  8
157
 62
7
  6
L014100020032000000
  0
VERTEX
 10
103.000000
 20
103.500000
 30
0.000000
  8
157
 62
7
  6
L014100020032000000
  0
VERTEX
 10
107.000000
 20
103.500000
 30
0.000000
  8
157
 62
7
  6
L014100020032000000
  0
VERTEX
 10
107.000000
 20
102.500000
 30
0.000000
  8
157
 62
7
  6
L014100020032000000
  0
SEQEND
  0
POLYLINE
  8
157
 62
7
  6
L014100020032000000
 70
1
 66
1
  0
VERTEX
 10
103.000000
 20
98.500000
 30
0.000000
  8
157
 62
7
  6
L014100020032000000
  0
VERTEX
 10
103.000000
 20
97.500000
 30
0.000000
  8
157
 62
7
  6
L014100020032000000
  0
VERTEX
 10
107.000000
 20
97.500000
 30
0.000000
  8
157
 62
7
  6
L014100020032000000
  0
VERTEX
 10
107.000000
 20
98.500000
 30
0.000000
  8
157
 62
7
  6
L014100020032000000
  0
SEQEND
  0
POLYLINE
  8
157
 62
7
  6
L014100020032000000
 70
1
 66
1
  0
VERTEX
 10
107.000000
 20
87.500000
 30
0.000000
  8
157
 62
7
  6
L014100020032000000
  0
VERTEX
 10
107.000000
 20
96.500000
 30
0.000000
  8
157
 62
7
  6
L014100020032000000
  0
VERTEX
 10
103.000000
 20
96.500000
 30
0.000000
  8
157
 62
7
  6
L014100020032000000
  0
VERTEX
 10
103.000000
 20
87.500000
 30
0.000000
  8
157
 62
7
  6
L014100020032000000
  0
SEQEND
  0
POLYLINE
  8
157
 62
7
  6
L014100020032000000
 70
1
 66
1
  0
VERTEX
 10
103.000000
 20
85.500000
 30
0.000000
  8
157
 62
7
  6
L014100020032000000
  0
VERTEX
 10
103.000000
 20
86.500000
 30
0.000000
  8
157
 62
7
  6
L014100020032000000
  0
VERTEX
 10
107.000000
 20
86.500000
 30
0.000000
  8
157
 62
7
  6
L014100020032000000
  0
VERTEX
 10
107.000000
 20
85.500000
 30
0.000000
  8
157
 62
7
  6
L014100020032000000
  0
SEQEND
  0
POLYLINE
  8
157
 62
7
  6
L014100020032000000
 70
1
 66
1
  0
VERTEX
 10
103.000000
 20
81.500000
 30
0.000000
  8
157
 62
7
  6
L014100020032000000
  0
VERTEX
 10
103.000000
 20
80.500000
 30
0.000000
  8
157
 62
7
  6
L014100020032000000
  0
VERTEX
 10
107.000000
 20
80.500000
 30
0.000000
  8
157
 62
7
  6
L014100020032000000
  0
VERTEX
 10
107.000000
 20
81.500000
 30
0.000000
  8
157
 62
7
  6
L014100020032000000
  0
SEQEND
  0
POLYLINE
  8
157
 62
7
  6
L014100020032000000
 70
1
 66
1
  0
VERTEX
 10
110.000000
 20
54.500000
 30
0.000000
  8
157
 62
7
  6
L014100020032000000
  0
VERTEX
 10
110.000000
 20
117.500000
 30
0.000000
  8
157
 62
7
  6
L014100020032000000
  0
VERTEX
 10
120.000000
 20
117.500000
 30
0.000000
  8
157
 62
7
  6
L014100020032000000
  0
VERTEX
 10
120.000000
 20
54.500000
 30
0.000000
  8
157
 62
7
  6
L014100020032000000
  0
SEQEND
  0
POLYLINE
  8
157
 62
7
  6
L014100020032000000
 70
1
 66
1
  0
VERTEX
 10
117.000000
 20
70.500000
 30
0.000000
  8
157
 62
7
  6
L014100020032000000
  0
VERTEX
 10
117.000000
 20
79.500000
 30
0.000000
  8
157
 62
7
  6
L014100020032000000
  0
VERTEX
 10
113.000000
 20
79.500000
 30
0.000000
  8
157
 62
7
  6
L014100020032000000
  0
VERTEX
 10
113.000000
 20
70.500000
 30
0.000000
  8
157
 62
7
  6
L014100020032000000
  0
SEQEND
  0
CIRCLE
  8
157
 62
7
  6
CONTINUOUS
 10
117.700000
 20
57.800000
 30
0.0
 40
0.800000
  0
CIRCLE
  8
157
 62
7
  6
CONTINUOUS
 10
115.000000
 20
62.700000
 30
0.0
 40
0.800000
  0
CIRCLE
  8
157
 62
7
  6
CONTINUOUS
 10
112.300000
 20
57.800000
 30
0.0
 40
0.800000
  0
POLYLINE
  8
157
 62
7
  6
L014100020032000000
 70
1
 66
1
  0
VERTEX
 10
114.000000
 20
55.500000
 30
0.000000
  8
157
 62
7
  6
L014100020032000000
  0
VERTEX
 10
114.000000
 20
59.500000
 30
0.000000
  8
157
 62
7
  6
L014100020032000000
  0
VERTEX
 10
111.000000
 20
59.500000
 30
0.000000
  8
157
 62
7
  6
L014100020032000000
  0
VERTEX
 10
111.000000
 20
55.500000
 30
0.000000
  8
157
 62
7
  6
L014100020032000000
  0
SEQEND
  0
POLYLINE
  8
157
 62
7
  6
L014100020032000000
 70
1
 66
1
  0
VERTEX
 10
119.000000
 20
55.500000
 30
0.000000
  8
157
 62
7
  6
L014100020032000000
  0
VERTEX
 10
119.000000
 20
59.500000
 30
0.000000
  8
157
 62
7
  6
L014100020032000000
  0
VERTEX
 10
116.000000
 20
59.500000
 30
0.000000
  8
157
 62
7
  6
L014100020032000000
  0
VERTEX
 10
116.000000
 20
55.500000
 30
0.000000
  8
157
 62
7
  6
L014100020032000000
  0
SEQEND
  0
POLYLINE
  8
157
 62
7
  6
L014100020032000000
 70
1
 66
1
  0
VERTEX
 10
116.500000
 20
60.500000
 30
0.000000
  8
157
 62
7
  6
L014100020032000000
  0
VERTEX
 10
116.500000
 20
64.500000
 30
0.000000
  8
157
 62
7
  6
L014100020032000000
  0
VERTEX
 10
113.500000
 20
64.500000
 30
0.000000
  8
157
 62
7
  6
L014100020032000000
  0
VERTEX
 10
113.500000
 20
60.500000
 30
0.000000
  8
157
 62
7
  6
L014100020032000000
  0
SEQEND
  0
POLYLINE
  8
157
 62
7
  6
L014100020032000000
 70
1
 66
1
  0
VERTEX
 10
113.000000
 20
68.500000
 30
0.000000
  8
157
 62
7
  6
L014100020032000000
  0
VERTEX
 10
113.000000
 20
69.500000
 30
0.000000
  8
157
 62
7
  6
L014100020032000000
  0
VERTEX
 10
117.000000
 20
69.500000
 30
0.000000
  8
157
 62
7
  6
L014100020032000000
  0
VERTEX
 10
117.000000
 20
68.500000
 30
0.000000
  8
157
 62
7
  6
L014100020032000000
  0
SEQEND
  0
POLYLINE
  8
157
 62
7
  6
L014100020032000000
 70
1
 66
1
  0
VERTEX
 10
117.000000
 20
115.500000
 30
0.000000
  8
157
 62
7
  6
L014100020032000000
  0
VERTEX
 10
117.000000
 20
114.500000
 30
0.000000
  8
157
 62
7
  6
L014100020032000000
  0
VERTEX
 10
113.000000
 20
114.500000
 30
0.000000
  8
157
 62
7
  6
L014100020032000000
  0
VERTEX
 10
113.000000
 20
115.500000
 30
0.000000
  8
157
 62
7
  6
L014100020032000000
  0
SEQEND
  0
POLYLINE
  8
157
 62
7
  6
L014100020032000000
 70
1
 66
1
  0
VERTEX
 10
117.000000
 20
104.500000
 30
0.000000
  8
157
 62
7
  6
L014100020032000000
  0
VERTEX
 10
117.000000
 20
113.500000
 30
0.000000
  8
157
 62
7
  6
L014100020032000000
  0
VERTEX
 10
113.000000
 20
113.500000
 30
0.000000
  8
157
 62
7
  6
L014100020032000000
  0
VERTEX
 10
113.000000
 20
104.500000
 30
0.000000
  8
157
 62
7
  6
L014100020032000000
  0
SEQEND
  0
POLYLINE
  8
157
 62
7
  6
L014100020032000000
 70
1
 66
1
  0
VERTEX
 10
113.000000
 20
102.500000
 30
0.000000
  8
157
 62
7
  6
L014100020032000000
  0
VERTEX
 10
113.000000
 20
103.500000
 30
0.000000
  8
157
 62
7
  6
L014100020032000000
  0
VERTEX
 10
117.000000
 20
103.500000
 30
0.000000
  8
157
 62
7
  6
L014100020032000000
  0
VERTEX
 10
117.000000
 20
102.500000
 30
0.000000
  8
157
 62
7
  6
L014100020032000000
  0
SEQEND
  0
POLYLINE
  8
157
 62
7
  6
L014100020032000000
 70
1
 66
1
  0
VERTEX
 10
113.000000
 20
98.500000
 30
0.000000
  8
157
 62
7
  6
L014100020032000000
  0
VERTEX
 10
113.000000
 20
97.500000
 30
0.000000
  8
157
 62
7
  6
L014100020032000000
  0
VERTEX
 10
117.000000
 20
97.500000
 30
0.000000
  8
157
 62
7
  6
L014100020032000000
  0
VERTEX
 10
117.000000
 20
98.500000
 30
0.000000
  8
157
 62
7
  6
L014100020032000000
  0
SEQEND
  0
POLYLINE
  8
157
 62
7
  6
L014100020032000000
 70
1
 66
1
  0
VERTEX
 10
117.000000
 20
87.500000
 30
0.000000
  8
157
 62
7
  6
L014100020032000000
  0
VERTEX
 10
117.000000
 20
96.500000
 30
0.000000
  8
157
 62
7
  6
L014100020032000000
  0
VERTEX
 10
113.000000
 20
96.500000
 30
0.000000
  8
157
 62
7
  6
L014100020032000000
  0
VERTEX
 10
113.000000
 20
87.500000
 30
0.000000
  8
157
 62
7
  6
L014100020032000000
  0
SEQEND
  0
POLYLINE
  8
157
 62
7
  6
L014100020032000000
 70
1
 66
1
  0
VERTEX
 10
113.000000
 20
85.500000
 30
0.000000
  8
157
 62
7
  6
L014100020032000000
  0
VERTEX
 10
113.000000
 20
86.500000
 30
0.000000
  8
157
 62
7
  6
L014100020032000000
  0
VERTEX
 10
117.000000
 20
86.500000
 30
0.000000
  8
157
 62
7
  6
L014100020032000000
  0
VERTEX
 10
117.000000
 20
85.500000
 30
0.000000
  8
157
 62
7
  6
L014100020032000000
  0
SEQEND
  0
POLYLINE
  8
157
 62
7
  6
L014100020032000000
 70
1
 66
1
  0
VERTEX
 10
113.000000
 20
81.500000
 30
0.000000
  8
157
 62
7
  6
L014100020032000000
  0
VERTEX
 10
113.000000
 20
80.500000
 30
0.000000
  8
157
 62
7
  6
L014100020032000000
  0
VERTEX
 10
117.000000
 20
80.500000
 30
0.000000
  8
157
 62
7
  6
L014100020032000000
  0
VERTEX
 10
117.000000
 20
81.500000
 30
0.000000
  8
157
 62
7
  6
L014100020032000000
  0
SEQEND
  0
POLYLINE
  8
157
 62
7
  6
L014100020032000000
 70
1
 66
1
  0
VERTEX
 10
65.000000
 20
54.500000
 30
0.000000
  8
157
 62
7
  6
L014100020032000000
  0
VERTEX
 10
65.000000
 20
117.500000
 30
0.000000
  8
157
 62
7
  6
L014100020032000000
  0
VERTEX
 10
75.000000
 20
117.500000
 30
0.000000
  8
157
 62
7
  6
L014100020032000000
  0
VERTEX
 10
75.000000
 20
54.500000
 30
0.000000
  8
157
 62
7
  6
L014100020032000000
  0
SEQEND
  0
POLYLINE
  8
157
 62
7
  6
L014100020032000000
 70
1
 66
1
  0
VERTEX
 10
72.000000
 20
70.500000
 30
0.000000
  8
157
 62
7
  6
L014100020032000000
  0
VERTEX
 10
72.000000
 20
79.500000
 30
0.000000
  8
157
 62
7
  6
L014100020032000000
  0
VERTEX
 10
68.000000
 20
79.500000
 30
0.000000
  8
157
 62
7
  6
L014100020032000000
  0
VERTEX
 10
68.000000
 20
70.500000
 30
0.000000
  8
157
 62
7
  6
L014100020032000000
  0
SEQEND
  0
CIRCLE
  8
157
 62
7
  6
CONTINUOUS
 10
72.700000
 20
57.800000
 30
0.0
 40
0.800000
  0
CIRCLE
  8
157
 62
7
  6
CONTINUOUS
 10
70.000000
 20
62.700000
 30
0.0
 40
0.800000
  0
CIRCLE
  8
157
 62
7
  6
CONTINUOUS
 10
67.300000
 20
57.800000
 30
0.0
 40
0.800000
  0
POLYLINE
  8
157
 62
7
  6
L014100020032000000
 70
1
 66
1
  0
VERTEX
 10
69.000000
 20
55.500000
 30
0.000000
  8
157
 62
7
  6
L014100020032000000
  0
VERTEX
 10
69.000000
 20
59.500000
 30
0.000000
  8
157
 62
7
  6
L014100020032000000
  0
VERTEX
 10
66.000000
 20
59.500000
 30
0.000000
  8
157
 62
7
  6
L014100020032000000
  0
VERTEX
 10
66.000000
 20
55.500000
 30
0.000000
  8
157
 62
7
  6
L014100020032000000
  0
SEQEND
  0
POLYLINE
  8
157
 62
7
  6
L014100020032000000
 70
1
 66
1
  0
VERTEX
 10
74.000000
 20
55.500000
 30
0.000000
  8
157
 62
7
  6
L014100020032000000
  0
VERTEX
 10
74.000000
 20
59.500000
 30
0.000000
  8
157
 62
7
  6
L014100020032000000
  0
VERTEX
 10
71.000000
 20
59.500000
 30
0.000000
  8
157
 62
7
  6
L014100020032000000
  0
VERTEX
 10
71.000000
 20
55.500000
 30
0.000000
  8
157
 62
7
  6
L014100020032000000
  0
SEQEND
  0
POLYLINE
  8
157
 62
7
  6
L014100020032000000
 70
1
 66
1
  0
VERTEX
 10
71.500000
 20
60.500000
 30
0.000000
  8
157
 62
7
  6
L014100020032000000
  0
VERTEX
 10
71.500000
 20
64.500000
 30
0.000000
  8
157
 62
7
  6
L014100020032000000
  0
VERTEX
 10
68.500000
 20
64.500000
 30
0.000000
  8
157
 62
7
  6
L014100020032000000
  0
VERTEX
 10
68.500000
 20
60.500000
 30
0.000000
  8
157
 62
7
  6
L014100020032000000
  0
SEQEND
  0
POLYLINE
  8
157
 62
7
  6
L014100020032000000
 70
1
 66
1
  0
VERTEX
 10
68.000000
 20
68.500000
 30
0.000000
  8
157
 62
7
  6
L014100020032000000
  0
VERTEX
 10
68.000000
 20
69.500000
 30
0.000000
  8
157
 62
7
  6
L014100020032000000
  0
VERTEX
 10
72.000000
 20
69.500000
 30
0.000000
  8
157
 62
7
  6
L014100020032000000
  0
VERTEX
 10
72.000000
 20
68.500000
 30
0.000000
  8
157
 62
7
  6
L014100020032000000
  0
SEQEND
  0
POLYLINE
  8
157
 62
7
  6
L014100020032000000
 70
1
 66
1
  0
VERTEX
 10
72.000000
 20
115.500000
 30
0.000000
  8
157
 62
7
  6
L014100020032000000
  0
VERTEX
 10
72.000000
 20
114.500000
 30
0.000000
  8
157
 62
7
  6
L014100020032000000
  0
VERTEX
 10
68.000000
 20
114.500000
 30
0.000000
  8
157
 62
7
  6
L014100020032000000
  0
VERTEX
 10
68.000000
 20
115.500000
 30
0.000000
  8
157
 62
7
  6
L014100020032000000
  0
SEQEND
  0
POLYLINE
  8
157
 62
7
  6
L014100020032000000
 70
1
 66
1
  0
VERTEX
 10
72.000000
 20
104.500000
 30
0.000000
  8
157
 62
7
  6
L014100020032000000
  0
VERTEX
 10
72.000000
 20
113.500000
 30
0.000000
  8
157
 62
7
  6
L014100020032000000
  0
VERTEX
 10
68.000000
 20
113.500000
 30
0.000000
  8
157
 62
7
  6
L014100020032000000
  0
VERTEX
 10
68.000000
 20
104.500000
 30
0.000000
  8
157
 62
7
  6
L014100020032000000
  0
SEQEND
  0
POLYLINE
  8
157
 62
7
  6
L014100020032000000
 70
1
 66
1
  0
VERTEX
 10
68.000000
 20
102.500000
 30
0.000000
  8
157
 62
7
  6
L014100020032000000
  0
VERTEX
 10
68.000000
 20
103.500000
 30
0.000000
  8
157
 62
7
  6
L014100020032000000
  0
VERTEX
 10
72.000000
 20
103.500000
 30
0.000000
  8
157
 62
7
  6
L014100020032000000
  0
VERTEX
 10
72.000000
 20
102.500000
 30
0.000000
  8
157
 62
7
  6
L014100020032000000
  0
SEQEND
  0
POLYLINE
  8
157
 62
7
  6
L014100020032000000
 70
1
 66
1
  0
VERTEX
 10
68.000000
 20
98.500000
 30
0.000000
  8
157
 62
7
  6
L014100020032000000
  0
VERTEX
 10
68.000000
 20
97.500000
 30
0.000000
  8
157
 62
7
  6
L014100020032000000
  0
VERTEX
 10
72.000000
 20
97.500000
 30
0.000000
  8
157
 62
7
  6
L014100020032000000
  0
VERTEX
 10
72.000000
 20
98.500000
 30
0.000000
  8
157
 62
7
  6
L014100020032000000
  0
SEQEND
  0
POLYLINE
  8
157
 62
7
  6
L014100020032000000
 70
1
 66
1
  0
VERTEX
 10
72.000000
 20
87.500000
 30
0.000000
  8
157
 62
7
  6
L014100020032000000
  0
VERTEX
 10
72.000000
 20
96.500000
 30
0.000000
  8
157
 62
7
  6
L014100020032000000
  0
VERTEX
 10
68.000000
 20
96.500000
 30
0.000000
  8
157
 62
7
  6
L014100020032000000
  0
VERTEX
 10
68.000000
 20
87.500000
 30
0.000000
  8
157
 62
7
  6
L014100020032000000
  0
SEQEND
  0
POLYLINE
  8
157
 62
7
  6
L014100020032000000
 70
1
 66
1
  0
VERTEX
 10
68.000000
 20
85.500000
 30
0.000000
  8
157
 62
7
  6
L014100020032000000
  0
VERTEX
 10
68.000000
 20
86.500000
 30
0.000000
  8
157
 62
7
  6
L014100020032000000
  0
VERTEX
 10
72.000000
 20
86.500000
 30
0.000000
  8
157
 62
7
  6
L014100020032000000
  0
VERTEX
 10
72.000000
 20
85.500000
 30
0.000000
  8
157
 62
7
  6
L014100020032000000
  0
SEQEND
  0
POLYLINE
  8
157
 62
7
  6
L014100020032000000
 70
1
 66
1
  0
VERTEX
 10
68.000000
 20
81.500000
 30
0.000000
  8
157
 62
7
  6
L014100020032000000
  0
VERTEX
 10
68.000000
 20
80.500000
 30
0.000000
  8
157
 62
7
  6
L014100020032000000
  0
VERTEX
 10
72.000000
 20
80.500000
 30
0.000000
  8
157
 62
7
  6
L014100020032000000
  0
VERTEX
 10
72.000000
 20
81.500000
 30
0.000000
  8
157
 62
7
  6
L014100020032000000
  0
SEQEND
  0
POLYLINE
  8
157
 62
7
  6
L014100020032000000
 70
1
 66
1
  0
VERTEX
 10
75.000000
 20
54.500000
 30
0.000000
  8
157
 62
7
  6
L014100020032000000
  0
VERTEX
 10
75.000000
 20
117.500000
 30
0.000000
  8
157
 62
7
  6
L014100020032000000
  0
VERTEX
 10
85.000000
 20
117.500000
 30
0.000000
  8
157
 62
7
  6
L014100020032000000
  0
VERTEX
 10
85.000000
 20
54.500000
 30
0.000000
  8
157
 62
7
  6
L014100020032000000
  0
SEQEND
  0
POLYLINE
  8
157
 62
7
  6
L014100020032000000
 70
1
 66
1
  0
VERTEX
 10
82.000000
 20
70.500000
 30
0.000000
  8
157
 62
7
  6
L014100020032000000
  0
VERTEX
 10
82.000000
 20
79.500000
 30
0.000000
  8
157
 62
7
  6
L014100020032000000
  0
VERTEX
 10
78.000000
 20
79.500000
 30
0.000000
  8
157
 62
7
  6
L014100020032000000
  0
VERTEX
 10
78.000000
 20
70.500000
 30
0.000000
  8
157
 62
7
  6
L014100020032000000
  0
SEQEND
  0
CIRCLE
  8
157
 62
7
  6
CONTINUOUS
 10
82.700000
 20
57.800000
 30
0.0
 40
0.800000
  0
CIRCLE
  8
157
 62
7
  6
CONTINUOUS
 10
80.000000
 20
62.700000
 30
0.0
 40
0.800000
  0
CIRCLE
  8
157
 62
7
  6
CONTINUOUS
 10
77.300000
 20
57.800000
 30
0.0
 40
0.800000
  0
POLYLINE
  8
157
 62
7
  6
L014100020032000000
 70
1
 66
1
  0
VERTEX
 10
79.000000
 20
55.500000
 30
0.000000
  8
157
 62
7
  6
L014100020032000000
  0
VERTEX
 10
79.000000
 20
59.500000
 30
0.000000
  8
157
 62
7
  6
L014100020032000000
  0
VERTEX
 10
76.000000
 20
59.500000
 30
0.000000
  8
157
 62
7
  6
L014100020032000000
  0
VERTEX
 10
76.000000
 20
55.500000
 30
0.000000
  8
157
 62
7
  6
L014100020032000000
  0
SEQEND
  0
POLYLINE
  8
157
 62
7
  6
L014100020032000000
 70
1
 66
1
  0
VERTEX
 10
84.000000
 20
55.500000
 30
0.000000
  8
157
 62
7
  6
L014100020032000000
  0
VERTEX
 10
84.000000
 20
59.500000
 30
0.000000
  8
157
 62
7
  6
L014100020032000000
  0
VERTEX
 10
81.000000
 20
59.500000
 30
0.000000
  8
157
 62
7
  6
L014100020032000000
  0
VERTEX
 10
81.000000
 20
55.500000
 30
0.000000
  8
157
 62
7
  6
L014100020032000000
  0
SEQEND
  0
POLYLINE
  8
157
 62
7
  6
L014100020032000000
 70
1
 66
1
  0
VERTEX
 10
81.500000
 20
60.500000
 30
0.000000
  8
157
 62
7
  6
L014100020032000000
  0
VERTEX
 10
81.500000
 20
64.500000
 30
0.000000
  8
157
 62
7
  6
L014100020032000000
  0
VERTEX
 10
78.500000
 20
64.500000
 30
0.000000
  8
157
 62
7
  6
L014100020032000000
  0
VERTEX
 10
78.500000
 20
60.500000
 30
0.000000
  8
157
 62
7
  6
L014100020032000000
  0
SEQEND
  0
POLYLINE
  8
157
 62
7
  6
L014100020032000000
 70
1
 66
1
  0
VERTEX
 10
78.000000
 20
68.500000
 30
0.000000
  8
157
 62
7
  6
L014100020032000000
  0
VERTEX
 10
78.000000
 20
69.500000
 30
0.000000
  8
157
 62
7
  6
L014100020032000000
  0
VERTEX
 10
82.000000
 20
69.500000
 30
0.000000
  8
157
 62
7
  6
L014100020032000000
  0
VERTEX
 10
82.000000
 20
68.500000
 30
0.000000
  8
157
 62
7
  6
L014100020032000000
  0
SEQEND
  0
POLYLINE
  8
157
 62
7
  6
L014100020032000000
 70
1
 66
1
  0
VERTEX
 10
82.000000
 20
115.500000
 30
0.000000
  8
157
 62
7
  6
L014100020032000000
  0
VERTEX
 10
82.000000
 20
114.500000
 30
0.000000
  8
157
 62
7
  6
L014100020032000000
  0
VERTEX
 10
78.000000
 20
114.500000
 30
0.000000
  8
157
 62
7
  6
L014100020032000000
  0
VERTEX
 10
78.000000
 20
115.500000
 30
0.000000
  8
157
 62
7
  6
L014100020032000000
  0
SEQEND
  0
POLYLINE
  8
157
 62
7
  6
L014100020032000000
 70
1
 66
1
  0
VERTEX
 10
82.000000
 20
104.500000
 30
0.000000
  8
157
 62
7
  6
L014100020032000000
  0
VERTEX
 10
82.000000
 20
113.500000
 30
0.000000
  8
157
 62
7
  6
L014100020032000000
  0
VERTEX
 10
78.000000
 20
113.500000
 30
0.000000
  8
157
 62
7
  6
L014100020032000000
  0
VERTEX
 10
78.000000
 20
104.500000
 30
0.000000
  8
157
 62
7
  6
L014100020032000000
  0
SEQEND
  0
POLYLINE
  8
157
 62
7
  6
L014100020032000000
 70
1
 66
1
  0
VERTEX
 10
78.000000
 20
102.500000
 30
0.000000
  8
157
 62
7
  6
L014100020032000000
  0
VERTEX
 10
78.000000
 20
103.500000
 30
0.000000
  8
157
 62
7
  6
L014100020032000000
  0
VERTEX
 10
82.000000
 20
103.500000
 30
0.000000
  8
157
 62
7
  6
L014100020032000000
  0
VERTEX
 10
82.000000
 20
102.500000
 30
0.000000
  8
157
 62
7
  6
L014100020032000000
  0
SEQEND
  0
POLYLINE
  8
157
 62
7
  6
L014100020032000000
 70
1
 66
1
  0
VERTEX
 10
78.000000
 20
98.500000
 30
0.000000
  8
157
 62
7
  6
L014100020032000000
  0
VERTEX
 10
78.000000
 20
97.500000
 30
0.000000
  8
157
 62
7
  6
L014100020032000000
  0
VERTEX
 10
82.000000
 20
97.500000
 30
0.000000
  8
157
 62
7
  6
L014100020032000000
  0
VERTEX
 10
82.000000
 20
98.500000
 30
0.000000
  8
157
 62
7
  6
L014100020032000000
  0
SEQEND
  0
POLYLINE
  8
157
 62
7
  6
L014100020032000000
 70
1
 66
1
  0
VERTEX
 10
82.000000
 20
87.500000
 30
0.000000
  8
157
 62
7
  6
L014100020032000000
  0
VERTEX
 10
82.000000
 20
96.500000
 30
0.000000
  8
157
 62
7
  6
L014100020032000000
  0
VERTEX
 10
78.000000
 20
96.500000
 30
0.000000
  8
157
 62
7
  6
L014100020032000000
  0
VERTEX
 10
78.000000
 20
87.500000
 30
0.000000
  8
157
 62
7
  6
L014100020032000000
  0
SEQEND
  0
POLYLINE
  8
157
 62
7
  6
L014100020032000000
 70
1
 66
1
  0
VERTEX
 10
78.000000
 20
85.500000
 30
0.000000
  8
157
 62
7
  6
L014100020032000000
  0
VERTEX
 10
78.000000
 20
86.500000
 30
0.000000
  8
157
 62
7
  6
L014100020032000000
  0
VERTEX
 10
82.000000
 20
86.500000
 30
0.000000
  8
157
 62
7
  6
L014100020032000000
  0
VERTEX
 10
82.000000
 20
85.500000
 30
0.000000
  8
157
 62
7
  6
L014100020032000000
  0
SEQEND
  0
POLYLINE
  8
157
 62
7
  6
L014100020032000000
 70
1
 66
1
  0
VERTEX
 10
78.000000
 20
81.500000
 30
0.000000
  8
157
 62
7
  6
L014100020032000000
  0
VERTEX
 10
78.000000
 20
80.500000
 30
0.000000
  8
157
 62
7
  6
L014100020032000000
  0
VERTEX
 10
82.000000
 20
80.500000
 30
0.000000
  8
157
 62
7
  6
L014100020032000000
  0
VERTEX
 10
82.000000
 20
81.500000
 30
0.000000
  8
157
 62
7
  6
L014100020032000000
  0
SEQEND
  0
POLYLINE
  8
157
 62
7
  6
L014100020032000000
 70
1
 66
1
  0
VERTEX
 10
35.000000
 20
54.500000
 30
0.000000
  8
157
 62
7
  6
L014100020032000000
  0
VERTEX
 10
35.000000
 20
117.500000
 30
0.000000
  8
157
 62
7
  6
L014100020032000000
  0
VERTEX
 10
45.000000
 20
117.500000
 30
0.000000
  8
157
 62
7
  6
L014100020032000000
  0
VERTEX
 10
45.000000
 20
54.500000
 30
0.000000
  8
157
 62
7
  6
L014100020032000000
  0
SEQEND
  0
POLYLINE
  8
157
 62
7
  6
L014100020032000000
 70
1
 66
1
  0
VERTEX
 10
42.000000
 20
70.500000
 30
0.000000
  8
157
 62
7
  6
L014100020032000000
  0
VERTEX
 10
42.000000
 20
79.500000
 30
0.000000
  8
157
 62
7
  6
L014100020032000000
  0
VERTEX
 10
38.000000
 20
79.500000
 30
0.000000
  8
157
 62
7
  6
L014100020032000000
  0
VERTEX
 10
38.000000
 20
70.500000
 30
0.000000
  8
157
 62
7
  6
L014100020032000000
  0
SEQEND
  0
CIRCLE
  8
157
 62
7
  6
CONTINUOUS
 10
42.700000
 20
57.800000
 30
0.0
 40
0.800000
  0
CIRCLE
  8
157
 62
7
  6
CONTINUOUS
 10
40.000000
 20
62.700000
 30
0.0
 40
0.800000
  0
CIRCLE
  8
157
 62
7
  6
CONTINUOUS
 10
37.300000
 20
57.800000
 30
0.0
 40
0.800000
  0
POLYLINE
  8
157
 62
7
  6
L014100020032000000
 70
1
 66
1
  0
VERTEX
 10
39.000000
 20
55.500000
 30
0.000000
  8
157
 62
7
  6
L014100020032000000
  0
VERTEX
 10
39.000000
 20
59.500000
 30
0.000000
  8
157
 62
7
  6
L014100020032000000
  0
VERTEX
 10
36.000000
 20
59.500000
 30
0.000000
  8
157
 62
7
  6
L014100020032000000
  0
VERTEX
 10
36.000000
 20
55.500000
 30
0.000000
  8
157
 62
7
  6
L014100020032000000
  0
SEQEND
  0
POLYLINE
  8
157
 62
7
  6
L014100020032000000
 70
1
 66
1
  0
VERTEX
 10
44.000000
 20
55.500000
 30
0.000000
  8
157
 62
7
  6
L014100020032000000
  0
VERTEX
 10
44.000000
 20
59.500000
 30
0.000000
  8
157
 62
7
  6
L014100020032000000
  0
VERTEX
 10
41.000000
 20
59.500000
 30
0.000000
  8
157
 62
7
  6
L014100020032000000
  0
VERTEX
 10
41.000000
 20
55.500000
 30
0.000000
  8
157
 62
7
  6
L014100020032000000
  0
SEQEND
  0
POLYLINE
  8
157
 62
7
  6
L014100020032000000
 70
1
 66
1
  0
VERTEX
 10
41.500000
 20
60.500000
 30
0.000000
  8
157
 62
7
  6
L014100020032000000
  0
VERTEX
 10
41.500000
 20
64.500000
 30
0.000000
  8
157
 62
7
  6
L014100020032000000
  0
VERTEX
 10
38.500000
 20
64.500000
 30
0.000000
  8
157
 62
7
  6
L014100020032000000
  0
VERTEX
 10
38.500000
 20
60.500000
 30
0.000000
  8
157
 62
7
  6
L014100020032000000
  0
SEQEND
  0
POLYLINE
  8
157
 62
7
  6
L014100020032000000
 70
1
 66
1
  0
VERTEX
 10
38.000000
 20
68.500000
 30
0.000000
  8
157
 62
7
  6
L014100020032000000
  0
VERTEX
 10
38.000000
 20
69.500000
 30
0.000000
  8
157
 62
7
  6
L014100020032000000
  0
VERTEX
 10
42.000000
 20
69.500000
 30
0.000000
  8
157
 62
7
  6
L014100020032000000
  0
VERTEX
 10
42.000000
 20
68.500000
 30
0.000000
  8
157
 62
7
  6
L014100020032000000
  0
SEQEND
  0
POLYLINE
  8
157
 62
7
  6
L014100020032000000
 70
1
 66
1
  0
VERTEX
 10
42.000000
 20
115.500000
 30
0.000000
  8
157
 62
7
  6
L014100020032000000
  0
VERTEX
 10
42.000000
 20
114.500000
 30
0.000000
  8
157
 62
7
  6
L014100020032000000
  0
VERTEX
 10
38.000000
 20
114.500000
 30
0.000000
  8
157
 62
7
  6
L014100020032000000
  0
VERTEX
 10
38.000000
 20
115.500000
 30
0.000000
  8
157
 62
7
  6
L014100020032000000
  0
SEQEND
  0
POLYLINE
  8
157
 62
7
  6
L014100020032000000
 70
1
 66
1
  0
VERTEX
 10
42.000000
 20
104.500000
 30
0.000000
  8
157
 62
7
  6
L014100020032000000
  0
VERTEX
 10
42.000000
 20
113.500000
 30
0.000000
  8
157
 62
7
  6
L014100020032000000
  0
VERTEX
 10
38.000000
 20
113.500000
 30
0.000000
  8
157
 62
7
  6
L014100020032000000
  0
VERTEX
 10
38.000000
 20
104.500000
 30
0.000000
  8
157
 62
7
  6
L014100020032000000
  0
SEQEND
  0
POLYLINE
  8
157
 62
7
  6
L014100020032000000
 70
1
 66
1
  0
VERTEX
 10
38.000000
 20
102.500000
 30
0.000000
  8
157
 62
7
  6
L014100020032000000
  0
VERTEX
 10
38.000000
 20
103.500000
 30
0.000000
  8
157
 62
7
  6
L014100020032000000
  0
VERTEX
 10
42.000000
 20
103.500000
 30
0.000000
  8
157
 62
7
  6
L014100020032000000
  0
VERTEX
 10
42.000000
 20
102.500000
 30
0.000000
  8
157
 62
7
  6
L014100020032000000
  0
SEQEND
  0
POLYLINE
  8
157
 62
7
  6
L014100020032000000
 70
1
 66
1
  0
VERTEX
 10
38.000000
 20
98.500000
 30
0.000000
  8
157
 62
7
  6
L014100020032000000
  0
VERTEX
 10
38.000000
 20
97.500000
 30
0.000000
  8
157
 62
7
  6
L014100020032000000
  0
VERTEX
 10
42.000000
 20
97.500000
 30
0.000000
  8
157
 62
7
  6
L014100020032000000
  0
VERTEX
 10
42.000000
 20
98.500000
 30
0.000000
  8
157
 62
7
  6
L014100020032000000
  0
SEQEND
  0
POLYLINE
  8
157
 62
7
  6
L014100020032000000
 70
1
 66
1
  0
VERTEX
 10
42.000000
 20
87.500000
 30
0.000000
  8
157
 62
7
  6
L014100020032000000
  0
VERTEX
 10
42.000000
 20
96.500000
 30
0.000000
  8
157
 62
7
  6
L014100020032000000
  0
VERTEX
 10
38.000000
 20
96.500000
 30
0.000000
  8
157
 62
7
  6
L014100020032000000
  0
VERTEX
 10
38.000000
 20
87.500000
 30
0.000000
  8
157
 62
7
  6
L014100020032000000
  0
SEQEND
  0
POLYLINE
  8
157
 62
7
  6
L014100020032000000
 70
1
 66
1
  0
VERTEX
 10
38.000000
 20
85.500000
 30
0.000000
  8
157
 62
7
  6
L014100020032000000
  0
VERTEX
 10
38.000000
 20
86.500000
 30
0.000000
  8
157
 62
7
  6
L014100020032000000
  0
VERTEX
 10
42.000000
 20
86.500000
 30
0.000000
  8
157
 62
7
  6
L014100020032000000
  0
VERTEX
 10
42.000000
 20
85.500000
 30
0.000000
  8
157
 62
7
  6
L014100020032000000
  0
SEQEND
  0
POLYLINE
  8
157
 62
7
  6
L014100020032000000
 70
1
 66
1
  0
VERTEX
 10
38.000000
 20
81.500000
 30
0.000000
  8
157
 62
7
  6
L014100020032000000
  0
VERTEX
 10
38.000000
 20
80.500000
 30
0.000000
  8
157
 62
7
  6
L014100020032000000
  0
VERTEX
 10
42.000000
 20
80.500000
 30
0.000000
  8
157
 62
7
  6
L014100020032000000
  0
VERTEX
 10
42.000000
 20
81.500000
 30
0.000000
  8
157
 62
7
  6
L014100020032000000
  0
SEQEND
  0
POLYLINE
  8
157
 62
7
  6
L014100020032000000
 70
1
 66
1
  0
VERTEX
 10
45.000000
 20
54.500000
 30
0.000000
  8
157
 62
7
  6
L014100020032000000
  0
VERTEX
 10
45.000000
 20
117.500000
 30
0.000000
  8
157
 62
7
  6
L014100020032000000
  0
VERTEX
 10
55.000000
 20
117.500000
 30
0.000000
  8
157
 62
7
  6
L014100020032000000
  0
VERTEX
 10
55.000000
 20
54.500000
 30
0.000000
  8
157
 62
7
  6
L014100020032000000
  0
SEQEND
  0
POLYLINE
  8
157
 62
7
  6
L014100020032000000
 70
1
 66
1
  0
VERTEX
 10
52.000000
 20
70.500000
 30
0.000000
  8
157
 62
7
  6
L014100020032000000
  0
VERTEX
 10
52.000000
 20
79.500000
 30
0.000000
  8
157
 62
7
  6
L014100020032000000
  0
VERTEX
 10
48.000000
 20
79.500000
 30
0.000000
  8
157
 62
7
  6
L014100020032000000
  0
VERTEX
 10
48.000000
 20
70.500000
 30
0.000000
  8
157
 62
7
  6
L014100020032000000
  0
SEQEND
  0
CIRCLE
  8
157
 62
7
  6
CONTINUOUS
 10
52.700000
 20
57.800000
 30
0.0
 40
0.800000
  0
CIRCLE
  8
157
 62
7
  6
CONTINUOUS
 10
50.000000
 20
62.700000
 30
0.0
 40
0.800000
  0
CIRCLE
  8
157
 62
7
  6
CONTINUOUS
 10
47.300000
 20
57.800000
 30
0.0
 40
0.800000
  0
POLYLINE
  8
157
 62
7
  6
L014100020032000000
 70
1
 66
1
  0
VERTEX
 10
49.000000
 20
55.500000
 30
0.000000
  8
157
 62
7
  6
L014100020032000000
  0
VERTEX
 10
49.000000
 20
59.500000
 30
0.000000
  8
157
 62
7
  6
L014100020032000000
  0
VERTEX
 10
46.000000
 20
59.500000
 30
0.000000
  8
157
 62
7
  6
L014100020032000000
  0
VERTEX
 10
46.000000
 20
55.500000
 30
0.000000
  8
157
 62
7
  6
L014100020032000000
  0
SEQEND
  0
POLYLINE
  8
157
 62
7
  6
L014100020032000000
 70
1
 66
1
  0
VERTEX
 10
54.000000
 20
55.500000
 30
0.000000
  8
157
 62
7
  6
L014100020032000000
  0
VERTEX
 10
54.000000
 20
59.500000
 30
0.000000
  8
157
 62
7
  6
L014100020032000000
  0
VERTEX
 10
51.000000
 20
59.500000
 30
0.000000
  8
157
 62
7
  6
L014100020032000000
  0
VERTEX
 10
51.000000
 20
55.500000
 30
0.000000
  8
157
 62
7
  6
L014100020032000000
  0
SEQEND
  0
POLYLINE
  8
157
 62
7
  6
L014100020032000000
 70
1
 66
1
  0
VERTEX
 10
51.500000
 20
60.500000
 30
0.000000
  8
157
 62
7
  6
L014100020032000000
  0
VERTEX
 10
51.500000
 20
64.500000
 30
0.000000
  8
157
 62
7
  6
L014100020032000000
  0
VERTEX
 10
48.500000
 20
64.500000
 30
0.000000
  8
157
 62
7
  6
L014100020032000000
  0
VERTEX
 10
48.500000
 20
60.500000
 30
0.000000
  8
157
 62
7
  6
L014100020032000000
  0
SEQEND
  0
POLYLINE
  8
157
 62
7
  6
L014100020032000000
 70
1
 66
1
  0
VERTEX
 10
48.000000
 20
68.500000
 30
0.000000
  8
157
 62
7
  6
L014100020032000000
  0
VERTEX
 10
48.000000
 20
69.500000
 30
0.000000
  8
157
 62
7
  6
L014100020032000000
  0
VERTEX
 10
52.000000
 20
69.500000
 30
0.000000
  8
157
 62
7
  6
L014100020032000000
  0
VERTEX
 10
52.000000
 20
68.500000
 30
0.000000
  8
157
 62
7
  6
L014100020032000000
  0
SEQEND
  0
POLYLINE
  8
157
 62
7
  6
L014100020032000000
 70
1
 66
1
  0
VERTEX
 10
52.000000
 20
115.500000
 30
0.000000
  8
157
 62
7
  6
L014100020032000000
  0
VERTEX
 10
52.000000
 20
114.500000
 30
0.000000
  8
157
 62
7
  6
L014100020032000000
  0
VERTEX
 10
48.000000
 20
114.500000
 30
0.000000
  8
157
 62
7
  6
L014100020032000000
  0
VERTEX
 10
48.000000
 20
115.500000
 30
0.000000
  8
157
 62
7
  6
L014100020032000000
  0
SEQEND
  0
POLYLINE
  8
157
 62
7
  6
L014100020032000000
 70
1
 66
1
  0
VERTEX
 10
52.000000
 20
104.500000
 30
0.000000
  8
157
 62
7
  6
L014100020032000000
  0
VERTEX
 10
52.000000
 20
113.500000
 30
0.000000
  8
157
 62
7
  6
L014100020032000000
  0
VERTEX
 10
48.000000
 20
113.500000
 30
0.000000
  8
157
 62
7
  6
L014100020032000000
  0
VERTEX
 10
48.000000
 20
104.500000
 30
0.000000
  8
157
 62
7
  6
L014100020032000000
  0
SEQEND
  0
POLYLINE
  8
157
 62
7
  6
L014100020032000000
 70
1
 66
1
  0
VERTEX
 10
48.000000
 20
102.500000
 30
0.000000
  8
157
 62
7
  6
L014100020032000000
  0
VERTEX
 10
48.000000
 20
103.500000
 30
0.000000
  8
157
 62
7
  6
L014100020032000000
  0
VERTEX
 10
52.000000
 20
103.500000
 30
0.000000
  8
157
 62
7
  6
L014100020032000000
  0
VERTEX
 10
52.000000
 20
102.500000
 30
0.000000
  8
157
 62
7
  6
L014100020032000000
  0
SEQEND
  0
POLYLINE
  8
157
 62
7
  6
L014100020032000000
 70
1
 66
1
  0
VERTEX
 10
48.000000
 20
98.500000
 30
0.000000
  8
157
 62
7
  6
L014100020032000000
  0
VERTEX
 10
48.000000
 20
97.500000
 30
0.000000
  8
157
 62
7
  6
L014100020032000000
  0
VERTEX
 10
52.000000
 20
97.500000
 30
0.000000
  8
157
 62
7
  6
L014100020032000000
  0
VERTEX
 10
52.000000
 20
98.500000
 30
0.000000
  8
157
 62
7
  6
L014100020032000000
  0
SEQEND
  0
POLYLINE
  8
157
 62
7
  6
L014100020032000000
 70
1
 66
1
  0
VERTEX
 10
52.000000
 20
87.500000
 30
0.000000
  8
157
 62
7
  6
L014100020032000000
  0
VERTEX
 10
52.000000
 20
96.500000
 30
0.000000
  8
157
 62
7
  6
L014100020032000000
  0
VERTEX
 10
48.000000
 20
96.500000
 30
0.000000
  8
157
 62
7
  6
L014100020032000000
  0
VERTEX
 10
48.000000
 20
87.500000
 30
0.000000
  8
157
 62
7
  6
L014100020032000000
  0
SEQEND
  0
POLYLINE
  8
157
 62
7
  6
L014100020032000000
 70
1
 66
1
  0
VERTEX
 10
48.000000
 20
85.500000
 30
0.000000
  8
157
 62
7
  6
L014100020032000000
  0
VERTEX
 10
48.000000
 20
86.500000
 30
0.000000
  8
157
 62
7
  6
L014100020032000000
  0
VERTEX
 10
52.000000
 20
86.500000
 30
0.000000
  8
157
 62
7
  6
L014100020032000000
  0
VERTEX
 10
52.000000
 20
85.500000
 30
0.000000
  8
157
 62
7
  6
L014100020032000000
  0
SEQEND
  0
POLYLINE
  8
157
 62
7
  6
L014100020032000000
 70
1
 66
1
  0
VERTEX
 10
48.000000
 20
81.500000
 30
0.000000
  8
157
 62
7
  6
L014100020032000000
  0
VERTEX
 10
48.000000
 20
80.500000
 30
0.000000
  8
157
 62
7
  6
L014100020032000000
  0
VERTEX
 10
52.000000
 20
80.500000
 30
0.000000
  8
157
 62
7
  6
L014100020032000000
  0
VERTEX
 10
52.000000
 20
81.500000
 30
0.000000
  8
157
 62
7
  6
L014100020032000000
  0
SEQEND
  0
POLYLINE
  8
157
 62
7
  6
L014100020032000000
 70
1
 66
1
  0
VERTEX
 10
55.000000
 20
54.500000
 30
0.000000
  8
157
 62
7
  6
L014100020032000000
  0
VERTEX
 10
55.000000
 20
117.500000
 30
0.000000
  8
157
 62
7
  6
L014100020032000000
  0
VERTEX
 10
65.000000
 20
117.500000
 30
0.000000
  8
157
 62
7
  6
L014100020032000000
  0
VERTEX
 10
65.000000
 20
54.500000
 30
0.000000
  8
157
 62
7
  6
L014100020032000000
  0
SEQEND
  0
POLYLINE
  8
157
 62
7
  6
L014100020032000000
 70
1
 66
1
  0
VERTEX
 10
62.000000
 20
70.500000
 30
0.000000
  8
157
 62
7
  6
L014100020032000000
  0
VERTEX
 10
62.000000
 20
79.500000
 30
0.000000
  8
157
 62
7
  6
L014100020032000000
  0
VERTEX
 10
58.000000
 20
79.500000
 30
0.000000
  8
157
 62
7
  6
L014100020032000000
  0
VERTEX
 10
58.000000
 20
70.500000
 30
0.000000
  8
157
 62
7
  6
L014100020032000000
  0
SEQEND
  0
CIRCLE
  8
157
 62
7
  6
CONTINUOUS
 10
62.700000
 20
57.800000
 30
0.0
 40
0.800000
  0
CIRCLE
  8
157
 62
7
  6
CONTINUOUS
 10
60.000000
 20
62.700000
 30
0.0
 40
0.800000
  0
CIRCLE
  8
157
 62
7
  6
CONTINUOUS
 10
57.300000
 20
57.800000
 30
0.0
 40
0.800000
  0
POLYLINE
  8
157
 62
7
  6
L014100020032000000
 70
1
 66
1
  0
VERTEX
 10
59.000000
 20
55.500000
 30
0.000000
  8
157
 62
7
  6
L014100020032000000
  0
VERTEX
 10
59.000000
 20
59.500000
 30
0.000000
  8
157
 62
7
  6
L014100020032000000
  0
VERTEX
 10
56.000000
 20
59.500000
 30
0.000000
  8
157
 62
7
  6
L014100020032000000
  0
VERTEX
 10
56.000000
 20
55.500000
 30
0.000000
  8
157
 62
7
  6
L014100020032000000
  0
SEQEND
  0
POLYLINE
  8
157
 62
7
  6
L014100020032000000
 70
1
 66
1
  0
VERTEX
 10
64.000000
 20
55.500000
 30
0.000000
  8
157
 62
7
  6
L014100020032000000
  0
VERTEX
 10
64.000000
 20
59.500000
 30
0.000000
  8
157
 62
7
  6
L014100020032000000
  0
VERTEX
 10
61.000000
 20
59.500000
 30
0.000000
  8
157
 62
7
  6
L014100020032000000
  0
VERTEX
 10
61.000000
 20
55.500000
 30
0.000000
  8
157
 62
7
  6
L014100020032000000
  0
SEQEND
  0
POLYLINE
  8
157
 62
7
  6
L014100020032000000
 70
1
 66
1
  0
VERTEX
 10
61.500000
 20
60.500000
 30
0.000000
  8
157
 62
7
  6
L014100020032000000
  0
VERTEX
 10
61.500000
 20
64.500000
 30
0.000000
  8
157
 62
7
  6
L014100020032000000
  0
VERTEX
 10
58.500000
 20
64.500000
 30
0.000000
  8
157
 62
7
  6
L014100020032000000
  0
VERTEX
 10
58.500000
 20
60.500000
 30
0.000000
  8
157
 62
7
  6
L014100020032000000
  0
SEQEND
  0
POLYLINE
  8
157
 62
7
  6
L014100020032000000
 70
1
 66
1
  0
VERTEX
 10
58.000000
 20
68.500000
 30
0.000000
  8
157
 62
7
  6
L014100020032000000
  0
VERTEX
 10
58.000000
 20
69.500000
 30
0.000000
  8
157
 62
7
  6
L014100020032000000
  0
VERTEX
 10
62.000000
 20
69.500000
 30
0.000000
  8
157
 62
7
  6
L014100020032000000
  0
VERTEX
 10
62.000000
 20
68.500000
 30
0.000000
  8
157
 62
7
  6
L014100020032000000
  0
SEQEND
  0
POLYLINE
  8
157
 62
7
  6
L014100020032000000
 70
1
 66
1
  0
VERTEX
 10
62.000000
 20
115.500000
 30
0.000000
  8
157
 62
7
  6
L014100020032000000
  0
VERTEX
 10
62.000000
 20
114.500000
 30
0.000000
  8
157
 62
7
  6
L014100020032000000
  0
VERTEX
 10
58.000000
 20
114.500000
 30
0.000000
  8
157
 62
7
  6
L014100020032000000
  0
VERTEX
 10
58.000000
 20
115.500000
 30
0.000000
  8
157
 62
7
  6
L014100020032000000
  0
SEQEND
  0
POLYLINE
  8
157
 62
7
  6
L014100020032000000
 70
1
 66
1
  0
VERTEX
 10
62.000000
 20
104.500000
 30
0.000000
  8
157
 62
7
  6
L014100020032000000
  0
VERTEX
 10
62.000000
 20
113.500000
 30
0.000000
  8
157
 62
7
  6
L014100020032000000
  0
VERTEX
 10
58.000000
 20
113.500000
 30
0.000000
  8
157
 62
7
  6
L014100020032000000
  0
VERTEX
 10
58.000000
 20
104.500000
 30
0.000000
  8
157
 62
7
  6
L014100020032000000
  0
SEQEND
  0
POLYLINE
  8
157
 62
7
  6
L014100020032000000
 70
1
 66
1
  0
VERTEX
 10
58.000000
 20
102.500000
 30
0.000000
  8
157
 62
7
  6
L014100020032000000
  0
VERTEX
 10
58.000000
 20
103.500000
 30
0.000000
  8
157
 62
7
  6
L014100020032000000
  0
VERTEX
 10
62.000000
 20
103.500000
 30
0.000000
  8
157
 62
7
  6
L014100020032000000
  0
VERTEX
 10
62.000000
 20
102.500000
 30
0.000000
  8
157
 62
7
  6
L014100020032000000
  0
SEQEND
  0
POLYLINE
  8
157
 62
7
  6
L014100020032000000
 70
1
 66
1
  0
VERTEX
 10
58.000000
 20
98.500000
 30
0.000000
  8
157
 62
7
  6
L014100020032000000
  0
VERTEX
 10
58.000000
 20
97.500000
 30
0.000000
  8
157
 62
7
  6
L014100020032000000
  0
VERTEX
 10
62.000000
 20
97.500000
 30
0.000000
  8
157
 62
7
  6
L014100020032000000
  0
VERTEX
 10
62.000000
 20
98.500000
 30
0.000000
  8
157
 62
7
  6
L014100020032000000
  0
SEQEND
  0
POLYLINE
  8
157
 62
7
  6
L014100020032000000
 70
1
 66
1
  0
VERTEX
 10
62.000000
 20
87.500000
 30
0.000000
  8
157
 62
7
  6
L014100020032000000
  0
VERTEX
 10
62.000000
 20
96.500000
 30
0.000000
  8
157
 62
7
  6
L014100020032000000
  0
VERTEX
 10
58.000000
 20
96.500000
 30
0.000000
  8
157
 62
7
  6
L014100020032000000
  0
VERTEX
 10
58.000000
 20
87.500000
 30
0.000000
  8
157
 62
7
  6
L014100020032000000
  0
SEQEND
  0
POLYLINE
  8
157
 62
7
  6
L014100020032000000
 70
1
 66
1
  0
VERTEX
 10
58.000000
 20
85.500000
 30
0.000000
  8
157
 62
7
  6
L014100020032000000
  0
VERTEX
 10
58.000000
 20
86.500000
 30
0.000000
  8
157
 62
7
  6
L014100020032000000
  0
VERTEX
 10
62.000000
 20
86.500000
 30
0.000000
  8
157
 62
7
  6
L014100020032000000
  0
VERTEX
 10
62.000000
 20
85.500000
 30
0.000000
  8
157
 62
7
  6
L014100020032000000
  0
SEQEND
  0
POLYLINE
  8
157
 62
7
  6
L014100020032000000
 70
1
 66
1
  0
VERTEX
 10
58.000000
 20
81.500000
 30
0.000000
  8
157
 62
7
  6
L014100020032000000
  0
VERTEX
 10
58.000000
 20
80.500000
 30
0.000000
  8
157
 62
7
  6
L014100020032000000
  0
VERTEX
 10
62.000000
 20
80.500000
 30
0.000000
  8
157
 62
7
  6
L014100020032000000
  0
VERTEX
 10
62.000000
 20
81.500000
 30
0.000000
  8
157
 62
7
  6
L014100020032000000
  0
SEQEND
  0
CIRCLE
  8
157
 62
7
  6
CONTINUOUS
 10
37.300000
 20
57.800000
 30
0.0
 40
0.800000
  0
POLYLINE
  8
157
 62
7
  6
L014100020032000000
 70
1
 66
1
  0
VERTEX
 10
39.000000
 20
55.500000
 30
0.000000
  8
157
 62
7
  6
L014100020032000000
  0
VERTEX
 10
39.000000
 20
59.500000
 30
0.000000
  8
157
 62
7
  6
L014100020032000000
  0
VERTEX
 10
36.000000
 20
59.500000
 30
0.000000
  8
157
 62
7
  6
L014100020032000000
  0
VERTEX
 10
36.000000
 20
55.500000
 30
0.000000
  8
157
 62
7
  6
L014100020032000000
  0
SEQEND
  0
POLYLINE
  8
157
 62
7
  6
L014100020032000000
 70
1
 66
1
  0
VERTEX
 10
5.000000
 20
54.500000
 30
0.000000
  8
157
 62
7
  6
L014100020032000000
  0
VERTEX
 10
5.000000
 20
117.500000
 30
0.000000
  8
157
 62
7
  6
L014100020032000000
  0
VERTEX
 10
15.000000
 20
117.500000
 30
0.000000
  8
157
 62
7
  6
L014100020032000000
  0
VERTEX
 10
15.000000
 20
54.500000
 30
0.000000
  8
157
 62
7
  6
L014100020032000000
  0
SEQEND
  0
POLYLINE
  8
157
 62
7
  6
L014100020032000000
 70
1
 66
1
  0
VERTEX
 10
12.000000
 20
70.500000
 30
0.000000
  8
157
 62
7
  6
L014100020032000000
  0
VERTEX
 10
12.000000
 20
79.500000
 30
0.000000
  8
157
 62
7
  6
L014100020032000000
  0
VERTEX
 10
8.000000
 20
79.500000
 30
0.000000
  8
157
 62
7
  6
L014100020032000000
  0
VERTEX
 10
8.000000
 20
70.500000
 30
0.000000
  8
157
 62
7
  6
L014100020032000000
  0
SEQEND
  0
CIRCLE
  8
157
 62
7
  6
CONTINUOUS
 10
12.700000
 20
57.800000
 30
0.0
 40
0.800000
  0
CIRCLE
  8
157
 62
7
  6
CONTINUOUS
 10
10.000000
 20
62.700000
 30
0.0
 40
0.800000
  0
CIRCLE
  8
157
 62
7
  6
CONTINUOUS
 10
7.300000
 20
57.800000
 30
0.0
 40
0.800000
  0
POLYLINE
  8
157
 62
7
  6
L014100020032000000
 70
1
 66
1
  0
VERTEX
 10
9.000000
 20
55.500000
 30
0.000000
  8
157
 62
7
  6
L014100020032000000
  0
VERTEX
 10
9.000000
 20
59.500000
 30
0.000000
  8
157
 62
7
  6
L014100020032000000
  0
VERTEX
 10
6.000000
 20
59.500000
 30
0.000000
  8
157
 62
7
  6
L014100020032000000
  0
VERTEX
 10
6.000000
 20
55.500000
 30
0.000000
  8
157
 62
7
  6
L014100020032000000
  0
SEQEND
  0
POLYLINE
  8
157
 62
7
  6
L014100020032000000
 70
1
 66
1
  0
VERTEX
 10
14.000000
 20
55.500000
 30
0.000000
  8
157
 62
7
  6
L014100020032000000
  0
VERTEX
 10
14.000000
 20
59.500000
 30
0.000000
  8
157
 62
7
  6
L014100020032000000
  0
VERTEX
 10
11.000000
 20
59.500000
 30
0.000000
  8
157
 62
7
  6
L014100020032000000
  0
VERTEX
 10
11.000000
 20
55.500000
 30
0.000000
  8
157
 62
7
  6
L014100020032000000
  0
SEQEND
  0
POLYLINE
  8
157
 62
7
  6
L014100020032000000
 70
1
 66
1
  0
VERTEX
 10
11.500000
 20
60.500000
 30
0.000000
  8
157
 62
7
  6
L014100020032000000
  0
VERTEX
 10
11.500000
 20
64.500000
 30
0.000000
  8
157
 62
7
  6
L014100020032000000
  0
VERTEX
 10
8.500000
 20
64.500000
 30
0.000000
  8
157
 62
7
  6
L014100020032000000
  0
VERTEX
 10
8.500000
 20
60.500000
 30
0.000000
  8
157
 62
7
  6
L014100020032000000
  0
SEQEND
  0
POLYLINE
  8
157
 62
7
  6
L014100020032000000
 70
1
 66
1
  0
VERTEX
 10
8.000000
 20
68.500000
 30
0.000000
  8
157
 62
7
  6
L014100020032000000
  0
VERTEX
 10
8.000000
 20
69.500000
 30
0.000000
  8
157
 62
7
  6
L014100020032000000
  0
VERTEX
 10
12.000000
 20
69.500000
 30
0.000000
  8
157
 62
7
  6
L014100020032000000
  0
VERTEX
 10
12.000000
 20
68.500000
 30
0.000000
  8
157
 62
7
  6
L014100020032000000
  0
SEQEND
  0
POLYLINE
  8
157
 62
7
  6
L014100020032000000
 70
1
 66
1
  0
VERTEX
 10
12.000000
 20
115.500000
 30
0.000000
  8
157
 62
7
  6
L014100020032000000
  0
VERTEX
 10
12.000000
 20
114.500000
 30
0.000000
  8
157
 62
7
  6
L014100020032000000
  0
VERTEX
 10
8.000000
 20
114.500000
 30
0.000000
  8
157
 62
7
  6
L014100020032000000
  0
VERTEX
 10
8.000000
 20
115.500000
 30
0.000000
  8
157
 62
7
  6
L014100020032000000
  0
SEQEND
  0
POLYLINE
  8
157
 62
7
  6
L014100020032000000
 70
1
 66
1
  0
VERTEX
 10
12.000000
 20
104.500000
 30
0.000000
  8
157
 62
7
  6
L014100020032000000
  0
VERTEX
 10
12.000000
 20
113.500000
 30
0.000000
  8
157
 62
7
  6
L014100020032000000
  0
VERTEX
 10
8.000000
 20
113.500000
 30
0.000000
  8
157
 62
7
  6
L014100020032000000
  0
VERTEX
 10
8.000000
 20
104.500000
 30
0.000000
  8
157
 62
7
  6
L014100020032000000
  0
SEQEND
  0
POLYLINE
  8
157
 62
7
  6
L014100020032000000
 70
1
 66
1
  0
VERTEX
 10
8.000000
 20
102.500000
 30
0.000000
  8
157
 62
7
  6
L014100020032000000
  0
VERTEX
 10
8.000000
 20
103.500000
 30
0.000000
  8
157
 62
7
  6
L014100020032000000
  0
VERTEX
 10
12.000000
 20
103.500000
 30
0.000000
  8
157
 62
7
  6
L014100020032000000
  0
VERTEX
 10
12.000000
 20
102.500000
 30
0.000000
  8
157
 62
7
  6
L014100020032000000
  0
SEQEND
  0
POLYLINE
  8
157
 62
7
  6
L014100020032000000
 70
1
 66
1
  0
VERTEX
 10
8.000000
 20
98.500000
 30
0.000000
  8
157
 62
7
  6
L014100020032000000
  0
VERTEX
 10
8.000000
 20
97.500000
 30
0.000000
  8
157
 62
7
  6
L014100020032000000
  0
VERTEX
 10
12.000000
 20
97.500000
 30
0.000000
  8
157
 62
7
  6
L014100020032000000
  0
VERTEX
 10
12.000000
 20
98.500000
 30
0.000000
  8
157
 62
7
  6
L014100020032000000
  0
SEQEND
  0
POLYLINE
  8
157
 62
7
  6
L014100020032000000
 70
1
 66
1
  0
VERTEX
 10
12.000000
 20
87.500000
 30
0.000000
  8
157
 62
7
  6
L014100020032000000
  0
VERTEX
 10
12.000000
 20
96.500000
 30
0.000000
  8
157
 62
7
  6
L014100020032000000
  0
VERTEX
 10
8.000000
 20
96.500000
 30
0.000000
  8
157
 62
7
  6
L014100020032000000
  0
VERTEX
 10
8.000000
 20
87.500000
 30
0.000000
  8
157
 62
7
  6
L014100020032000000
  0
SEQEND
  0
POLYLINE
  8
157
 62
7
  6
L014100020032000000
 70
1
 66
1
  0
VERTEX
 10
8.000000
 20
85.500000
 30
0.000000
  8
157
 62
7
  6
L014100020032000000
  0
VERTEX
 10
8.000000
 20
86.500000
 30
0.000000
  8
157
 62
7
  6
L014100020032000000
  0
VERTEX
 10
12.000000
 20
86.500000
 30
0.000000
  8
157
 62
7
  6
L014100020032000000
  0
VERTEX
 10
12.000000
 20
85.500000
 30
0.000000
  8
157
 62
7
  6
L014100020032000000
  0
SEQEND
  0
POLYLINE
  8
157
 62
7
  6
L014100020032000000
 70
1
 66
1
  0
VERTEX
 10
8.000000
 20
81.500000
 30
0.000000
  8
157
 62
7
  6
L014100020032000000
  0
VERTEX
 10
8.000000
 20
80.500000
 30
0.000000
  8
157
 62
7
  6
L014100020032000000
  0
VERTEX
 10
12.000000
 20
80.500000
 30
0.000000
  8
157
 62
7
  6
L014100020032000000
  0
VERTEX
 10
12.000000
 20
81.500000
 30
0.000000
  8
157
 62
7
  6
L014100020032000000
  0
SEQEND
  0
POLYLINE
  8
157
 62
7
  6
L014100020032000000
 70
1
 66
1
  0
VERTEX
 10
15.000000
 20
54.500000
 30
0.000000
  8
157
 62
7
  6
L014100020032000000
  0
VERTEX
 10
15.000000
 20
117.500000
 30
0.000000
  8
157
 62
7
  6
L014100020032000000
  0
VERTEX
 10
25.000000
 20
117.500000
 30
0.000000
  8
157
 62
7
  6
L014100020032000000
  0
VERTEX
 10
25.000000
 20
54.500000
 30
0.000000
  8
157
 62
7
  6
L014100020032000000
  0
SEQEND
  0
POLYLINE
  8
157
 62
7
  6
L014100020032000000
 70
1
 66
1
  0
VERTEX
 10
22.000000
 20
70.500000
 30
0.000000
  8
157
 62
7
  6
L014100020032000000
  0
VERTEX
 10
22.000000
 20
79.500000
 30
0.000000
  8
157
 62
7
  6
L014100020032000000
  0
VERTEX
 10
18.000000
 20
79.500000
 30
0.000000
  8
157
 62
7
  6
L014100020032000000
  0
VERTEX
 10
18.000000
 20
70.500000
 30
0.000000
  8
157
 62
7
  6
L014100020032000000
  0
SEQEND
  0
CIRCLE
  8
157
 62
7
  6
CONTINUOUS
 10
22.700000
 20
57.800000
 30
0.0
 40
0.800000
  0
CIRCLE
  8
157
 62
7
  6
CONTINUOUS
 10
20.000000
 20
62.700000
 30
0.0
 40
0.800000
  0
CIRCLE
  8
157
 62
7
  6
CONTINUOUS
 10
17.300000
 20
57.800000
 30
0.0
 40
0.800000
  0
POLYLINE
  8
157
 62
7
  6
L014100020032000000
 70
1
 66
1
  0
VERTEX
 10
19.000000
 20
55.500000
 30
0.000000
  8
157
 62
7
  6
L014100020032000000
  0
VERTEX
 10
19.000000
 20
59.500000
 30
0.000000
  8
157
 62
7
  6
L014100020032000000
  0
VERTEX
 10
16.000000
 20
59.500000
 30
0.000000
  8
157
 62
7
  6
L014100020032000000
  0
VERTEX
 10
16.000000
 20
55.500000
 30
0.000000
  8
157
 62
7
  6
L014100020032000000
  0
SEQEND
  0
POLYLINE
  8
157
 62
7
  6
L014100020032000000
 70
1
 66
1
  0
VERTEX
 10
24.000000
 20
55.500000
 30
0.000000
  8
157
 62
7
  6
L014100020032000000
  0
VERTEX
 10
24.000000
 20
59.500000
 30
0.000000
  8
157
 62
7
  6
L014100020032000000
  0
VERTEX
 10
21.000000
 20
59.500000
 30
0.000000
  8
157
 62
7
  6
L014100020032000000
  0
VERTEX
 10
21.000000
 20
55.500000
 30
0.000000
  8
157
 62
7
  6
L014100020032000000
  0
SEQEND
  0
POLYLINE
  8
157
 62
7
  6
L014100020032000000
 70
1
 66
1
  0
VERTEX
 10
21.500000
 20
60.500000
 30
0.000000
  8
157
 62
7
  6
L014100020032000000
  0
VERTEX
 10
21.500000
 20
64.500000
 30
0.000000
  8
157
 62
7
  6
L014100020032000000
  0
VERTEX
 10
18.500000
 20
64.500000
 30
0.000000
  8
157
 62
7
  6
L014100020032000000
  0
VERTEX
 10
18.500000
 20
60.500000
 30
0.000000
  8
157
 62
7
  6
L014100020032000000
  0
SEQEND
  0
POLYLINE
  8
157
 62
7
  6
L014100020032000000
 70
1
 66
1
  0
VERTEX
 10
18.000000
 20
68.500000
 30
0.000000
  8
157
 62
7
  6
L014100020032000000
  0
VERTEX
 10
18.000000
 20
69.500000
 30
0.000000
  8
157
 62
7
  6
L014100020032000000
  0
VERTEX
 10
22.000000
 20
69.500000
 30
0.000000
  8
157
 62
7
  6
L014100020032000000
  0
VERTEX
 10
22.000000
 20
68.500000
 30
0.000000
  8
157
 62
7
  6
L014100020032000000
  0
SEQEND
  0
POLYLINE
  8
157
 62
7
  6
L014100020032000000
 70
1
 66
1
  0
VERTEX
 10
22.000000
 20
115.500000
 30
0.000000
  8
157
 62
7
  6
L014100020032000000
  0
VERTEX
 10
22.000000
 20
114.500000
 30
0.000000
  8
157
 62
7
  6
L014100020032000000
  0
VERTEX
 10
18.000000
 20
114.500000
 30
0.000000
  8
157
 62
7
  6
L014100020032000000
  0
VERTEX
 10
18.000000
 20
115.500000
 30
0.000000
  8
157
 62
7
  6
L014100020032000000
  0
SEQEND
  0
POLYLINE
  8
157
 62
7
  6
L014100020032000000
 70
1
 66
1
  0
VERTEX
 10
22.000000
 20
104.500000
 30
0.000000
  8
157
 62
7
  6
L014100020032000000
  0
VERTEX
 10
22.000000
 20
113.500000
 30
0.000000
  8
157
 62
7
  6
L014100020032000000
  0
VERTEX
 10
18.000000
 20
113.500000
 30
0.000000
  8
157
 62
7
  6
L014100020032000000
  0
VERTEX
 10
18.000000
 20
104.500000
 30
0.000000
  8
157
 62
7
  6
L014100020032000000
  0
SEQEND
  0
POLYLINE
  8
157
 62
7
  6
L014100020032000000
 70
1
 66
1
  0
VERTEX
 10
18.000000
 20
102.500000
 30
0.000000
  8
157
 62
7
  6
L014100020032000000
  0
VERTEX
 10
18.000000
 20
103.500000
 30
0.000000
  8
157
 62
7
  6
L014100020032000000
  0
VERTEX
 10
22.000000
 20
103.500000
 30
0.000000
  8
157
 62
7
  6
L014100020032000000
  0
VERTEX
 10
22.000000
 20
102.500000
 30
0.000000
  8
157
 62
7
  6
L014100020032000000
  0
SEQEND
  0
POLYLINE
  8
157
 62
7
  6
L014100020032000000
 70
1
 66
1
  0
VERTEX
 10
18.000000
 20
98.500000
 30
0.000000
  8
157
 62
7
  6
L014100020032000000
  0
VERTEX
 10
18.000000
 20
97.500000
 30
0.000000
  8
157
 62
7
  6
L014100020032000000
  0
VERTEX
 10
22.000000
 20
97.500000
 30
0.000000
  8
157
 62
7
  6
L014100020032000000
  0
VERTEX
 10
22.000000
 20
98.500000
 30
0.000000
  8
157
 62
7
  6
L014100020032000000
  0
SEQEND
  0
POLYLINE
  8
157
 62
7
  6
L014100020032000000
 70
1
 66
1
  0
VERTEX
 10
22.000000
 20
87.500000
 30
0.000000
  8
157
 62
7
  6
L014100020032000000
  0
VERTEX
 10
22.000000
 20
96.500000
 30
0.000000
  8
157
 62
7
  6
L014100020032000000
  0
VERTEX
 10
18.000000
 20
96.500000
 30
0.000000
  8
157
 62
7
  6
L014100020032000000
  0
VERTEX
 10
18.000000
 20
87.500000
 30
0.000000
  8
157
 62
7
  6
L014100020032000000
  0
SEQEND
  0
POLYLINE
  8
157
 62
7
  6
L014100020032000000
 70
1
 66
1
  0
VERTEX
 10
18.000000
 20
85.500000
 30
0.000000
  8
157
 62
7
  6
L014100020032000000
  0
VERTEX
 10
18.000000
 20
86.500000
 30
0.000000
  8
157
 62
7
  6
L014100020032000000
  0
VERTEX
 10
22.000000
 20
86.500000
 30
0.000000
  8
157
 62
7
  6
L014100020032000000
  0
VERTEX
 10
22.000000
 20
85.500000
 30
0.000000
  8
157
 62
7
  6
L014100020032000000
  0
SEQEND
  0
POLYLINE
  8
157
 62
7
  6
L014100020032000000
 70
1
 66
1
  0
VERTEX
 10
18.000000
 20
81.500000
 30
0.000000
  8
157
 62
7
  6
L014100020032000000
  0
VERTEX
 10
18.000000
 20
80.500000
 30
0.000000
  8
157
 62
7
  6
L014100020032000000
  0
VERTEX
 10
22.000000
 20
80.500000
 30
0.000000
  8
157
 62
7
  6
L014100020032000000
  0
VERTEX
 10
22.000000
 20
81.500000
 30
0.000000
  8
157
 62
7
  6
L014100020032000000
  0
SEQEND
  0
POLYLINE
  8
157
 62
7
  6
L014100020032000000
 70
1
 66
1
  0
VERTEX
 10
25.000000
 20
54.500000
 30
0.000000
  8
157
 62
7
  6
L014100020032000000
  0
VERTEX
 10
25.000000
 20
117.500000
 30
0.000000
  8
157
 62
7
  6
L014100020032000000
  0
VERTEX
 10
35.000000
 20
117.500000
 30
0.000000
  8
157
 62
7
  6
L014100020032000000
  0
VERTEX
 10
35.000000
 20
54.500000
 30
0.000000
  8
157
 62
7
  6
L014100020032000000
  0
SEQEND
  0
POLYLINE
  8
157
 62
7
  6
L014100020032000000
 70
1
 66
1
  0
VERTEX
 10
32.000000
 20
70.500000
 30
0.000000
  8
157
 62
7
  6
L014100020032000000
  0
VERTEX
 10
32.000000
 20
79.500000
 30
0.000000
  8
157
 62
7
  6
L014100020032000000
  0
VERTEX
 10
28.000000
 20
79.500000
 30
0.000000
  8
157
 62
7
  6
L014100020032000000
  0
VERTEX
 10
28.000000
 20
70.500000
 30
0.000000
  8
157
 62
7
  6
L014100020032000000
  0
SEQEND
  0
CIRCLE
  8
157
 62
7
  6
CONTINUOUS
 10
32.700000
 20
57.800000
 30
0.0
 40
0.800000
  0
CIRCLE
  8
157
 62
7
  6
CONTINUOUS
 10
30.000000
 20
62.700000
 30
0.0
 40
0.800000
  0
CIRCLE
  8
157
 62
7
  6
CONTINUOUS
 10
27.300000
 20
57.800000
 30
0.0
 40
0.800000
  0
POLYLINE
  8
157
 62
7
  6
L014100020032000000
 70
1
 66
1
  0
VERTEX
 10
29.000000
 20
55.500000
 30
0.000000
  8
157
 62
7
  6
L014100020032000000
  0
VERTEX
 10
29.000000
 20
59.500000
 30
0.000000
  8
157
 62
7
  6
L014100020032000000
  0
VERTEX
 10
26.000000
 20
59.500000
 30
0.000000
  8
157
 62
7
  6
L014100020032000000
  0
VERTEX
 10
26.000000
 20
55.500000
 30
0.000000
  8
157
 62
7
  6
L014100020032000000
  0
SEQEND
  0
POLYLINE
  8
157
 62
7
  6
L014100020032000000
 70
1
 66
1
  0
VERTEX
 10
34.000000
 20
55.500000
 30
0.000000
  8
157
 62
7
  6
L014100020032000000
  0
VERTEX
 10
34.000000
 20
59.500000
 30
0.000000
  8
157
 62
7
  6
L014100020032000000
  0
VERTEX
 10
31.000000
 20
59.500000
 30
0.000000
  8
157
 62
7
  6
L014100020032000000
  0
VERTEX
 10
31.000000
 20
55.500000
 30
0.000000
  8
157
 62
7
  6
L014100020032000000
  0
SEQEND
  0
POLYLINE
  8
157
 62
7
  6
L014100020032000000
 70
1
 66
1
  0
VERTEX
 10
31.500000
 20
60.500000
 30
0.000000
  8
157
 62
7
  6
L014100020032000000
  0
VERTEX
 10
31.500000
 20
64.500000
 30
0.000000
  8
157
 62
7
  6
L014100020032000000
  0
VERTEX
 10
28.500000
 20
64.500000
 30
0.000000
  8
157
 62
7
  6
L014100020032000000
  0
VERTEX
 10
28.500000
 20
60.500000
 30
0.000000
  8
157
 62
7
  6
L014100020032000000
  0
SEQEND
  0
POLYLINE
  8
157
 62
7
  6
L014100020032000000
 70
1
 66
1
  0
VERTEX
 10
28.000000
 20
68.500000
 30
0.000000
  8
157
 62
7
  6
L014100020032000000
  0
VERTEX
 10
28.000000
 20
69.500000
 30
0.000000
  8
157
 62
7
  6
L014100020032000000
  0
VERTEX
 10
32.000000
 20
69.500000
 30
0.000000
  8
157
 62
7
  6
L014100020032000000
  0
VERTEX
 10
32.000000
 20
68.500000
 30
0.000000
  8
157
 62
7
  6
L014100020032000000
  0
SEQEND
  0
POLYLINE
  8
157
 62
7
  6
L014100020032000000
 70
1
 66
1
  0
VERTEX
 10
32.000000
 20
115.500000
 30
0.000000
  8
157
 62
7
  6
L014100020032000000
  0
VERTEX
 10
32.000000
 20
114.500000
 30
0.000000
  8
157
 62
7
  6
L014100020032000000
  0
VERTEX
 10
28.000000
 20
114.500000
 30
0.000000
  8
157
 62
7
  6
L014100020032000000
  0
VERTEX
 10
28.000000
 20
115.500000
 30
0.000000
  8
157
 62
7
  6
L014100020032000000
  0
SEQEND
  0
POLYLINE
  8
157
 62
7
  6
L014100020032000000
 70
1
 66
1
  0
VERTEX
 10
32.000000
 20
104.500000
 30
0.000000
  8
157
 62
7
  6
L014100020032000000
  0
VERTEX
 10
32.000000
 20
113.500000
 30
0.000000
  8
157
 62
7
  6
L014100020032000000
  0
VERTEX
 10
28.000000
 20
113.500000
 30
0.000000
  8
157
 62
7
  6
L014100020032000000
  0
VERTEX
 10
28.000000
 20
104.500000
 30
0.000000
  8
157
 62
7
  6
L014100020032000000
  0
SEQEND
  0
POLYLINE
  8
157
 62
7
  6
L014100020032000000
 70
1
 66
1
  0
VERTEX
 10
28.000000
 20
102.500000
 30
0.000000
  8
157
 62
7
  6
L014100020032000000
  0
VERTEX
 10
28.000000
 20
103.500000
 30
0.000000
  8
157
 62
7
  6
L014100020032000000
  0
VERTEX
 10
32.000000
 20
103.500000
 30
0.000000
  8
157
 62
7
  6
L014100020032000000
  0
VERTEX
 10
32.000000
 20
102.500000
 30
0.000000
  8
157
 62
7
  6
L014100020032000000
  0
SEQEND
  0
POLYLINE
  8
157
 62
7
  6
L014100020032000000
 70
1
 66
1
  0
VERTEX
 10
28.000000
 20
98.500000
 30
0.000000
  8
157
 62
7
  6
L014100020032000000
  0
VERTEX
 10
28.000000
 20
97.500000
 30
0.000000
  8
157
 62
7
  6
L014100020032000000
  0
VERTEX
 10
32.000000
 20
97.500000
 30
0.000000
  8
157
 62
7
  6
L014100020032000000
  0
VERTEX
 10
32.000000
 20
98.500000
 30
0.000000
  8
157
 62
7
  6
L014100020032000000
  0
SEQEND
  0
POLYLINE
  8
157
 62
7
  6
L014100020032000000
 70
1
 66
1
  0
VERTEX
 10
32.000000
 20
87.500000
 30
0.000000
  8
157
 62
7
  6
L014100020032000000
  0
VERTEX
 10
32.000000
 20
96.500000
 30
0.000000
  8
157
 62
7
  6
L014100020032000000
  0
VERTEX
 10
28.000000
 20
96.500000
 30
0.000000
  8
157
 62
7
  6
L014100020032000000
  0
VERTEX
 10
28.000000
 20
87.500000
 30
0.000000
  8
157
 62
7
  6
L014100020032000000
  0
SEQEND
  0
POLYLINE
  8
157
 62
7
  6
L014100020032000000
 70
1
 66
1
  0
VERTEX
 10
28.000000
 20
85.500000
 30
0.000000
  8
157
 62
7
  6
L014100020032000000
  0
VERTEX
 10
28.000000
 20
86.500000
 30
0.000000
  8
157
 62
7
  6
L014100020032000000
  0
VERTEX
 10
32.000000
 20
86.500000
 30
0.000000
  8
157
 62
7
  6
L014100020032000000
  0
VERTEX
 10
32.000000
 20
85.500000
 30
0.000000
  8
157
 62
7
  6
L014100020032000000
  0
SEQEND
  0
POLYLINE
  8
157
 62
7
  6
L014100020032000000
 70
1
 66
1
  0
VERTEX
 10
28.000000
 20
81.500000
 30
0.000000
  8
157
 62
7
  6
L014100020032000000
  0
VERTEX
 10
28.000000
 20
80.500000
 30
0.000000
  8
157
 62
7
  6
L014100020032000000
  0
VERTEX
 10
32.000000
 20
80.500000
 30
0.000000
  8
157
 62
7
  6
L014100020032000000
  0
VERTEX
 10
32.000000
 20
81.500000
 30
0.000000
  8
157
 62
7
  6
L014100020032000000
  0
SEQEND
  0
ENDBLK
  0
BLOCK
  8
3
  2
ks878al_tuer
 70
 0
 10
0.0
 20
0.0
 30
0.0
  0
POLYLINE
  8
3
 62
7
  6
CONTINUOUS
 70
1
 66
1
  0
VERTEX
 10
-4.500000
 20
122.000000
 30
0.000000
  8
3
 62
7
  6
CONTINUOUS
  0
VERTEX
 10
-4.500000
 20
-2.000000
 30
0.000000
  8
3
 62
7
  6
CONTINUOUS
  0
VERTEX
 10
89.500000
 20
-2.000000
 30
0.000000
  8
3
 62
7
  6
CONTINUOUS
  0
VERTEX
 10
89.500000
 20
122.000000
 30
0.000000
  8
3
 62
7
  6
CONTINUOUS
  0
SEQEND
  0
POLYLINE
  8
3
 62
7
  6
CONTINUOUS
 70
1
 66
1
  0
VERTEX
 10
-3.500000
 20
12.500000
 30
0.000000
  8
3
 62
7
  6
CONTINUOUS
  0
VERTEX
 10
-3.500000
 20
7.500000
 30
0.000000
  8
3
 62
7
  6
CONTINUOUS
  0
VERTEX
 10
-4.500000
 20
7.500000
 30
0.000000
  8
3
 62
7
  6
CONTINUOUS
  0
VERTEX
 10
-4.500000
 20
12.500000
 30
0.000000
  8
3
 62
7
  6
CONTINUOUS
  0
SEQEND
  0
POLYLINE
  8
3
 62
7
  6
CONTINUOUS
 70
1
 66
1
  0
VERTEX
 10
-3.500000
 20
107.500000
 30
0.000000
  8
3
 62
7
  6
CONTINUOUS
  0
VERTEX
 10
-3.500000
 20
112.500000
 30
0.000000
  8
3
 62
7
  6
CONTINUOUS
  0
VERTEX
 10
-4.500000
 20
112.500000
 30
0.000000
  8
3
 62
7
  6
CONTINUOUS
  0
VERTEX
 10
-4.500000
 20
107.500000
 30
0.000000
  8
3
 62
7
  6
CONTINUOUS
  0
SEQEND
  0
POLYLINE
  8
3
 62
7
  6
CONTINUOUS
 70
1
 66
1
  0
VERTEX
 10
-3.500000
 20
57.500000
 30
0.000000
  8
3
 62
7
  6
CONTINUOUS
  0
VERTEX
 10
-3.500000
 20
62.500000
 30
0.000000
  8
3
 62
7
  6
CONTINUOUS
  0
VERTEX
 10
-4.500000
 20
62.500000
 30
0.000000
  8
3
 62
7
  6
CONTINUOUS
  0
VERTEX
 10
-4.500000
 20
57.500000
 30
0.000000
  8
3
 62
7
  6
CONTINUOUS
  0
SEQEND
  0
POLYLINE
  8
3
 62
7
  6
CONTINUOUS
 70
1
 66
1
  0
VERTEX
 10
124.500000
 20
122.000000
 30
0.000000
  8
3
 62
7
  6
CONTINUOUS
  0
VERTEX
 10
124.500000
 20
-2.000000
 30
0.000000
  8
3
 62
7
  6
CONTINUOUS
  0
VERTEX
 10
90.500000
 20
-2.000000
 30
0.000000
  8
3
 62
7
  6
CONTINUOUS
  0
VERTEX
 10
90.500000
 20
122.000000
 30
0.000000
  8
3
 62
7
  6
CONTINUOUS
  0
SEQEND
  0
POLYLINE
  8
3
 62
7
  6
CONTINUOUS
 70
1
 66
1
  0
VERTEX
 10
123.500000
 20
12.500000
 30
0.000000
  8
3
 62
7
  6
CONTINUOUS
  0
VERTEX
 10
123.500000
 20
7.500000
 30
0.000000
  8
3
 62
7
  6
CONTINUOUS
  0
VERTEX
 10
124.500000
 20
7.500000
 30
0.000000
  8
3
 62
7
  6
CONTINUOUS
  0
VERTEX
 10
124.500000
 20
12.500000
 30
0.000000
  8
3
 62
7
  6
CONTINUOUS
  0
SEQEND
  0
POLYLINE
  8
3
 62
7
  6
CONTINUOUS
 70
1
 66
1
  0
VERTEX
 10
123.500000
 20
107.500000
 30
0.000000
  8
3
 62
7
  6
CONTINUOUS
  0
VERTEX
 10
123.500000
 20
112.500000
 30
0.000000
  8
3
 62
7
  6
CONTINUOUS
  0
VERTEX
 10
124.500000
 20
112.500000
 30
0.000000
  8
3
 62
7
  6
CONTINUOUS
  0
VERTEX
 10
124.500000
 20
107.500000
 30
0.000000
  8
3
 62
7
  6
CONTINUOUS
  0
SEQEND
  0
POLYLINE
  8
3
 62
7
  6
CONTINUOUS
 70
1
 66
1
  0
VERTEX
 10
123.500000
 20
57.500000
 30
0.000000
  8
3
 62
7
  6
CONTINUOUS
  0
VERTEX
 10
123.500000
 20
62.500000
 30
0.000000
  8
3
 62
7
  6
CONTINUOUS
  0
VERTEX
 10
124.500000
 20
62.500000
 30
0.000000
  8
3
 62
7
  6
CONTINUOUS
  0
VERTEX
 10
124.500000
 20
57.500000
 30
0.000000
  8
3
 62
7
  6
CONTINUOUS
  0
SEQEND
  0
TEXT
  8
3
 62
7
  6
CONTINUOUS
 10
107.500000
 20
104.000000
 40
3.000000
  1
Netz-
 50
0.000000
 51
0.000000
 72
1
 73
0
 11
107.500000
 21
104.000000
  0
TEXT
  8
3
 62
7
  6
CONTINUOUS
 10
107.500000
 20
101.000000
 40
3.000000
  1
Feld
 50
0.000000
 51
0.000000
 72
1
 73
0
 11
107.500000
 21
101.000000
  0
TEXT
  8
3
 62
7
  6
CONTINUOUS
 10
42.500000
 20
104.000000
 40
3.000000
  1
Hausanschluß-
 50
0.000000
 51
0.000000
 72
1
 73
0
 11
42.500000
 21
104.000000
  0
TEXT
  8
3
 62
7
  6
CONTINUOUS
 10
42.500000
 20
101.000000
 40
3.000000
  1
Feld
 50
0.000000
 51
0.000000
 72
1
 73
0
 11
42.500000
 21
101.000000
  0
ENDBLK
  0
BLOCK
  8
47
  2
zh228
 70
 0
 10
0.0
 20
0.0
 30
0.0
  0
POLYLINE
  8
47
 62
255
  6
L000000020000FFFFFF
 70
1
 66
1
  0
VERTEX
 10
-2.000000
 20
-14.200000
 30
0.000000
  8
47
 62
255
  6
L000000020000FFFFFF
  0
VERTEX
 10
-2.000000
 20
8.700000
 30
0.000000
  8
47
 62
255
  6
L000000020000FFFFFF
  0
VERTEX
 10
2.000000
 20
8.700000
 30
0.000000
  8
47
 62
255
  6
L000000020000FFFFFF
  0
VERTEX
 10
2.000000
 20
-14.200000
 30
0.000000
  8
47
 62
255
  6
L000000020000FFFFFF
  0
SEQEND
  0
POLYLINE
  8
47
 62
7
  6
CONTINUOUS
 70
1
 66
1
  0
VERTEX
 10
-1.500000
 20
-14.200000
 30
0.000000
  8
47
 62
7
  6
CONTINUOUS
  0
VERTEX
 10
-1.500000
 20
2.900000
 30
0.000000
  8
47
 62
7
  6
CONTINUOUS
  0
VERTEX
 10
1.500000
 20
2.900000
 30
0.000000
  8
47
 62
7
  6
CONTINUOUS
  0
VERTEX
 10
1.500000
 20
-14.200000
 30
0.000000
  8
47
 62
7
  6
CONTINUOUS
  0
SEQEND
  0
ARC
  8
47
 62
7
  6
CONTINUOUS
 10
0.000000
 20
-12.900000
 30
0.000000
 40
1.300000
 50
184.398705
 51
-4.398705
  0
POLYLINE
  8
47
 62
7
  6
CONTINUOUS
 70
0
 66
1
  0
VERTEX
 10
1.300000
 20
-0.500000
  8
47
 62
7
  6
CONTINUOUS
  0
VERTEX
 10
1.300000
 20
-13.100000
  8
47
 62
7
  6
CONTINUOUS
  0
SEQEND
  0
ARC
  8
47
 62
7
  6
CONTINUOUS
 10
0.000000
 20
-0.600000
 30
0.000000
 40
1.300000
 50
4.398705
 51
175.601295
  0
POLYLINE
  8
47
 62
7
  6
CONTINUOUS
 70
0
 66
1
  0
VERTEX
 10
-1.300000
 20
-0.400000
  8
47
 62
7
  6
CONTINUOUS
  0
VERTEX
 10
-1.300000
 20
-13.100000
  8
47
 62
7
  6
CONTINUOUS
  0
SEQEND
  0
ENDBLK
  0
ENDSEC
  0
SECTION
  2
ENTITIES
  0
INSERT
  8
0
 2
ks878
 10
0.000000
 20
0.000000
 30
0.0
 50
0.0
  0
INSERT
  8
3
 2
ks878al_tuer
 10
2.500000
 20
0.000000
 30
0.0
 50
0.0
  0
INSERT
  8
47
 2
zh228
 10
98.500000
 20
65.000000
 30
0.0
 50
0.0
  0
INSERT
  8
47
 2
zh228
 10
86.500000
 20
65.000000
 30
0.0
 50
0.0
  0
ENDSEC
  0
EOF
