  0
SECTION
  2
HEADER
  9
$ACADVER
  1
AC1009
  9
$INSBASE
 10
0.0
 20
0.0
 30
0.0
  9
$EXTMIN
 10
0.0
 20
0.0
 30
0.0
  9
$EXTMAX
 10
0.000000
 20
0.000000
 30
0.0
  9
$LIMMIN
 10
0.0
 20
0.0
  9
$LIMMAX
 10
0.000000
 20
0.000000
  0
ENDSEC
  0
SECTION
  2
TABLES
  0
TABLE
  2
LTYPE
 70
12
  0
LTYPE
  2
L0141000200320000FF
 70
64
  3
- - - - - - - -
 72
65
 73
2
 40
0.500000
 49
0.300000
 49
-0.200000
  0
LTYPE
  2
CONTINUOUS
 70
64
  3
Solid line
 72
65
 73
0
 40
0.000000
  0
LTYPE
  2
L000000000000000000
 70
64
  3
Solid line
 72
65
 73
0
 40
0.000000
  0
LTYPE
  2
L000000020000FFFFFF
 70
64
  3
Solid line
 72
65
 73
0
 40
0.000000
  0
LTYPE
  2
L0141000400320000FF
 70
64
  3
- - - - - - - -
 72
65
 73
2
 40
0.500000
 49
0.300000
 49
-0.200000
  0
LTYPE
  2
L0000000200000000FF
 70
64
  3
Solid line
 72
65
 73
0
 40
0.000000
  0
LTYPE
  2
L010100020032000000
 70
64
  3
- - - - - - - -
 72
65
 73
2
 40
0.500000
 49
0.340000
 49
-0.160000
  0
LTYPE
  2
L014100020032000000
 70
64
  3
- - - - - - - -
 72
65
 73
2
 40
0.500000
 49
0.300000
 49
-0.200000
  0
LTYPE
  2
L014100040032000000
 70
64
  3
- - - - - - - -
 72
65
 73
2
 40
0.500000
 49
0.300000
 49
-0.200000
  0
LTYPE
  2
L00A100020014000000
 70
64
  3
- - - - - - - -
 72
65
 73
2
 40
0.200000
 49
0.100000
 49
-0.100000
  0
LTYPE
  2
L000000030000000000
 70
64
  3
Solid line
 72
65
 73
0
 40
0.000000
  0
LTYPE
  2
L000000020000008000
 70
64
  3
Solid line
 72
65
 73
0
 40
0.000000
  0
ENDTAB
  0
TABLE
  2
LAYER
 70
8
  0
LAYER
  2
0
 70
64
 62
7
  6
CONTINUOUS
  0
LAYER
  2
1
 70
64
 62
7
  6
CONTINUOUS
  0
LAYER
  2
2
 70
64
 62
7
  6
CONTINUOUS
  0
LAYER
  2
3
 70
64
 62
-7
  6
CONTINUOUS
  0
LAYER
  2
4
 70
64
 62
7
  6
CONTINUOUS
  0
LAYER
  2
5
 70
64
 62
7
  6
CONTINUOUS
  0
LAYER
  2
6
 70
64
 62
7
  6
CONTINUOUS
  0
LAYER
  2
7
 70
64
 62
7
  6
CONTINUOUS
  0
LAYER
  2
8
 70
64
 62
7
  6
CONTINUOUS
  0
LAYER
  2
9
 70
64
 62
7
  6
CONTINUOUS
  0
LAYER
  2
10
 70
64
 62
7
  6
CONTINUOUS
  0
LAYER
  2
11
 70
64
 62
7
  6
CONTINUOUS
  0
LAYER
  2
12
 70
64
 62
7
  6
CONTINUOUS
  0
LAYER
  2
13
 70
64
 62
7
  6
CONTINUOUS
  0
LAYER
  2
14
 70
64
 62
7
  6
CONTINUOUS
  0
LAYER
  2
15
 70
64
 62
-7
  6
CONTINUOUS
  0
LAYER
  2
16
 70
64
 62
7
  6
CONTINUOUS
  0
LAYER
  2
17
 70
64
 62
7
  6
CONTINUOUS
  0
LAYER
  2
18
 70
64
 62
7
  6
CONTINUOUS
  0
LAYER
  2
19
 70
64
 62
7
  6
CONTINUOUS
  0
LAYER
  2
20
 70
64
 62
7
  6
CONTINUOUS
  0
LAYER
  2
21
 70
64
 62
7
  6
CONTINUOUS
  0
LAYER
  2
22
 70
64
 62
7
  6
CONTINUOUS
  0
LAYER
  2
23
 70
64
 62
7
  6
CONTINUOUS
  0
LAYER
  2
24
 70
64
 62
7
  6
CONTINUOUS
  0
LAYER
  2
25
 70
64
 62
7
  6
CONTINUOUS
  0
LAYER
  2
26
 70
64
 62
7
  6
CONTINUOUS
  0
LAYER
  2
27
 70
64
 62
7
  6
CONTINUOUS
  0
LAYER
  2
28
 70
64
 62
7
  6
CONTINUOUS
  0
LAYER
  2
29
 70
64
 62
-7
  6
CONTINUOUS
  0
LAYER
  2
30
 70
64
 62
-7
  6
CONTINUOUS
  0
LAYER
  2
31
 70
64
 62
7
  6
CONTINUOUS
  0
LAYER
  2
32
 70
64
 62
7
  6
CONTINUOUS
  0
LAYER
  2
33
 70
64
 62
7
  6
CONTINUOUS
  0
LAYER
  2
34
 70
64
 62
7
  6
CONTINUOUS
  0
LAYER
  2
35
 70
64
 62
7
  6
CONTINUOUS
  0
LAYER
  2
36
 70
64
 62
7
  6
CONTINUOUS
  0
LAYER
  2
37
 70
64
 62
7
  6
CONTINUOUS
  0
LAYER
  2
38
 70
64
 62
-7
  6
CONTINUOUS
  0
LAYER
  2
39
 70
64
 62
-7
  6
CONTINUOUS
  0
LAYER
  2
40
 70
64
 62
7
  6
CONTINUOUS
  0
LAYER
  2
41
 70
64
 62
7
  6
CONTINUOUS
  0
LAYER
  2
42
 70
64
 62
7
  6
CONTINUOUS
  0
LAYER
  2
43
 70
64
 62
7
  6
CONTINUOUS
  0
LAYER
  2
44
 70
64
 62
7
  6
CONTINUOUS
  0
LAYER
  2
45
 70
64
 62
7
  6
CONTINUOUS
  0
LAYER
  2
46
 70
64
 62
7
  6
CONTINUOUS
  0
LAYER
  2
47
 70
64
 62
-7
  6
CONTINUOUS
  0
LAYER
  2
48
 70
64
 62
-7
  6
CONTINUOUS
  0
LAYER
  2
49
 70
64
 62
-7
  6
CONTINUOUS
  0
LAYER
  2
50
 70
64
 62
-7
  6
CONTINUOUS
  0
LAYER
  2
51
 70
64
 62
-7
  6
CONTINUOUS
  0
LAYER
  2
52
 70
64
 62
-7
  6
CONTINUOUS
  0
LAYER
  2
53
 70
64
 62
-7
  6
CONTINUOUS
  0
LAYER
  2
54
 70
64
 62
-7
  6
CONTINUOUS
  0
LAYER
  2
55
 70
64
 62
-7
  6
CONTINUOUS
  0
LAYER
  2
56
 70
64
 62
-7
  6
CONTINUOUS
  0
LAYER
  2
57
 70
64
 62
-7
  6
CONTINUOUS
  0
LAYER
  2
58
 70
64
 62
7
  6
CONTINUOUS
  0
LAYER
  2
59
 70
64
 62
-7
  6
CONTINUOUS
  0
LAYER
  2
60
 70
64
 62
-7
  6
CONTINUOUS
  0
LAYER
  2
61
 70
64
 62
7
  6
CONTINUOUS
  0
LAYER
  2
62
 70
64
 62
7
  6
CONTINUOUS
  0
LAYER
  2
63
 70
64
 62
7
  6
CONTINUOUS
  0
LAYER
  2
64
 70
64
 62
7
  6
CONTINUOUS
  0
LAYER
  2
65
 70
64
 62
7
  6
CONTINUOUS
  0
LAYER
  2
66
 70
64
 62
7
  6
CONTINUOUS
  0
LAYER
  2
67
 70
64
 62
7
  6
CONTINUOUS
  0
LAYER
  2
68
 70
64
 62
7
  6
CONTINUOUS
  0
LAYER
  2
69
 70
64
 62
7
  6
CONTINUOUS
  0
LAYER
  2
70
 70
64
 62
7
  6
CONTINUOUS
  0
LAYER
  2
71
 70
64
 62
7
  6
CONTINUOUS
  0
LAYER
  2
72
 70
64
 62
7
  6
CONTINUOUS
  0
LAYER
  2
73
 70
64
 62
7
  6
CONTINUOUS
  0
LAYER
  2
74
 70
64
 62
7
  6
CONTINUOUS
  0
LAYER
  2
75
 70
64
 62
7
  6
CONTINUOUS
  0
LAYER
  2
76
 70
64
 62
7
  6
CONTINUOUS
  0
LAYER
  2
77
 70
64
 62
7
  6
CONTINUOUS
  0
LAYER
  2
78
 70
64
 62
7
  6
CONTINUOUS
  0
LAYER
  2
79
 70
64
 62
7
  6
CONTINUOUS
  0
LAYER
  2
80
 70
64
 62
7
  6
CONTINUOUS
  0
LAYER
  2
81
 70
64
 62
7
  6
CONTINUOUS
  0
LAYER
  2
82
 70
64
 62
7
  6
CONTINUOUS
  0
LAYER
  2
83
 70
64
 62
7
  6
CONTINUOUS
  0
LAYER
  2
84
 70
64
 62
7
  6
CONTINUOUS
  0
LAYER
  2
85
 70
64
 62
7
  6
CONTINUOUS
  0
LAYER
  2
86
 70
64
 62
7
  6
CONTINUOUS
  0
LAYER
  2
87
 70
64
 62
7
  6
CONTINUOUS
  0
LAYER
  2
88
 70
64
 62
7
  6
CONTINUOUS
  0
LAYER
  2
89
 70
64
 62
7
  6
CONTINUOUS
  0
LAYER
  2
90
 70
64
 62
7
  6
CONTINUOUS
  0
LAYER
  2
91
 70
64
 62
7
  6
CONTINUOUS
  0
LAYER
  2
92
 70
64
 62
7
  6
CONTINUOUS
  0
LAYER
  2
93
 70
64
 62
7
  6
CONTINUOUS
  0
LAYER
  2
94
 70
64
 62
7
  6
CONTINUOUS
  0
LAYER
  2
95
 70
64
 62
7
  6
CONTINUOUS
  0
LAYER
  2
96
 70
64
 62
7
  6
CONTINUOUS
  0
LAYER
  2
97
 70
64
 62
7
  6
CONTINUOUS
  0
LAYER
  2
98
 70
64
 62
7
  6
CONTINUOUS
  0
LAYER
  2
99
 70
64
 62
7
  6
CONTINUOUS
  0
LAYER
  2
100
 70
64
 62
7
  6
CONTINUOUS
  0
LAYER
  2
101
 70
64
 62
7
  6
CONTINUOUS
  0
LAYER
  2
102
 70
64
 62
7
  6
CONTINUOUS
  0
LAYER
  2
103
 70
64
 62
7
  6
CONTINUOUS
  0
LAYER
  2
104
 70
64
 62
7
  6
CONTINUOUS
  0
LAYER
  2
105
 70
64
 62
7
  6
CONTINUOUS
  0
LAYER
  2
106
 70
64
 62
7
  6
CONTINUOUS
  0
LAYER
  2
107
 70
64
 62
7
  6
CONTINUOUS
  0
LAYER
  2
108
 70
64
 62
7
  6
CONTINUOUS
  0
LAYER
  2
109
 70
64
 62
7
  6
CONTINUOUS
  0
LAYER
  2
110
 70
64
 62
7
  6
CONTINUOUS
  0
LAYER
  2
111
 70
64
 62
7
  6
CONTINUOUS
  0
LAYER
  2
112
 70
64
 62
7
  6
CONTINUOUS
  0
LAYER
  2
113
 70
64
 62
7
  6
CONTINUOUS
  0
LAYER
  2
114
 70
64
 62
7
  6
CONTINUOUS
  0
LAYER
  2
115
 70
64
 62
7
  6
CONTINUOUS
  0
LAYER
  2
116
 70
64
 62
7
  6
CONTINUOUS
  0
LAYER
  2
117
 70
64
 62
7
  6
CONTINUOUS
  0
LAYER
  2
118
 70
64
 62
7
  6
CONTINUOUS
  0
LAYER
  2
119
 70
64
 62
7
  6
CONTINUOUS
  0
LAYER
  2
120
 70
64
 62
7
  6
CONTINUOUS
  0
LAYER
  2
121
 70
64
 62
7
  6
CONTINUOUS
  0
LAYER
  2
122
 70
64
 62
7
  6
CONTINUOUS
  0
LAYER
  2
123
 70
64
 62
7
  6
CONTINUOUS
  0
LAYER
  2
124
 70
64
 62
7
  6
CONTINUOUS
  0
LAYER
  2
125
 70
64
 62
7
  6
CONTINUOUS
  0
LAYER
  2
126
 70
64
 62
7
  6
CONTINUOUS
  0
LAYER
  2
127
 70
64
 62
7
  6
CONTINUOUS
  0
LAYER
  2
128
 70
64
 62
7
  6
CONTINUOUS
  0
LAYER
  2
129
 70
64
 62
7
  6
CONTINUOUS
  0
LAYER
  2
130
 70
64
 62
7
  6
CONTINUOUS
  0
LAYER
  2
131
 70
64
 62
7
  6
CONTINUOUS
  0
LAYER
  2
132
 70
64
 62
7
  6
CONTINUOUS
  0
LAYER
  2
133
 70
64
 62
7
  6
CONTINUOUS
  0
LAYER
  2
134
 70
64
 62
7
  6
CONTINUOUS
  0
LAYER
  2
135
 70
64
 62
7
  6
CONTINUOUS
  0
LAYER
  2
136
 70
64
 62
7
  6
CONTINUOUS
  0
LAYER
  2
137
 70
64
 62
7
  6
CONTINUOUS
  0
LAYER
  2
138
 70
64
 62
7
  6
CONTINUOUS
  0
LAYER
  2
139
 70
64
 62
7
  6
CONTINUOUS
  0
LAYER
  2
140
 70
64
 62
7
  6
CONTINUOUS
  0
LAYER
  2
141
 70
64
 62
7
  6
CONTINUOUS
  0
LAYER
  2
142
 70
64
 62
7
  6
CONTINUOUS
  0
LAYER
  2
143
 70
64
 62
7
  6
CONTINUOUS
  0
LAYER
  2
144
 70
64
 62
7
  6
CONTINUOUS
  0
LAYER
  2
145
 70
64
 62
7
  6
CONTINUOUS
  0
LAYER
  2
146
 70
64
 62
7
  6
CONTINUOUS
  0
LAYER
  2
147
 70
64
 62
7
  6
CONTINUOUS
  0
LAYER
  2
148
 70
64
 62
7
  6
CONTINUOUS
  0
LAYER
  2
149
 70
64
 62
7
  6
CONTINUOUS
  0
LAYER
  2
150
 70
64
 62
7
  6
CONTINUOUS
  0
LAYER
  2
151
 70
64
 62
7
  6
CONTINUOUS
  0
LAYER
  2
152
 70
64
 62
7
  6
CONTINUOUS
  0
LAYER
  2
153
 70
64
 62
7
  6
CONTINUOUS
  0
LAYER
  2
154
 70
64
 62
7
  6
CONTINUOUS
  0
LAYER
  2
155
 70
64
 62
-7
  6
CONTINUOUS
  0
LAYER
  2
156
 70
64
 62
-7
  6
CONTINUOUS
  0
LAYER
  2
157
 70
64
 62
-7
  6
CONTINUOUS
  0
LAYER
  2
158
 70
64
 62
-7
  6
CONTINUOUS
  0
LAYER
  2
159
 70
64
 62
-7
  6
CONTINUOUS
  0
LAYER
  2
160
 70
64
 62
-7
  6
CONTINUOUS
  0
LAYER
  2
161
 70
64
 62
-7
  6
CONTINUOUS
  0
LAYER
  2
162
 70
64
 62
-7
  6
CONTINUOUS
  0
LAYER
  2
163
 70
64
 62
-7
  6
CONTINUOUS
  0
LAYER
  2
164
 70
64
 62
7
  6
CONTINUOUS
  0
LAYER
  2
165
 70
64
 62
7
  6
CONTINUOUS
  0
LAYER
  2
166
 70
64
 62
7
  6
CONTINUOUS
  0
LAYER
  2
167
 70
64
 62
7
  6
CONTINUOUS
  0
LAYER
  2
168
 70
64
 62
7
  6
CONTINUOUS
  0
LAYER
  2
169
 70
64
 62
7
  6
CONTINUOUS
  0
LAYER
  2
170
 70
64
 62
7
  6
CONTINUOUS
  0
LAYER
  2
171
 70
64
 62
7
  6
CONTINUOUS
  0
LAYER
  2
172
 70
64
 62
7
  6
CONTINUOUS
  0
LAYER
  2
173
 70
64
 62
7
  6
CONTINUOUS
  0
LAYER
  2
174
 70
64
 62
7
  6
CONTINUOUS
  0
LAYER
  2
175
 70
64
 62
7
  6
CONTINUOUS
  0
LAYER
  2
176
 70
64
 62
7
  6
CONTINUOUS
  0
LAYER
  2
177
 70
64
 62
7
  6
CONTINUOUS
  0
LAYER
  2
178
 70
64
 62
7
  6
CONTINUOUS
  0
LAYER
  2
179
 70
64
 62
7
  6
CONTINUOUS
  0
LAYER
  2
180
 70
64
 62
7
  6
CONTINUOUS
  0
LAYER
  2
181
 70
64
 62
7
  6
CONTINUOUS
  0
LAYER
  2
182
 70
64
 62
7
  6
CONTINUOUS
  0
LAYER
  2
183
 70
64
 62
7
  6
CONTINUOUS
  0
LAYER
  2
184
 70
64
 62
7
  6
CONTINUOUS
  0
LAYER
  2
185
 70
64
 62
7
  6
CONTINUOUS
  0
LAYER
  2
186
 70
64
 62
7
  6
CONTINUOUS
  0
LAYER
  2
187
 70
64
 62
7
  6
CONTINUOUS
  0
LAYER
  2
188
 70
64
 62
7
  6
CONTINUOUS
  0
LAYER
  2
189
 70
64
 62
7
  6
CONTINUOUS
  0
LAYER
  2
190
 70
64
 62
7
  6
CONTINUOUS
  0
LAYER
  2
191
 70
64
 62
7
  6
CONTINUOUS
  0
LAYER
  2
192
 70
64
 62
7
  6
CONTINUOUS
  0
LAYER
  2
193
 70
64
 62
7
  6
CONTINUOUS
  0
LAYER
  2
194
 70
64
 62
7
  6
CONTINUOUS
  0
LAYER
  2
195
 70
64
 62
7
  6
CONTINUOUS
  0
LAYER
  2
196
 70
64
 62
7
  6
CONTINUOUS
  0
LAYER
  2
197
 70
64
 62
7
  6
CONTINUOUS
  0
LAYER
  2
198
 70
64
 62
7
  6
CONTINUOUS
  0
LAYER
  2
199
 70
64
 62
7
  6
CONTINUOUS
  0
ENDTAB
  0
ENDSEC
  0
SECTION
  2
BLOCKS
  0
BLOCK
  8
0
  2
ka4242
 70
 0
 10
0.0
 20
0.0
 30
0.0
  0
LINE
  8
31
 62
7
  6
L014100020032000000
 10
23.300000
 20
28.100000
 11
23.300000
 21
5.700000
  0
POLYLINE
  8
31
 62
255
  6
L000000020000FFFFFF
 70
1
 66
1
  0
VERTEX
 10
1.700000
 20
5.700000
 30
0.000000
  8
31
 62
255
  6
L000000020000FFFFFF
  0
VERTEX
 10
1.700000
 20
28.200000
 30
0.000000
  8
31
 62
255
  6
L000000020000FFFFFF
  0
VERTEX
 10
0.600000
 20
28.200000
 30
0.000000
  8
31
 62
255
  6
L000000020000FFFFFF
  0
VERTEX
 10
0.600000
 20
5.700000
 30
0.000000
  8
31
 62
255
  6
L000000020000FFFFFF
  0
SEQEND
  0
LINE
  8
31
 62
7
  6
CONTINUOUS
 10
0.700000
 20
28.200000
 11
1.700000
 21
28.200000
  0
POLYLINE
  8
31
 62
255
  6
L000000020000FFFFFF
 70
1
 66
1
  0
VERTEX
 10
1.700000
 20
5.700000
 30
0.000000
  8
31
 62
255
  6
L000000020000FFFFFF
  0
VERTEX
 10
1.700000
 20
28.200000
 30
0.000000
  8
31
 62
255
  6
L000000020000FFFFFF
  0
VERTEX
 10
0.700000
 20
28.200000
 30
0.000000
  8
31
 62
255
  6
L000000020000FFFFFF
  0
VERTEX
 10
0.700000
 20
5.700000
 30
0.000000
  8
31
 62
255
  6
L000000020000FFFFFF
  0
SEQEND
  0
LINE
  8
31
 62
7
  6
CONTINUOUS
 10
0.700000
 20
5.700000
 11
1.700000
 21
5.700000
  0
LINE
  8
31
 62
7
  6
L014100020032000000
 10
0.700000
 20
28.200000
 11
0.700000
 21
5.700000
  0
POLYLINE
  8
31
 62
255
  6
L000000020000FFFFFF
 70
1
 66
1
  0
VERTEX
 10
26.700000
 20
5.700000
 30
0.000000
  8
31
 62
255
  6
L000000020000FFFFFF
  0
VERTEX
 10
26.700000
 20
28.200000
 30
0.000000
  8
31
 62
255
  6
L000000020000FFFFFF
  0
VERTEX
 10
23.300000
 20
28.200000
 30
0.000000
  8
31
 62
255
  6
L000000020000FFFFFF
  0
VERTEX
 10
23.300000
 20
5.700000
 30
0.000000
  8
31
 62
255
  6
L000000020000FFFFFF
  0
SEQEND
  0
LINE
  8
31
 62
7
  6
L014100020032000000
 10
23.300000
 20
28.200000
 11
26.700000
 21
28.200000
  0
LINE
  8
31
 62
7
  6
L014100020032000000
 10
26.700000
 20
28.200000
 11
26.700000
 21
5.700000
  0
LINE
  8
31
 62
7
  6
L014100020032000000
 10
23.300000
 20
5.700000
 11
26.700000
 21
5.700000
  0
POLYLINE
  8
31
 62
255
  6
L000000020000FFFFFF
 70
1
 66
1
  0
VERTEX
 10
49.300000
 20
5.700000
 30
0.000000
  8
31
 62
255
  6
L000000020000FFFFFF
  0
VERTEX
 10
49.300000
 20
28.200000
 30
0.000000
  8
31
 62
255
  6
L000000020000FFFFFF
  0
VERTEX
 10
48.300000
 20
28.200000
 30
0.000000
  8
31
 62
255
  6
L000000020000FFFFFF
  0
VERTEX
 10
48.300000
 20
5.700000
 30
0.000000
  8
31
 62
255
  6
L000000020000FFFFFF
  0
SEQEND
  0
LINE
  8
31
 62
7
  6
CONTINUOUS
 10
48.300000
 20
28.200000
 11
49.300000
 21
28.200000
  0
LINE
  8
31
 62
7
  6
L014100020032000000
 10
49.300000
 20
28.200000
 11
49.300000
 21
5.700000
  0
LINE
  8
31
 62
7
  6
L014100020032000000
 10
48.300000
 20
28.200000
 11
48.300000
 21
5.700000
  0
LINE
  8
31
 62
7
  6
CONTINUOUS
 10
48.300000
 20
5.700000
 11
49.300000
 21
5.700000
  0
POLYLINE
  8
1
 62
7
  6
CONTINUOUS
 70
1
 66
1
  0
VERTEX
 10
49.800000
 20
0.200000
 30
0.000000
  8
1
 62
7
  6
CONTINUOUS
  0
VERTEX
 10
49.800000
 20
134.800000
 30
0.000000
  8
1
 62
7
  6
CONTINUOUS
  0
VERTEX
 10
0.200000
 20
134.800000
 30
0.000000
  8
1
 62
7
  6
CONTINUOUS
  0
VERTEX
 10
0.200000
 20
0.200000
 30
0.000000
  8
1
 62
7
  6
CONTINUOUS
  0
SEQEND
  0
POLYLINE
  8
1
 62
7
  6
CONTINUOUS
 70
0
 66
1
  0
VERTEX
 10
25.100000
 20
0.200000
  8
1
 62
7
  6
CONTINUOUS
  0
VERTEX
 10
25.000000
 20
134.800000
  8
1
 62
7
  6
CONTINUOUS
  0
SEQEND
  0
POLYLINE
  8
1
 62
7
  6
CONTINUOUS
 70
0
 66
1
  0
VERTEX
 10
0.200000
 20
90.000000
  8
1
 62
7
  6
CONTINUOUS
  0
VERTEX
 10
25.000000
 20
90.000000
  8
1
 62
7
  6
CONTINUOUS
  0
SEQEND
  0
POLYLINE
  8
1
 62
7
  6
CONTINUOUS
 70
0
 66
1
  0
VERTEX
 10
0.200000
 20
45.000000
  8
1
 62
7
  6
CONTINUOUS
  0
VERTEX
 10
25.000000
 20
45.000000
  8
1
 62
7
  6
CONTINUOUS
  0
SEQEND
  0
POLYLINE
  8
1
 62
7
  6
CONTINUOUS
 70
0
 66
1
  0
VERTEX
 10
25.200000
 20
120.000000
  8
1
 62
7
  6
CONTINUOUS
  0
VERTEX
 10
50.000000
 20
120.000000
  8
1
 62
7
  6
CONTINUOUS
  0
SEQEND
  0
POLYLINE
  8
1
 62
7
  6
CONTINUOUS
 70
1
 66
1
  0
VERTEX
 10
44.000000
 20
97.000000
 30
0.000000
  8
1
 62
7
  6
CONTINUOUS
  0
VERTEX
 10
44.000000
 20
93.000000
 30
0.000000
  8
1
 62
7
  6
CONTINUOUS
  0
VERTEX
 10
31.000000
 20
93.000000
 30
0.000000
  8
1
 62
7
  6
CONTINUOUS
  0
VERTEX
 10
31.000000
 20
97.000000
 30
0.000000
  8
1
 62
7
  6
CONTINUOUS
  0
SEQEND
  0
POLYLINE
  8
1
 62
7
  6
CONTINUOUS
 70
0
 66
1
  0
VERTEX
 10
37.000000
 20
118.400000
  8
1
 62
7
  6
CONTINUOUS
  0
VERTEX
 10
37.000000
 20
111.000000
  8
1
 62
7
  6
CONTINUOUS
  0
SEQEND
  0
POLYLINE
  8
1
 62
7
  6
CONTINUOUS
 70
0
 66
1
  0
VERTEX
 10
38.000000
 20
118.400000
  8
1
 62
7
  6
CONTINUOUS
  0
VERTEX
 10
38.000000
 20
111.000000
  8
1
 62
7
  6
CONTINUOUS
  0
SEQEND
  0
ARC
  8
1
 62
7
  6
CONTINUOUS
 10
37.500000
 20
118.500000
 30
0.000000
 40
0.500000
 50
11.309932
 51
168.690068
  0
ARC
  8
1
 62
7
  6
CONTINUOUS
 10
37.500000
 20
111.100000
 30
0.000000
 40
0.500000
 50
191.309932
 51
-11.309932
  0
ARC
  8
1
 62
7
  6
CONTINUOUS
 10
37.500000
 20
107.400000
 30
0.000000
 40
0.500000
 50
-11.309932
 51
191.309932
  0
ARC
  8
1
 62
7
  6
CONTINUOUS
 10
37.500000
 20
98.500000
 30
0.000000
 40
0.500000
 50
180.000000
 51
0.000000
  0
POLYLINE
  8
1
 62
7
  6
CONTINUOUS
 70
0
 66
1
  0
VERTEX
 10
37.000000
 20
107.200000
  8
1
 62
7
  6
CONTINUOUS
  0
VERTEX
 10
37.000000
 20
104.000000
  8
1
 62
7
  6
CONTINUOUS
  0
SEQEND
  0
POLYLINE
  8
1
 62
7
  6
CONTINUOUS
 70
0
 66
1
  0
VERTEX
 10
38.000000
 20
107.200000
  8
1
 62
7
  6
CONTINUOUS
  0
VERTEX
 10
38.000000
 20
104.000000
  8
1
 62
7
  6
CONTINUOUS
  0
SEQEND
  0
POLYLINE
  8
1
 62
7
  6
CONTINUOUS
 70
0
 66
1
  0
VERTEX
 10
37.000000
 20
100.800000
  8
1
 62
7
  6
CONTINUOUS
  0
VERTEX
 10
37.000000
 20
98.500000
  8
1
 62
7
  6
CONTINUOUS
  0
SEQEND
  0
POLYLINE
  8
1
 62
7
  6
CONTINUOUS
 70
0
 66
1
  0
VERTEX
 10
38.000000
 20
100.800000
  8
1
 62
7
  6
CONTINUOUS
  0
VERTEX
 10
38.000000
 20
98.500000
  8
1
 62
7
  6
CONTINUOUS
  0
SEQEND
  0
POLYLINE
  8
1
 62
7
  6
CONTINUOUS
 70
0
 66
1
  0
VERTEX
 10
36.500000
 20
104.000000
  8
1
 62
7
  6
CONTINUOUS
  0
VERTEX
 10
36.500000
 20
120.000000
  8
1
 62
7
  6
CONTINUOUS
  0
VERTEX
 10
38.500000
 20
120.000000
  8
1
 62
7
  6
CONTINUOUS
  0
VERTEX
 10
38.500000
 20
104.000000
  8
1
 62
7
  6
CONTINUOUS
  0
SEQEND
  0
POLYLINE
  8
1
 62
7
  6
CONTINUOUS
 70
0
 66
1
  0
VERTEX
 10
36.500000
 20
100.800000
  8
1
 62
7
  6
CONTINUOUS
  0
VERTEX
 10
36.500000
 20
97.000000
  8
1
 62
7
  6
CONTINUOUS
  0
SEQEND
  0
POLYLINE
  8
1
 62
7
  6
CONTINUOUS
 70
0
 66
1
  0
VERTEX
 10
38.500000
 20
100.800000
  8
1
 62
7
  6
CONTINUOUS
  0
VERTEX
 10
38.500000
 20
97.000000
  8
1
 62
7
  6
CONTINUOUS
  0
SEQEND
  0
POLYLINE
  8
1
 62
7
  6
CONTINUOUS
 70
1
 66
1
  0
VERTEX
 10
48.400000
 20
104.000000
 30
0.000000
  8
1
 62
7
  6
CONTINUOUS
  0
VERTEX
 10
48.400000
 20
100.800000
 30
0.000000
  8
1
 62
7
  6
CONTINUOUS
  0
VERTEX
 10
26.600000
 20
100.800000
 30
0.000000
  8
1
 62
7
  6
CONTINUOUS
  0
VERTEX
 10
26.600000
 20
104.000000
 30
0.000000
  8
1
 62
7
  6
CONTINUOUS
  0
SEQEND
  0
CIRCLE
  8
1
 62
7
  6
CONTINUOUS
 10
37.500000
 20
103.100000
 30
0.0
 40
0.500000
  0
LINE
  8
1
 62
7
  6
CONTINUOUS
 10
35.100000
 20
103.200000
 11
27.300000
 21
103.200000
  0
LINE
  8
1
 62
7
  6
CONTINUOUS
 10
35.100000
 20
102.600000
 11
27.300000
 21
102.600000
  0
ARC
  8
1
 62
7
  6
CONTINUOUS
 10
27.400000
 20
102.900000
 30
0.000000
 40
0.300000
 50
108.434949
 51
-108.434949
  0
ARC
  8
1
 62
7
  6
CONTINUOUS
 10
35.500000
 20
102.900000
 30
0.000000
 40
0.500000
 50
216.869898
 51
143.130102
  0
LINE
  8
1
 62
7
  6
CONTINUOUS
 10
39.900000
 20
103.200000
 11
47.700000
 21
103.200000
  0
LINE
  8
1
 62
7
  6
CONTINUOUS
 10
39.900000
 20
102.600000
 11
47.700000
 21
102.600000
  0
ARC
  8
1
 62
7
  6
CONTINUOUS
 10
47.600000
 20
102.900000
 30
0.000000
 40
0.300000
 50
-71.565051
 51
71.565051
  0
ARC
  8
1
 62
7
  6
CONTINUOUS
 10
39.500000
 20
102.900000
 30
0.000000
 40
0.500000
 50
36.869898
 51
-36.869898
  0
LINE
  8
1
 62
7
  6
CONTINUOUS
 10
35.100000
 20
101.700000
 11
27.300000
 21
101.700000
  0
LINE
  8
1
 62
7
  6
CONTINUOUS
 10
35.100000
 20
101.100000
 11
27.300000
 21
101.100000
  0
ARC
  8
1
 62
7
  6
CONTINUOUS
 10
27.400000
 20
101.400000
 30
0.000000
 40
0.300000
 50
108.434949
 51
-108.434949
  0
ARC
  8
1
 62
7
  6
CONTINUOUS
 10
35.500000
 20
101.400000
 30
0.000000
 40
0.500000
 50
216.869898
 51
143.130102
  0
LINE
  8
1
 62
7
  6
CONTINUOUS
 10
39.900000
 20
101.700000
 11
47.700000
 21
101.700000
  0
LINE
  8
1
 62
7
  6
CONTINUOUS
 10
39.900000
 20
101.100000
 11
47.700000
 21
101.100000
  0
ARC
  8
1
 62
7
  6
CONTINUOUS
 10
47.600000
 20
101.400000
 30
0.000000
 40
0.300000
 50
-71.565051
 51
71.565051
  0
ARC
  8
1
 62
7
  6
CONTINUOUS
 10
39.500000
 20
101.400000
 30
0.000000
 40
0.500000
 50
36.869898
 51
-36.869898
  0
CIRCLE
  8
1
 62
7
  6
CONTINUOUS
 10
37.500000
 20
108.600000
 30
0.0
 40
0.400000
  0
POLYLINE
  8
1
 62
7
  6
CONTINUOUS
 70
1
 66
1
  0
VERTEX
 10
41.500000
 20
94.400000
 30
0.000000
  8
1
 62
7
  6
CONTINUOUS
  0
VERTEX
 10
41.500000
 20
97.000000
 30
0.000000
  8
1
 62
7
  6
CONTINUOUS
  0
VERTEX
 10
33.500000
 20
97.000000
 30
0.000000
  8
1
 62
7
  6
CONTINUOUS
  0
VERTEX
 10
33.500000
 20
94.400000
 30
0.000000
  8
1
 62
7
  6
CONTINUOUS
  0
SEQEND
  0
POLYLINE
  8
1
 62
7
  6
CONTINUOUS
 70
0
 66
1
  0
VERTEX
 10
44.000000
 20
97.000000
  8
1
 62
7
  6
CONTINUOUS
  0
VERTEX
 10
31.000000
 20
93.000000
  8
1
 62
7
  6
CONTINUOUS
  0
SEQEND
  0
POLYLINE
  8
1
 62
7
  6
CONTINUOUS
 70
0
 66
1
  0
VERTEX
 10
31.000000
 20
97.000000
  8
1
 62
7
  6
CONTINUOUS
  0
VERTEX
 10
44.000000
 20
93.000000
  8
1
 62
7
  6
CONTINUOUS
  0
SEQEND
  0
POLYLINE
  8
1
 62
7
  6
CONTINUOUS
 70
0
 66
1
  0
VERTEX
 10
44.000000
 20
97.000000
  8
1
 62
7
  6
CONTINUOUS
  0
VERTEX
 10
31.000000
 20
93.000000
  8
1
 62
7
  6
CONTINUOUS
  0
SEQEND
  0
POLYLINE
  8
1
 62
7
  6
CONTINUOUS
 70
0
 66
1
  0
VERTEX
 10
31.000000
 20
97.000000
  8
1
 62
7
  6
CONTINUOUS
  0
VERTEX
 10
44.000000
 20
93.000000
  8
1
 62
7
  6
CONTINUOUS
  0
SEQEND
  0
POLYLINE
  8
1
 62
7
  6
CONTINUOUS
 70
0
 66
1
  0
VERTEX
 10
31.000000
 20
97.000000
  8
1
 62
7
  6
CONTINUOUS
  0
VERTEX
 10
44.000000
 20
93.000000
  8
1
 62
7
  6
CONTINUOUS
  0
SEQEND
  0
POLYLINE
  8
1
 62
7
  6
CONTINUOUS
 70
0
 66
1
  0
VERTEX
 10
44.000000
 20
97.000000
  8
1
 62
7
  6
CONTINUOUS
  0
VERTEX
 10
31.000000
 20
93.000000
  8
1
 62
7
  6
CONTINUOUS
  0
SEQEND
  0
POLYLINE
  8
1
 62
7
  6
CONTINUOUS
 70
0
 66
1
  0
VERTEX
 10
44.000000
 20
97.000000
  8
1
 62
7
  6
CONTINUOUS
  0
VERTEX
 10
31.000000
 20
93.000000
  8
1
 62
7
  6
CONTINUOUS
  0
SEQEND
  0
POLYLINE
  8
1
 62
7
  6
CONTINUOUS
 70
0
 66
1
  0
VERTEX
 10
31.000000
 20
97.000000
  8
1
 62
7
  6
CONTINUOUS
  0
VERTEX
 10
44.000000
 20
93.000000
  8
1
 62
7
  6
CONTINUOUS
  0
SEQEND
  0
POLYLINE
  8
1
 62
7
  6
CONTINUOUS
 70
0
 66
1
  0
VERTEX
 10
44.000000
 20
97.000000
  8
1
 62
7
  6
CONTINUOUS
  0
VERTEX
 10
31.000000
 20
93.000000
  8
1
 62
7
  6
CONTINUOUS
  0
SEQEND
  0
POLYLINE
  8
1
 62
7
  6
CONTINUOUS
 70
0
 66
1
  0
VERTEX
 10
31.000000
 20
97.000000
  8
1
 62
7
  6
CONTINUOUS
  0
VERTEX
 10
44.000000
 20
93.000000
  8
1
 62
7
  6
CONTINUOUS
  0
SEQEND
  0
POLYLINE
  8
1
 62
7
  6
CONTINUOUS
 70
0
 66
1
  0
VERTEX
 10
31.000000
 20
97.000000
  8
1
 62
7
  6
CONTINUOUS
  0
VERTEX
 10
44.000000
 20
93.000000
  8
1
 62
7
  6
CONTINUOUS
  0
SEQEND
  0
POLYLINE
  8
1
 62
7
  6
CONTINUOUS
 70
0
 66
1
  0
VERTEX
 10
44.000000
 20
97.000000
  8
1
 62
7
  6
CONTINUOUS
  0
VERTEX
 10
31.000000
 20
93.000000
  8
1
 62
7
  6
CONTINUOUS
  0
SEQEND
  0
POLYLINE
  8
1
 62
7
  6
CONTINUOUS
 70
0
 66
1
  0
VERTEX
 10
44.000000
 20
97.000000
  8
1
 62
7
  6
CONTINUOUS
  0
VERTEX
 10
31.000000
 20
93.000000
  8
1
 62
7
  6
CONTINUOUS
  0
SEQEND
  0
POLYLINE
  8
1
 62
7
  6
CONTINUOUS
 70
0
 66
1
  0
VERTEX
 10
31.000000
 20
97.000000
  8
1
 62
7
  6
CONTINUOUS
  0
VERTEX
 10
44.000000
 20
93.000000
  8
1
 62
7
  6
CONTINUOUS
  0
SEQEND
  0
POLYLINE
  8
1
 62
7
  6
CONTINUOUS
 70
0
 66
1
  0
VERTEX
 10
44.000000
 20
97.000000
  8
1
 62
7
  6
CONTINUOUS
  0
VERTEX
 10
31.000000
 20
93.000000
  8
1
 62
7
  6
CONTINUOUS
  0
SEQEND
  0
POLYLINE
  8
1
 62
7
  6
CONTINUOUS
 70
0
 66
1
  0
VERTEX
 10
31.000000
 20
97.000000
  8
1
 62
7
  6
CONTINUOUS
  0
VERTEX
 10
44.000000
 20
93.000000
  8
1
 62
7
  6
CONTINUOUS
  0
SEQEND
  0
POLYLINE
  8
1
 62
7
  6
CONTINUOUS
 70
0
 66
1
  0
VERTEX
 10
31.000000
 20
97.000000
  8
1
 62
7
  6
CONTINUOUS
  0
VERTEX
 10
44.000000
 20
93.000000
  8
1
 62
7
  6
CONTINUOUS
  0
SEQEND
  0
POLYLINE
  8
1
 62
7
  6
CONTINUOUS
 70
0
 66
1
  0
VERTEX
 10
44.000000
 20
97.000000
  8
1
 62
7
  6
CONTINUOUS
  0
VERTEX
 10
31.000000
 20
93.000000
  8
1
 62
7
  6
CONTINUOUS
  0
SEQEND
  0
POLYLINE
  8
1
 62
7
  6
CONTINUOUS
 70
0
 66
1
  0
VERTEX
 10
25.200000
 20
45.000000
  8
1
 62
7
  6
CONTINUOUS
  0
VERTEX
 10
49.800000
 20
45.000000
  8
1
 62
7
  6
CONTINUOUS
  0
SEQEND
  0
POLYLINE
  8
1
 62
7
  6
CONTINUOUS
 70
0
 66
1
  0
VERTEX
 10
25.200000
 20
90.000000
  8
1
 62
7
  6
CONTINUOUS
  0
VERTEX
 10
49.800000
 20
90.000000
  8
1
 62
7
  6
CONTINUOUS
  0
SEQEND
  0
POLYLINE
  8
1
 62
7
  6
CONTINUOUS
 70
1
 66
1
  0
VERTEX
 10
44.000000
 20
60.000000
 30
0.000000
  8
1
 62
7
  6
CONTINUOUS
  0
VERTEX
 10
44.000000
 20
56.000000
 30
0.000000
  8
1
 62
7
  6
CONTINUOUS
  0
VERTEX
 10
31.000000
 20
56.000000
 30
0.000000
  8
1
 62
7
  6
CONTINUOUS
  0
VERTEX
 10
31.000000
 20
60.000000
 30
0.000000
  8
1
 62
7
  6
CONTINUOUS
  0
SEQEND
  0
POLYLINE
  8
1
 62
7
  6
CONTINUOUS
 70
0
 66
1
  0
VERTEX
 10
37.000000
 20
89.000000
  8
1
 62
7
  6
CONTINUOUS
  0
VERTEX
 10
37.000000
 20
74.000000
  8
1
 62
7
  6
CONTINUOUS
  0
SEQEND
  0
POLYLINE
  8
1
 62
7
  6
CONTINUOUS
 70
0
 66
1
  0
VERTEX
 10
38.000000
 20
89.000000
  8
1
 62
7
  6
CONTINUOUS
  0
VERTEX
 10
38.000000
 20
74.000000
  8
1
 62
7
  6
CONTINUOUS
  0
SEQEND
  0
ARC
  8
1
 62
7
  6
CONTINUOUS
 10
37.500000
 20
88.900000
 30
0.000000
 40
0.500000
 50
11.309932
 51
168.690068
  0
ARC
  8
1
 62
7
  6
CONTINUOUS
 10
37.500000
 20
74.100000
 30
0.000000
 40
0.500000
 50
191.309932
 51
-11.309932
  0
ARC
  8
1
 62
7
  6
CONTINUOUS
 10
37.500000
 20
70.400000
 30
0.000000
 40
0.500000
 50
-11.309932
 51
191.309932
  0
ARC
  8
1
 62
7
  6
CONTINUOUS
 10
37.500000
 20
61.500000
 30
0.000000
 40
0.500000
 50
180.000000
 51
0.000000
  0
POLYLINE
  8
1
 62
7
  6
CONTINUOUS
 70
0
 66
1
  0
VERTEX
 10
37.000000
 20
70.200000
  8
1
 62
7
  6
CONTINUOUS
  0
VERTEX
 10
37.000000
 20
67.000000
  8
1
 62
7
  6
CONTINUOUS
  0
SEQEND
  0
POLYLINE
  8
1
 62
7
  6
CONTINUOUS
 70
0
 66
1
  0
VERTEX
 10
38.000000
 20
70.200000
  8
1
 62
7
  6
CONTINUOUS
  0
VERTEX
 10
38.000000
 20
67.000000
  8
1
 62
7
  6
CONTINUOUS
  0
SEQEND
  0
POLYLINE
  8
1
 62
7
  6
CONTINUOUS
 70
0
 66
1
  0
VERTEX
 10
37.000000
 20
63.800000
  8
1
 62
7
  6
CONTINUOUS
  0
VERTEX
 10
37.000000
 20
61.500000
  8
1
 62
7
  6
CONTINUOUS
  0
SEQEND
  0
POLYLINE
  8
1
 62
7
  6
CONTINUOUS
 70
0
 66
1
  0
VERTEX
 10
38.000000
 20
63.800000
  8
1
 62
7
  6
CONTINUOUS
  0
VERTEX
 10
38.000000
 20
61.500000
  8
1
 62
7
  6
CONTINUOUS
  0
SEQEND
  0
POLYLINE
  8
1
 62
7
  6
CONTINUOUS
 70
0
 66
1
  0
VERTEX
 10
36.500000
 20
67.000000
  8
1
 62
7
  6
CONTINUOUS
  0
VERTEX
 10
36.500000
 20
90.000000
  8
1
 62
7
  6
CONTINUOUS
  0
VERTEX
 10
38.500000
 20
90.000000
  8
1
 62
7
  6
CONTINUOUS
  0
VERTEX
 10
38.500000
 20
67.000000
  8
1
 62
7
  6
CONTINUOUS
  0
SEQEND
  0
POLYLINE
  8
1
 62
7
  6
CONTINUOUS
 70
0
 66
1
  0
VERTEX
 10
36.500000
 20
63.800000
  8
1
 62
7
  6
CONTINUOUS
  0
VERTEX
 10
36.500000
 20
60.000000
  8
1
 62
7
  6
CONTINUOUS
  0
SEQEND
  0
POLYLINE
  8
1
 62
7
  6
CONTINUOUS
 70
0
 66
1
  0
VERTEX
 10
38.500000
 20
63.800000
  8
1
 62
7
  6
CONTINUOUS
  0
VERTEX
 10
38.500000
 20
60.000000
  8
1
 62
7
  6
CONTINUOUS
  0
SEQEND
  0
POLYLINE
  8
1
 62
7
  6
CONTINUOUS
 70
1
 66
1
  0
VERTEX
 10
48.400000
 20
67.000000
 30
0.000000
  8
1
 62
7
  6
CONTINUOUS
  0
VERTEX
 10
48.400000
 20
63.800000
 30
0.000000
  8
1
 62
7
  6
CONTINUOUS
  0
VERTEX
 10
26.600000
 20
63.800000
 30
0.000000
  8
1
 62
7
  6
CONTINUOUS
  0
VERTEX
 10
26.600000
 20
67.000000
 30
0.000000
  8
1
 62
7
  6
CONTINUOUS
  0
SEQEND
  0
CIRCLE
  8
1
 62
7
  6
CONTINUOUS
 10
37.500000
 20
66.100000
 30
0.0
 40
0.500000
  0
LINE
  8
1
 62
7
  6
CONTINUOUS
 10
35.100000
 20
66.200000
 11
27.300000
 21
66.200000
  0
LINE
  8
1
 62
7
  6
CONTINUOUS
 10
35.100000
 20
65.600000
 11
27.300000
 21
65.600000
  0
ARC
  8
1
 62
7
  6
CONTINUOUS
 10
27.400000
 20
65.900000
 30
0.000000
 40
0.300000
 50
108.434949
 51
-108.434949
  0
ARC
  8
1
 62
7
  6
CONTINUOUS
 10
35.500000
 20
65.900000
 30
0.000000
 40
0.500000
 50
216.869898
 51
143.130102
  0
LINE
  8
1
 62
7
  6
CONTINUOUS
 10
39.900000
 20
66.200000
 11
47.700000
 21
66.200000
  0
LINE
  8
1
 62
7
  6
CONTINUOUS
 10
39.900000
 20
65.600000
 11
47.700000
 21
65.600000
  0
ARC
  8
1
 62
7
  6
CONTINUOUS
 10
47.600000
 20
65.900000
 30
0.000000
 40
0.300000
 50
-71.565051
 51
71.565051
  0
ARC
  8
1
 62
7
  6
CONTINUOUS
 10
39.500000
 20
65.900000
 30
0.000000
 40
0.500000
 50
36.869898
 51
-36.869898
  0
LINE
  8
1
 62
7
  6
CONTINUOUS
 10
35.100000
 20
64.700000
 11
27.300000
 21
64.700000
  0
LINE
  8
1
 62
7
  6
CONTINUOUS
 10
35.100000
 20
64.100000
 11
27.300000
 21
64.100000
  0
ARC
  8
1
 62
7
  6
CONTINUOUS
 10
27.400000
 20
64.400000
 30
0.000000
 40
0.300000
 50
108.434949
 51
-108.434949
  0
ARC
  8
1
 62
7
  6
CONTINUOUS
 10
35.500000
 20
64.400000
 30
0.000000
 40
0.500000
 50
216.869898
 51
143.130102
  0
LINE
  8
1
 62
7
  6
CONTINUOUS
 10
39.900000
 20
64.700000
 11
47.700000
 21
64.700000
  0
LINE
  8
1
 62
7
  6
CONTINUOUS
 10
39.900000
 20
64.100000
 11
47.700000
 21
64.100000
  0
ARC
  8
1
 62
7
  6
CONTINUOUS
 10
47.600000
 20
64.400000
 30
0.000000
 40
0.300000
 50
-71.565051
 51
71.565051
  0
ARC
  8
1
 62
7
  6
CONTINUOUS
 10
39.500000
 20
64.400000
 30
0.000000
 40
0.500000
 50
36.869898
 51
-36.869898
  0
CIRCLE
  8
1
 62
7
  6
CONTINUOUS
 10
37.500000
 20
71.600000
 30
0.0
 40
0.400000
  0
POLYLINE
  8
1
 62
7
  6
CONTINUOUS
 70
1
 66
1
  0
VERTEX
 10
41.500000
 20
57.400000
 30
0.000000
  8
1
 62
7
  6
CONTINUOUS
  0
VERTEX
 10
41.500000
 20
60.000000
 30
0.000000
  8
1
 62
7
  6
CONTINUOUS
  0
VERTEX
 10
33.500000
 20
60.000000
 30
0.000000
  8
1
 62
7
  6
CONTINUOUS
  0
VERTEX
 10
33.500000
 20
57.400000
 30
0.000000
  8
1
 62
7
  6
CONTINUOUS
  0
SEQEND
  0
POLYLINE
  8
1
 62
7
  6
CONTINUOUS
 70
0
 66
1
  0
VERTEX
 10
30.300000
 20
125.200000
  8
1
 62
7
  6
CONTINUOUS
  0
VERTEX
 10
30.300000
 20
126.300000
  8
1
 62
7
  6
CONTINUOUS
  0
SEQEND
  0
POLYLINE
  8
1
 62
7
  6
CONTINUOUS
 70
1
 66
1
  0
VERTEX
 10
48.300000
 20
129.800000
 30
0.000000
  8
1
 62
7
  6
CONTINUOUS
  0
VERTEX
 10
48.300000
 20
125.200000
 30
0.000000
  8
1
 62
7
  6
CONTINUOUS
  0
VERTEX
 10
26.700000
 20
125.200000
 30
0.000000
  8
1
 62
7
  6
CONTINUOUS
  0
VERTEX
 10
26.700000
 20
129.800000
 30
0.000000
  8
1
 62
7
  6
CONTINUOUS
  0
SEQEND
  0
POLYLINE
  8
1
 62
7
  6
CONTINUOUS
 70
0
 66
1
  0
VERTEX
 10
28.500000
 20
125.200000
  8
1
 62
7
  6
CONTINUOUS
  0
VERTEX
 10
28.500000
 20
126.300000
  8
1
 62
7
  6
CONTINUOUS
  0
SEQEND
  0
POLYLINE
  8
1
 62
7
  6
CONTINUOUS
 70
0
 66
1
  0
VERTEX
 10
33.900000
 20
125.200000
  8
1
 62
7
  6
CONTINUOUS
  0
VERTEX
 10
33.900000
 20
126.300000
  8
1
 62
7
  6
CONTINUOUS
  0
SEQEND
  0
POLYLINE
  8
1
 62
7
  6
CONTINUOUS
 70
0
 66
1
  0
VERTEX
 10
35.700000
 20
125.200000
  8
1
 62
7
  6
CONTINUOUS
  0
VERTEX
 10
35.700000
 20
126.300000
  8
1
 62
7
  6
CONTINUOUS
  0
SEQEND
  0
POLYLINE
  8
1
 62
7
  6
CONTINUOUS
 70
0
 66
1
  0
VERTEX
 10
37.500000
 20
125.200000
  8
1
 62
7
  6
CONTINUOUS
  0
VERTEX
 10
37.500000
 20
126.300000
  8
1
 62
7
  6
CONTINUOUS
  0
SEQEND
  0
POLYLINE
  8
1
 62
7
  6
CONTINUOUS
 70
0
 66
1
  0
VERTEX
 10
39.300000
 20
125.200000
  8
1
 62
7
  6
CONTINUOUS
  0
VERTEX
 10
39.300000
 20
126.300000
  8
1
 62
7
  6
CONTINUOUS
  0
SEQEND
  0
POLYLINE
  8
1
 62
7
  6
CONTINUOUS
 70
0
 66
1
  0
VERTEX
 10
41.100000
 20
125.200000
  8
1
 62
7
  6
CONTINUOUS
  0
VERTEX
 10
41.100000
 20
126.300000
  8
1
 62
7
  6
CONTINUOUS
  0
SEQEND
  0
POLYLINE
  8
1
 62
7
  6
CONTINUOUS
 70
0
 66
1
  0
VERTEX
 10
42.900000
 20
125.200000
  8
1
 62
7
  6
CONTINUOUS
  0
VERTEX
 10
42.900000
 20
126.300000
  8
1
 62
7
  6
CONTINUOUS
  0
SEQEND
  0
POLYLINE
  8
1
 62
7
  6
CONTINUOUS
 70
0
 66
1
  0
VERTEX
 10
44.700000
 20
125.200000
  8
1
 62
7
  6
CONTINUOUS
  0
VERTEX
 10
44.700000
 20
126.300000
  8
1
 62
7
  6
CONTINUOUS
  0
SEQEND
  0
POLYLINE
  8
1
 62
7
  6
CONTINUOUS
 70
0
 66
1
  0
VERTEX
 10
46.500000
 20
125.200000
  8
1
 62
7
  6
CONTINUOUS
  0
VERTEX
 10
46.500000
 20
126.300000
  8
1
 62
7
  6
CONTINUOUS
  0
SEQEND
  0
LINE
  8
1
 62
7
  6
CONTINUOUS
 10
39.200000
 20
121.000000
 11
38.700000
 21
121.000000
  0
LINE
  8
1
 62
7
  6
CONTINUOUS
 10
35.800000
 20
121.000000
 11
36.300000
 21
121.000000
  0
LINE
  8
1
 62
7
  6
CONTINUOUS
 10
37.500000
 20
121.400000
 11
37.500000
 21
120.500000
  0
CIRCLE
  8
1
 62
7
  6
CONTINUOUS
 10
37.500000
 20
121.000000
 30
0.0
 40
0.700000
  0
LINE
  8
1
 62
7
  6
L000000030000000000
 10
39.000000
 20
122.500000
 11
36.000000
 21
122.500000
  0
POLYLINE
  8
1
 62
7
  6
CONTINUOUS
 70
0
 66
1
  0
VERTEX
 10
32.100000
 20
125.200000
  8
1
 62
7
  6
CONTINUOUS
  0
VERTEX
 10
32.100000
 20
126.300000
  8
1
 62
7
  6
CONTINUOUS
  0
SEQEND
  0
LINE
  8
1
 62
7
  6
CONTINUOUS
 10
1.000000
 20
132.900000
 11
1.000000
 21
132.400000
  0
LINE
  8
1
 62
7
  6
CONTINUOUS
 10
1.000000
 20
129.500000
 11
1.000000
 21
130.000000
  0
LINE
  8
1
 62
7
  6
CONTINUOUS
 10
1.400000
 20
131.200000
 11
0.500000
 21
131.200000
  0
CIRCLE
  8
1
 62
7
  6
CONTINUOUS
 10
1.000000
 20
131.200000
 30
0.0
 40
0.700000
  0
LINE
  8
1
 62
7
  6
CONTINUOUS
 10
24.000000
 20
132.900000
 11
24.000000
 21
132.400000
  0
LINE
  8
1
 62
7
  6
CONTINUOUS
 10
24.000000
 20
129.500000
 11
24.000000
 21
130.000000
  0
LINE
  8
1
 62
7
  6
CONTINUOUS
 10
23.600000
 20
131.200000
 11
24.500000
 21
131.200000
  0
CIRCLE
  8
1
 62
7
  6
CONTINUOUS
 10
24.000000
 20
131.200000
 30
0.0
 40
0.700000
  0
LINE
  8
1
 62
7
  6
CONTINUOUS
 10
24.000000
 20
92.100000
 11
24.000000
 21
92.600000
  0
LINE
  8
1
 62
7
  6
CONTINUOUS
 10
24.000000
 20
95.500000
 11
24.000000
 21
95.000000
  0
LINE
  8
1
 62
7
  6
CONTINUOUS
 10
23.600000
 20
93.800000
 11
24.500000
 21
93.800000
  0
CIRCLE
  8
1
 62
7
  6
CONTINUOUS
 10
24.000000
 20
93.800000
 30
0.0
 40
0.700000
  0
LINE
  8
1
 62
7
  6
CONTINUOUS
 10
1.000000
 20
92.100000
 11
1.000000
 21
92.600000
  0
LINE
  8
1
 62
7
  6
CONTINUOUS
 10
1.000000
 20
95.500000
 11
1.000000
 21
95.000000
  0
LINE
  8
1
 62
7
  6
CONTINUOUS
 10
1.400000
 20
93.800000
 11
0.500000
 21
93.800000
  0
CIRCLE
  8
1
 62
7
  6
CONTINUOUS
 10
1.000000
 20
93.800000
 30
0.0
 40
0.700000
  0
POLYLINE
  8
1
 62
7
  6
L014100020032000000
 70
1
 66
1
  0
VERTEX
 10
24.500000
 20
58.500000
 30
0.000000
  8
1
 62
7
  6
L014100020032000000
  0
VERTEX
 10
24.500000
 20
75.500000
 30
0.000000
  8
1
 62
7
  6
L014100020032000000
  0
VERTEX
 10
0.300000
 20
75.500000
 30
0.000000
  8
1
 62
7
  6
L014100020032000000
  0
VERTEX
 10
0.300000
 20
58.500000
 30
0.000000
  8
1
 62
7
  6
L014100020032000000
  0
SEQEND
  0
LINE
  8
1
 62
7
  6
CONTINUOUS
 10
24.000000
 20
47.100000
 11
24.000000
 21
47.600000
  0
LINE
  8
1
 62
7
  6
CONTINUOUS
 10
24.000000
 20
50.500000
 11
24.000000
 21
50.000000
  0
LINE
  8
1
 62
7
  6
CONTINUOUS
 10
23.600000
 20
48.800000
 11
24.500000
 21
48.800000
  0
CIRCLE
  8
1
 62
7
  6
CONTINUOUS
 10
24.000000
 20
48.800000
 30
0.0
 40
0.700000
  0
LINE
  8
1
 62
7
  6
CONTINUOUS
 10
1.000000
 20
47.100000
 11
1.000000
 21
47.600000
  0
LINE
  8
1
 62
7
  6
CONTINUOUS
 10
1.000000
 20
50.500000
 11
1.000000
 21
50.000000
  0
LINE
  8
1
 62
7
  6
CONTINUOUS
 10
1.400000
 20
48.800000
 11
0.500000
 21
48.800000
  0
CIRCLE
  8
1
 62
7
  6
CONTINUOUS
 10
1.000000
 20
48.800000
 30
0.0
 40
0.700000
  0
LINE
  8
1
 62
7
  6
CONTINUOUS
 10
1.000000
 20
87.900000
 11
1.000000
 21
87.400000
  0
LINE
  8
1
 62
7
  6
CONTINUOUS
 10
1.000000
 20
84.500000
 11
1.000000
 21
85.000000
  0
LINE
  8
1
 62
7
  6
CONTINUOUS
 10
1.400000
 20
86.200000
 11
0.500000
 21
86.200000
  0
CIRCLE
  8
1
 62
7
  6
CONTINUOUS
 10
1.000000
 20
86.200000
 30
0.0
 40
0.700000
  0
LINE
  8
1
 62
7
  6
CONTINUOUS
 10
24.000000
 20
87.900000
 11
24.000000
 21
87.400000
  0
LINE
  8
1
 62
7
  6
CONTINUOUS
 10
24.000000
 20
84.500000
 11
24.000000
 21
85.000000
  0
LINE
  8
1
 62
7
  6
CONTINUOUS
 10
23.600000
 20
86.200000
 11
24.500000
 21
86.200000
  0
CIRCLE
  8
1
 62
7
  6
CONTINUOUS
 10
24.000000
 20
86.200000
 30
0.0
 40
0.700000
  0
POLYLINE
  8
1
 62
7
  6
CONTINUOUS
 70
1
 66
1
  0
VERTEX
 10
22.100000
 20
118.000000
 30
0.000000
  8
1
 62
7
  6
CONTINUOUS
  0
VERTEX
 10
22.100000
 20
95.000000
 30
0.000000
  8
1
 62
7
  6
CONTINUOUS
  0
VERTEX
 10
2.700000
 20
95.000000
 30
0.000000
  8
1
 62
7
  6
CONTINUOUS
  0
VERTEX
 10
2.700000
 20
118.000000
 30
0.000000
  8
1
 62
7
  6
CONTINUOUS
  0
SEQEND
  0
LINE
  8
1
 62
7
  6
L000000000000000000
 10
12.400000
 20
95.000000
 11
12.400000
 21
95.200000
  0
LINE
  8
1
 62
7
  6
L014100020032000000
 10
49.800000
 20
38.800000
 11
25.200000
 21
38.800000
  0
LINE
  8
1
 62
7
  6
CONTINUOUS
 10
1.000000
 20
42.900000
 11
1.000000
 21
42.400000
  0
LINE
  8
1
 62
7
  6
CONTINUOUS
 10
1.000000
 20
39.500000
 11
1.000000
 21
40.000000
  0
LINE
  8
1
 62
7
  6
CONTINUOUS
 10
1.400000
 20
41.200000
 11
0.500000
 21
41.200000
  0
CIRCLE
  8
1
 62
7
  6
CONTINUOUS
 10
1.000000
 20
41.200000
 30
0.0
 40
0.700000
  0
LINE
  8
1
 62
7
  6
CONTINUOUS
 10
24.000000
 20
42.900000
 11
24.000000
 21
42.400000
  0
LINE
  8
1
 62
7
  6
CONTINUOUS
 10
24.000000
 20
39.500000
 11
24.000000
 21
40.000000
  0
LINE
  8
1
 62
7
  6
CONTINUOUS
 10
23.600000
 20
41.200000
 11
24.500000
 21
41.200000
  0
CIRCLE
  8
1
 62
7
  6
CONTINUOUS
 10
24.000000
 20
41.200000
 30
0.0
 40
0.700000
  0
LINE
  8
1
 62
7
  6
L014100020032000000
 10
49.800000
 20
38.000000
 11
25.200000
 21
38.000000
  0
LINE
  8
1
 62
7
  6
L014100020032000000
 10
49.800000
 20
36.200000
 11
25.200000
 21
36.200000
  0
LINE
  8
1
 62
7
  6
L014100020032000000
 10
49.800000
 20
37.000000
 11
25.200000
 21
37.000000
  0
LINE
  8
1
 62
7
  6
L014100020032000000
 10
25.200000
 20
36.200000
 11
25.200000
 21
38.800000
  0
LINE
  8
1
 62
7
  6
L014100020032000000
 10
49.800000
 20
36.200000
 11
49.800000
 21
38.800000
  0
LINE
  8
1
 62
7
  6
CONTINUOUS
 10
26.000000
 20
42.900000
 11
26.000000
 21
42.400000
  0
LINE
  8
1
 62
7
  6
CONTINUOUS
 10
26.000000
 20
39.500000
 11
26.000000
 21
40.000000
  0
LINE
  8
1
 62
7
  6
CONTINUOUS
 10
26.400000
 20
41.200000
 11
25.500000
 21
41.200000
  0
CIRCLE
  8
1
 62
7
  6
CONTINUOUS
 10
26.000000
 20
41.200000
 30
0.0
 40
0.700000
  0
LINE
  8
1
 62
7
  6
CONTINUOUS
 10
49.000000
 20
42.900000
 11
49.000000
 21
42.400000
  0
LINE
  8
1
 62
7
  6
CONTINUOUS
 10
49.000000
 20
39.500000
 11
49.000000
 21
40.000000
  0
LINE
  8
1
 62
7
  6
CONTINUOUS
 10
48.600000
 20
41.200000
 11
49.500000
 21
41.200000
  0
CIRCLE
  8
1
 62
7
  6
CONTINUOUS
 10
49.000000
 20
41.200000
 30
0.0
 40
0.700000
  0
LINE
  8
1
 62
7
  6
CONTINUOUS
 10
24.000000
 20
2.100000
 11
24.000000
 21
2.600000
  0
LINE
  8
1
 62
7
  6
CONTINUOUS
 10
24.000000
 20
5.500000
 11
24.000000
 21
5.000000
  0
LINE
  8
1
 62
7
  6
CONTINUOUS
 10
23.600000
 20
3.800000
 11
24.500000
 21
3.800000
  0
CIRCLE
  8
1
 62
7
  6
CONTINUOUS
 10
24.000000
 20
3.800000
 30
0.0
 40
0.700000
  0
LINE
  8
1
 62
7
  6
CONTINUOUS
 10
1.000000
 20
2.100000
 11
1.000000
 21
2.600000
  0
LINE
  8
1
 62
7
  6
CONTINUOUS
 10
1.000000
 20
5.500000
 11
1.000000
 21
5.000000
  0
LINE
  8
1
 62
7
  6
CONTINUOUS
 10
1.400000
 20
3.800000
 11
0.500000
 21
3.800000
  0
CIRCLE
  8
1
 62
7
  6
CONTINUOUS
 10
1.000000
 20
3.800000
 30
0.0
 40
0.700000
  0
LINE
  8
1
 62
7
  6
CONTINUOUS
 10
26.000000
 20
27.900000
 11
26.000000
 21
27.400000
  0
LINE
  8
1
 62
7
  6
CONTINUOUS
 10
26.000000
 20
24.500000
 11
26.000000
 21
25.000000
  0
LINE
  8
1
 62
7
  6
CONTINUOUS
 10
25.600000
 20
26.200000
 11
26.500000
 21
26.200000
  0
CIRCLE
  8
1
 62
7
  6
CONTINUOUS
 10
26.000000
 20
26.200000
 30
0.0
 40
0.700000
  0
LINE
  8
1
 62
7
  6
CONTINUOUS
 10
26.000000
 20
27.900000
 11
26.000000
 21
27.400000
  0
LINE
  8
1
 62
7
  6
CONTINUOUS
 10
26.000000
 20
24.500000
 11
26.000000
 21
25.000000
  0
LINE
  8
1
 62
7
  6
CONTINUOUS
 10
25.600000
 20
26.200000
 11
26.500000
 21
26.200000
  0
CIRCLE
  8
1
 62
7
  6
CONTINUOUS
 10
26.000000
 20
26.200000
 30
0.0
 40
0.700000
  0
LINE
  8
1
 62
7
  6
CONTINUOUS
 10
26.000000
 20
2.100000
 11
26.000000
 21
2.600000
  0
LINE
  8
1
 62
7
  6
CONTINUOUS
 10
26.000000
 20
5.500000
 11
26.000000
 21
5.000000
  0
LINE
  8
1
 62
7
  6
CONTINUOUS
 10
25.600000
 20
3.800000
 11
26.500000
 21
3.800000
  0
CIRCLE
  8
1
 62
7
  6
CONTINUOUS
 10
26.000000
 20
3.800000
 30
0.0
 40
0.700000
  0
LINE
  8
1
 62
7
  6
CONTINUOUS
 10
49.000000
 20
27.900000
 11
49.000000
 21
27.400000
  0
LINE
  8
1
 62
7
  6
CONTINUOUS
 10
49.000000
 20
24.500000
 11
49.000000
 21
25.000000
  0
LINE
  8
1
 62
7
  6
CONTINUOUS
 10
48.600000
 20
26.200000
 11
49.500000
 21
26.200000
  0
CIRCLE
  8
1
 62
7
  6
CONTINUOUS
 10
49.000000
 20
26.200000
 30
0.0
 40
0.700000
  0
LINE
  8
1
 62
7
  6
CONTINUOUS
 10
49.000000
 20
27.900000
 11
49.000000
 21
27.400000
  0
LINE
  8
1
 62
7
  6
CONTINUOUS
 10
49.000000
 20
24.500000
 11
49.000000
 21
25.000000
  0
LINE
  8
1
 62
7
  6
CONTINUOUS
 10
48.600000
 20
26.200000
 11
49.500000
 21
26.200000
  0
CIRCLE
  8
1
 62
7
  6
CONTINUOUS
 10
49.000000
 20
26.200000
 30
0.0
 40
0.700000
  0
LINE
  8
1
 62
7
  6
CONTINUOUS
 10
49.000000
 20
2.100000
 11
49.000000
 21
2.600000
  0
LINE
  8
1
 62
7
  6
CONTINUOUS
 10
49.000000
 20
5.500000
 11
49.000000
 21
5.000000
  0
LINE
  8
1
 62
7
  6
CONTINUOUS
 10
48.600000
 20
3.800000
 11
49.500000
 21
3.800000
  0
CIRCLE
  8
1
 62
7
  6
CONTINUOUS
 10
49.000000
 20
3.800000
 30
0.0
 40
0.700000
  0
POLYLINE
  8
57
 62
7
  6
L00A100020014000000
 70
1
 66
1
  0
VERTEX
 10
16.000000
 20
75.700000
 30
0.000000
  8
57
 62
7
  6
L00A100020014000000
  0
VERTEX
 10
16.000000
 20
91.800000
 30
0.000000
  8
57
 62
7
  6
L00A100020014000000
  0
VERTEX
 10
14.000000
 20
91.800000
 30
0.000000
  8
57
 62
7
  6
L00A100020014000000
  0
VERTEX
 10
14.000000
 20
75.700000
 30
0.000000
  8
57
 62
7
  6
L00A100020014000000
  0
SEQEND
  0
POLYLINE
  8
57
 62
7
  6
L00A100020014000000
 70
1
 66
1
  0
VERTEX
 10
11.100000
 20
75.600000
 30
0.000000
  8
57
 62
7
  6
L00A100020014000000
  0
VERTEX
 10
11.100000
 20
91.800000
 30
0.000000
  8
57
 62
7
  6
L00A100020014000000
  0
VERTEX
 10
9.100000
 20
91.800000
 30
0.000000
  8
57
 62
7
  6
L00A100020014000000
  0
VERTEX
 10
9.100000
 20
75.600000
 30
0.000000
  8
57
 62
7
  6
L00A100020014000000
  0
SEQEND
  0
POLYLINE
  8
57
 62
7
  6
L014100020032000000
 70
1
 66
1
  0
VERTEX
 10
49.100000
 20
7.700000
 30
0.000000
  8
57
 62
7
  6
L014100020032000000
  0
VERTEX
 10
49.100000
 20
8.900000
 30
0.000000
  8
57
 62
7
  6
L014100020032000000
  0
VERTEX
 10
0.900000
 20
8.900000
 30
0.000000
  8
57
 62
7
  6
L014100020032000000
  0
VERTEX
 10
0.900000
 20
7.700000
 30
0.000000
  8
57
 62
7
  6
L014100020032000000
  0
SEQEND
  0
POLYLINE
  8
57
 62
7
  6
L014100020032000000
 70
1
 66
1
  0
VERTEX
 10
49.100000
 20
23.700000
 30
0.000000
  8
57
 62
7
  6
L014100020032000000
  0
VERTEX
 10
49.100000
 20
24.900000
 30
0.000000
  8
57
 62
7
  6
L014100020032000000
  0
VERTEX
 10
0.900000
 20
24.900000
 30
0.000000
  8
57
 62
7
  6
L014100020032000000
  0
VERTEX
 10
0.900000
 20
23.700000
 30
0.000000
  8
57
 62
7
  6
L014100020032000000
  0
SEQEND
  0
POLYLINE
  8
57
 62
7
  6
L014100020032000000
 70
1
 66
1
  0
VERTEX
 10
49.100000
 20
19.700000
 30
0.000000
  8
57
 62
7
  6
L014100020032000000
  0
VERTEX
 10
49.100000
 20
20.900000
 30
0.000000
  8
57
 62
7
  6
L014100020032000000
  0
VERTEX
 10
0.900000
 20
20.900000
 30
0.000000
  8
57
 62
7
  6
L014100020032000000
  0
VERTEX
 10
0.900000
 20
19.700000
 30
0.000000
  8
57
 62
7
  6
L014100020032000000
  0
SEQEND
  0
POLYLINE
  8
57
 62
7
  6
L014100020032000000
 70
1
 66
1
  0
VERTEX
 10
49.100000
 20
15.700000
 30
0.000000
  8
57
 62
7
  6
L014100020032000000
  0
VERTEX
 10
49.100000
 20
16.900000
 30
0.000000
  8
57
 62
7
  6
L014100020032000000
  0
VERTEX
 10
0.900000
 20
16.900000
 30
0.000000
  8
57
 62
7
  6
L014100020032000000
  0
VERTEX
 10
0.900000
 20
15.700000
 30
0.000000
  8
57
 62
7
  6
L014100020032000000
  0
SEQEND
  0
POLYLINE
  8
57
 62
7
  6
L014100020032000000
 70
1
 66
1
  0
VERTEX
 10
49.100000
 20
11.700000
 30
0.000000
  8
57
 62
7
  6
L014100020032000000
  0
VERTEX
 10
49.100000
 20
12.900000
 30
0.000000
  8
57
 62
7
  6
L014100020032000000
  0
VERTEX
 10
0.900000
 20
12.900000
 30
0.000000
  8
57
 62
7
  6
L014100020032000000
  0
VERTEX
 10
0.900000
 20
11.700000
 30
0.000000
  8
57
 62
7
  6
L014100020032000000
  0
SEQEND
  0
POLYLINE
  8
57
 62
7
  6
L00A100020014000000
 70
1
 66
1
  0
VERTEX
 10
16.000000
 20
23.600000
 30
0.000000
  8
57
 62
7
  6
L00A100020014000000
  0
VERTEX
 10
16.000000
 20
58.500000
 30
0.000000
  8
57
 62
7
  6
L00A100020014000000
  0
VERTEX
 10
14.000000
 20
58.500000
 30
0.000000
  8
57
 62
7
  6
L00A100020014000000
  0
VERTEX
 10
14.000000
 20
23.600000
 30
0.000000
  8
57
 62
7
  6
L00A100020014000000
  0
SEQEND
  0
POLYLINE
  8
57
 62
7
  6
L00A100020014000000
 70
1
 66
1
  0
VERTEX
 10
11.100000
 20
7.700000
 30
0.000000
  8
57
 62
7
  6
L00A100020014000000
  0
VERTEX
 10
11.100000
 20
58.500000
 30
0.000000
  8
57
 62
7
  6
L00A100020014000000
  0
VERTEX
 10
9.100000
 20
58.500000
 30
0.000000
  8
57
 62
7
  6
L00A100020014000000
  0
VERTEX
 10
9.100000
 20
7.700000
 30
0.000000
  8
57
 62
7
  6
L00A100020014000000
  0
SEQEND
  0
POLYLINE
  8
29
 62
7
  6
CONTINUOUS
 70
1
 66
1
  0
VERTEX
 10
49.800000
 20
0.200000
 30
0.000000
  8
29
 62
7
  6
CONTINUOUS
  0
VERTEX
 10
49.800000
 20
134.800000
 30
0.000000
  8
29
 62
7
  6
CONTINUOUS
  0
VERTEX
 10
0.200000
 20
134.800000
 30
0.000000
  8
29
 62
7
  6
CONTINUOUS
  0
VERTEX
 10
0.200000
 20
0.200000
 30
0.000000
  8
29
 62
7
  6
CONTINUOUS
  0
SEQEND
  0
POLYLINE
  8
29
 62
7
  6
CONTINUOUS
 70
0
 66
1
  0
VERTEX
 10
25.000000
 20
0.200000
  8
29
 62
7
  6
CONTINUOUS
  0
VERTEX
 10
25.000000
 20
134.800000
  8
29
 62
7
  6
CONTINUOUS
  0
SEQEND
  0
POLYLINE
  8
29
 62
7
  6
CONTINUOUS
 70
0
 66
1
  0
VERTEX
 10
0.200000
 20
90.000000
  8
29
 62
7
  6
CONTINUOUS
  0
VERTEX
 10
25.000000
 20
90.000000
  8
29
 62
7
  6
CONTINUOUS
  0
SEQEND
  0
POLYLINE
  8
29
 62
7
  6
CONTINUOUS
 70
0
 66
1
  0
VERTEX
 10
0.200000
 20
45.000000
  8
29
 62
7
  6
CONTINUOUS
  0
VERTEX
 10
25.000000
 20
45.000000
  8
29
 62
7
  6
CONTINUOUS
  0
SEQEND
  0
POLYLINE
  8
29
 62
7
  6
CONTINUOUS
 70
1
 66
1
  0
VERTEX
 10
44.000000
 20
97.000000
 30
0.000000
  8
29
 62
7
  6
CONTINUOUS
  0
VERTEX
 10
44.000000
 20
93.000000
 30
0.000000
  8
29
 62
7
  6
CONTINUOUS
  0
VERTEX
 10
31.000000
 20
93.000000
 30
0.000000
  8
29
 62
7
  6
CONTINUOUS
  0
VERTEX
 10
31.000000
 20
97.000000
 30
0.000000
  8
29
 62
7
  6
CONTINUOUS
  0
SEQEND
  0
POLYLINE
  8
29
 62
7
  6
CONTINUOUS
 70
0
 66
1
  0
VERTEX
 10
37.000000
 20
118.400000
  8
29
 62
7
  6
CONTINUOUS
  0
VERTEX
 10
37.000000
 20
111.000000
  8
29
 62
7
  6
CONTINUOUS
  0
SEQEND
  0
POLYLINE
  8
29
 62
7
  6
CONTINUOUS
 70
0
 66
1
  0
VERTEX
 10
38.000000
 20
118.400000
  8
29
 62
7
  6
CONTINUOUS
  0
VERTEX
 10
38.000000
 20
111.000000
  8
29
 62
7
  6
CONTINUOUS
  0
SEQEND
  0
ARC
  8
29
 62
7
  6
CONTINUOUS
 10
37.500000
 20
118.500000
 30
0.000000
 40
0.500000
 50
11.309932
 51
168.690068
  0
ARC
  8
29
 62
7
  6
CONTINUOUS
 10
37.500000
 20
111.100000
 30
0.000000
 40
0.500000
 50
191.309932
 51
-11.309932
  0
ARC
  8
29
 62
7
  6
CONTINUOUS
 10
37.500000
 20
107.400000
 30
0.000000
 40
0.500000
 50
-11.309932
 51
191.309932
  0
ARC
  8
29
 62
7
  6
CONTINUOUS
 10
37.500000
 20
98.500000
 30
0.000000
 40
0.500000
 50
180.000000
 51
0.000000
  0
POLYLINE
  8
29
 62
7
  6
CONTINUOUS
 70
0
 66
1
  0
VERTEX
 10
37.000000
 20
107.200000
  8
29
 62
7
  6
CONTINUOUS
  0
VERTEX
 10
37.000000
 20
104.000000
  8
29
 62
7
  6
CONTINUOUS
  0
SEQEND
  0
POLYLINE
  8
29
 62
7
  6
CONTINUOUS
 70
0
 66
1
  0
VERTEX
 10
38.000000
 20
107.200000
  8
29
 62
7
  6
CONTINUOUS
  0
VERTEX
 10
38.000000
 20
104.000000
  8
29
 62
7
  6
CONTINUOUS
  0
SEQEND
  0
POLYLINE
  8
29
 62
7
  6
CONTINUOUS
 70
0
 66
1
  0
VERTEX
 10
37.000000
 20
100.800000
  8
29
 62
7
  6
CONTINUOUS
  0
VERTEX
 10
37.000000
 20
98.500000
  8
29
 62
7
  6
CONTINUOUS
  0
SEQEND
  0
POLYLINE
  8
29
 62
7
  6
CONTINUOUS
 70
0
 66
1
  0
VERTEX
 10
38.000000
 20
100.800000
  8
29
 62
7
  6
CONTINUOUS
  0
VERTEX
 10
38.000000
 20
98.500000
  8
29
 62
7
  6
CONTINUOUS
  0
SEQEND
  0
POLYLINE
  8
29
 62
7
  6
CONTINUOUS
 70
0
 66
1
  0
VERTEX
 10
36.500000
 20
104.000000
  8
29
 62
7
  6
CONTINUOUS
  0
VERTEX
 10
36.500000
 20
120.000000
  8
29
 62
7
  6
CONTINUOUS
  0
VERTEX
 10
38.500000
 20
120.000000
  8
29
 62
7
  6
CONTINUOUS
  0
VERTEX
 10
38.500000
 20
104.000000
  8
29
 62
7
  6
CONTINUOUS
  0
SEQEND
  0
POLYLINE
  8
29
 62
7
  6
CONTINUOUS
 70
0
 66
1
  0
VERTEX
 10
36.500000
 20
100.800000
  8
29
 62
7
  6
CONTINUOUS
  0
VERTEX
 10
36.500000
 20
97.000000
  8
29
 62
7
  6
CONTINUOUS
  0
SEQEND
  0
POLYLINE
  8
29
 62
7
  6
CONTINUOUS
 70
0
 66
1
  0
VERTEX
 10
38.500000
 20
100.800000
  8
29
 62
7
  6
CONTINUOUS
  0
VERTEX
 10
38.500000
 20
97.000000
  8
29
 62
7
  6
CONTINUOUS
  0
SEQEND
  0
POLYLINE
  8
29
 62
7
  6
CONTINUOUS
 70
1
 66
1
  0
VERTEX
 10
48.400000
 20
104.000000
 30
0.000000
  8
29
 62
7
  6
CONTINUOUS
  0
VERTEX
 10
48.400000
 20
100.800000
 30
0.000000
  8
29
 62
7
  6
CONTINUOUS
  0
VERTEX
 10
26.600000
 20
100.800000
 30
0.000000
  8
29
 62
7
  6
CONTINUOUS
  0
VERTEX
 10
26.600000
 20
104.000000
 30
0.000000
  8
29
 62
7
  6
CONTINUOUS
  0
SEQEND
  0
CIRCLE
  8
29
 62
7
  6
CONTINUOUS
 10
37.500000
 20
103.100000
 30
0.0
 40
0.500000
  0
LINE
  8
29
 62
7
  6
CONTINUOUS
 10
35.100000
 20
103.200000
 11
27.300000
 21
103.200000
  0
LINE
  8
29
 62
7
  6
CONTINUOUS
 10
35.100000
 20
102.600000
 11
27.300000
 21
102.600000
  0
ARC
  8
29
 62
7
  6
CONTINUOUS
 10
27.400000
 20
102.900000
 30
0.000000
 40
0.300000
 50
108.434949
 51
-108.434949
  0
ARC
  8
29
 62
7
  6
CONTINUOUS
 10
35.500000
 20
102.900000
 30
0.000000
 40
0.500000
 50
216.869898
 51
143.130102
  0
LINE
  8
29
 62
7
  6
CONTINUOUS
 10
39.900000
 20
103.200000
 11
47.700000
 21
103.200000
  0
LINE
  8
29
 62
7
  6
CONTINUOUS
 10
39.900000
 20
102.600000
 11
47.700000
 21
102.600000
  0
ARC
  8
29
 62
7
  6
CONTINUOUS
 10
47.600000
 20
102.900000
 30
0.000000
 40
0.300000
 50
-71.565051
 51
71.565051
  0
ARC
  8
29
 62
7
  6
CONTINUOUS
 10
39.500000
 20
102.900000
 30
0.000000
 40
0.500000
 50
36.869898
 51
-36.869898
  0
LINE
  8
29
 62
7
  6
CONTINUOUS
 10
35.100000
 20
101.700000
 11
27.300000
 21
101.700000
  0
LINE
  8
29
 62
7
  6
CONTINUOUS
 10
35.100000
 20
101.100000
 11
27.300000
 21
101.100000
  0
ARC
  8
29
 62
7
  6
CONTINUOUS
 10
27.400000
 20
101.400000
 30
0.000000
 40
0.300000
 50
108.434949
 51
-108.434949
  0
ARC
  8
29
 62
7
  6
CONTINUOUS
 10
35.500000
 20
101.400000
 30
0.000000
 40
0.500000
 50
216.869898
 51
143.130102
  0
LINE
  8
29
 62
7
  6
CONTINUOUS
 10
39.900000
 20
101.700000
 11
47.700000
 21
101.700000
  0
LINE
  8
29
 62
7
  6
CONTINUOUS
 10
39.900000
 20
101.100000
 11
47.700000
 21
101.100000
  0
ARC
  8
29
 62
7
  6
CONTINUOUS
 10
47.600000
 20
101.400000
 30
0.000000
 40
0.300000
 50
-71.565051
 51
71.565051
  0
ARC
  8
29
 62
7
  6
CONTINUOUS
 10
39.500000
 20
101.400000
 30
0.000000
 40
0.500000
 50
36.869898
 51
-36.869898
  0
CIRCLE
  8
29
 62
7
  6
CONTINUOUS
 10
37.500000
 20
108.600000
 30
0.0
 40
0.400000
  0
POLYLINE
  8
29
 62
7
  6
CONTINUOUS
 70
1
 66
1
  0
VERTEX
 10
41.500000
 20
94.400000
 30
0.000000
  8
29
 62
7
  6
CONTINUOUS
  0
VERTEX
 10
41.500000
 20
97.000000
 30
0.000000
  8
29
 62
7
  6
CONTINUOUS
  0
VERTEX
 10
33.500000
 20
97.000000
 30
0.000000
  8
29
 62
7
  6
CONTINUOUS
  0
VERTEX
 10
33.500000
 20
94.400000
 30
0.000000
  8
29
 62
7
  6
CONTINUOUS
  0
SEQEND
  0
POLYLINE
  8
29
 62
7
  6
CONTINUOUS
 70
0
 66
1
  0
VERTEX
 10
44.000000
 20
97.000000
  8
29
 62
7
  6
CONTINUOUS
  0
VERTEX
 10
31.000000
 20
93.000000
  8
29
 62
7
  6
CONTINUOUS
  0
SEQEND
  0
POLYLINE
  8
29
 62
7
  6
CONTINUOUS
 70
0
 66
1
  0
VERTEX
 10
31.000000
 20
97.000000
  8
29
 62
7
  6
CONTINUOUS
  0
VERTEX
 10
44.000000
 20
93.000000
  8
29
 62
7
  6
CONTINUOUS
  0
SEQEND
  0
POLYLINE
  8
29
 62
7
  6
CONTINUOUS
 70
0
 66
1
  0
VERTEX
 10
44.000000
 20
97.000000
  8
29
 62
7
  6
CONTINUOUS
  0
VERTEX
 10
31.000000
 20
93.000000
  8
29
 62
7
  6
CONTINUOUS
  0
SEQEND
  0
POLYLINE
  8
29
 62
7
  6
CONTINUOUS
 70
0
 66
1
  0
VERTEX
 10
31.000000
 20
97.000000
  8
29
 62
7
  6
CONTINUOUS
  0
VERTEX
 10
44.000000
 20
93.000000
  8
29
 62
7
  6
CONTINUOUS
  0
SEQEND
  0
POLYLINE
  8
29
 62
7
  6
CONTINUOUS
 70
0
 66
1
  0
VERTEX
 10
31.000000
 20
97.000000
  8
29
 62
7
  6
CONTINUOUS
  0
VERTEX
 10
44.000000
 20
93.000000
  8
29
 62
7
  6
CONTINUOUS
  0
SEQEND
  0
POLYLINE
  8
29
 62
7
  6
CONTINUOUS
 70
0
 66
1
  0
VERTEX
 10
44.000000
 20
97.000000
  8
29
 62
7
  6
CONTINUOUS
  0
VERTEX
 10
31.000000
 20
93.000000
  8
29
 62
7
  6
CONTINUOUS
  0
SEQEND
  0
POLYLINE
  8
29
 62
7
  6
CONTINUOUS
 70
0
 66
1
  0
VERTEX
 10
44.000000
 20
97.000000
  8
29
 62
7
  6
CONTINUOUS
  0
VERTEX
 10
31.000000
 20
93.000000
  8
29
 62
7
  6
CONTINUOUS
  0
SEQEND
  0
POLYLINE
  8
29
 62
7
  6
CONTINUOUS
 70
0
 66
1
  0
VERTEX
 10
31.000000
 20
97.000000
  8
29
 62
7
  6
CONTINUOUS
  0
VERTEX
 10
44.000000
 20
93.000000
  8
29
 62
7
  6
CONTINUOUS
  0
SEQEND
  0
POLYLINE
  8
29
 62
7
  6
CONTINUOUS
 70
0
 66
1
  0
VERTEX
 10
44.000000
 20
97.000000
  8
29
 62
7
  6
CONTINUOUS
  0
VERTEX
 10
31.000000
 20
93.000000
  8
29
 62
7
  6
CONTINUOUS
  0
SEQEND
  0
POLYLINE
  8
29
 62
7
  6
CONTINUOUS
 70
0
 66
1
  0
VERTEX
 10
31.000000
 20
97.000000
  8
29
 62
7
  6
CONTINUOUS
  0
VERTEX
 10
44.000000
 20
93.000000
  8
29
 62
7
  6
CONTINUOUS
  0
SEQEND
  0
POLYLINE
  8
29
 62
7
  6
CONTINUOUS
 70
0
 66
1
  0
VERTEX
 10
31.000000
 20
97.000000
  8
29
 62
7
  6
CONTINUOUS
  0
VERTEX
 10
44.000000
 20
93.000000
  8
29
 62
7
  6
CONTINUOUS
  0
SEQEND
  0
POLYLINE
  8
29
 62
7
  6
CONTINUOUS
 70
0
 66
1
  0
VERTEX
 10
44.000000
 20
97.000000
  8
29
 62
7
  6
CONTINUOUS
  0
VERTEX
 10
31.000000
 20
93.000000
  8
29
 62
7
  6
CONTINUOUS
  0
SEQEND
  0
POLYLINE
  8
29
 62
7
  6
CONTINUOUS
 70
0
 66
1
  0
VERTEX
 10
44.000000
 20
97.000000
  8
29
 62
7
  6
CONTINUOUS
  0
VERTEX
 10
31.000000
 20
93.000000
  8
29
 62
7
  6
CONTINUOUS
  0
SEQEND
  0
POLYLINE
  8
29
 62
7
  6
CONTINUOUS
 70
0
 66
1
  0
VERTEX
 10
31.000000
 20
97.000000
  8
29
 62
7
  6
CONTINUOUS
  0
VERTEX
 10
44.000000
 20
93.000000
  8
29
 62
7
  6
CONTINUOUS
  0
SEQEND
  0
POLYLINE
  8
29
 62
7
  6
CONTINUOUS
 70
0
 66
1
  0
VERTEX
 10
44.000000
 20
97.000000
  8
29
 62
7
  6
CONTINUOUS
  0
VERTEX
 10
31.000000
 20
93.000000
  8
29
 62
7
  6
CONTINUOUS
  0
SEQEND
  0
POLYLINE
  8
29
 62
7
  6
CONTINUOUS
 70
0
 66
1
  0
VERTEX
 10
31.000000
 20
97.000000
  8
29
 62
7
  6
CONTINUOUS
  0
VERTEX
 10
44.000000
 20
93.000000
  8
29
 62
7
  6
CONTINUOUS
  0
SEQEND
  0
POLYLINE
  8
29
 62
7
  6
CONTINUOUS
 70
0
 66
1
  0
VERTEX
 10
31.000000
 20
97.000000
  8
29
 62
7
  6
CONTINUOUS
  0
VERTEX
 10
44.000000
 20
93.000000
  8
29
 62
7
  6
CONTINUOUS
  0
SEQEND
  0
POLYLINE
  8
29
 62
7
  6
CONTINUOUS
 70
0
 66
1
  0
VERTEX
 10
44.000000
 20
97.000000
  8
29
 62
7
  6
CONTINUOUS
  0
VERTEX
 10
31.000000
 20
93.000000
  8
29
 62
7
  6
CONTINUOUS
  0
SEQEND
  0
POLYLINE
  8
29
 62
7
  6
CONTINUOUS
 70
0
 66
1
  0
VERTEX
 10
25.200000
 20
120.000000
  8
29
 62
7
  6
CONTINUOUS
  0
VERTEX
 10
50.000000
 20
120.000000
  8
29
 62
7
  6
CONTINUOUS
  0
SEQEND
  0
POLYLINE
  8
29
 62
7
  6
CONTINUOUS
 70
0
 66
1
  0
VERTEX
 10
25.200000
 20
45.000000
  8
29
 62
7
  6
CONTINUOUS
  0
VERTEX
 10
49.800000
 20
45.000000
  8
29
 62
7
  6
CONTINUOUS
  0
SEQEND
  0
POLYLINE
  8
29
 62
7
  6
CONTINUOUS
 70
0
 66
1
  0
VERTEX
 10
25.200000
 20
90.000000
  8
29
 62
7
  6
CONTINUOUS
  0
VERTEX
 10
49.800000
 20
90.000000
  8
29
 62
7
  6
CONTINUOUS
  0
SEQEND
  0
POLYLINE
  8
29
 62
7
  6
CONTINUOUS
 70
1
 66
1
  0
VERTEX
 10
44.000000
 20
60.000000
 30
0.000000
  8
29
 62
7
  6
CONTINUOUS
  0
VERTEX
 10
44.000000
 20
56.000000
 30
0.000000
  8
29
 62
7
  6
CONTINUOUS
  0
VERTEX
 10
31.000000
 20
56.000000
 30
0.000000
  8
29
 62
7
  6
CONTINUOUS
  0
VERTEX
 10
31.000000
 20
60.000000
 30
0.000000
  8
29
 62
7
  6
CONTINUOUS
  0
SEQEND
  0
POLYLINE
  8
29
 62
7
  6
CONTINUOUS
 70
0
 66
1
  0
VERTEX
 10
37.000000
 20
89.000000
  8
29
 62
7
  6
CONTINUOUS
  0
VERTEX
 10
37.000000
 20
74.000000
  8
29
 62
7
  6
CONTINUOUS
  0
SEQEND
  0
POLYLINE
  8
29
 62
7
  6
CONTINUOUS
 70
0
 66
1
  0
VERTEX
 10
38.000000
 20
89.000000
  8
29
 62
7
  6
CONTINUOUS
  0
VERTEX
 10
38.000000
 20
74.000000
  8
29
 62
7
  6
CONTINUOUS
  0
SEQEND
  0
ARC
  8
29
 62
7
  6
CONTINUOUS
 10
37.500000
 20
88.900000
 30
0.000000
 40
0.500000
 50
11.309932
 51
168.690068
  0
ARC
  8
29
 62
7
  6
CONTINUOUS
 10
37.500000
 20
74.100000
 30
0.000000
 40
0.500000
 50
191.309932
 51
-11.309932
  0
ARC
  8
29
 62
7
  6
CONTINUOUS
 10
37.500000
 20
70.400000
 30
0.000000
 40
0.500000
 50
-11.309932
 51
191.309932
  0
ARC
  8
29
 62
7
  6
CONTINUOUS
 10
37.500000
 20
61.500000
 30
0.000000
 40
0.500000
 50
180.000000
 51
0.000000
  0
POLYLINE
  8
29
 62
7
  6
CONTINUOUS
 70
0
 66
1
  0
VERTEX
 10
37.000000
 20
70.200000
  8
29
 62
7
  6
CONTINUOUS
  0
VERTEX
 10
37.000000
 20
67.000000
  8
29
 62
7
  6
CONTINUOUS
  0
SEQEND
  0
POLYLINE
  8
29
 62
7
  6
CONTINUOUS
 70
0
 66
1
  0
VERTEX
 10
38.000000
 20
70.200000
  8
29
 62
7
  6
CONTINUOUS
  0
VERTEX
 10
38.000000
 20
67.000000
  8
29
 62
7
  6
CONTINUOUS
  0
SEQEND
  0
POLYLINE
  8
29
 62
7
  6
CONTINUOUS
 70
0
 66
1
  0
VERTEX
 10
37.000000
 20
63.800000
  8
29
 62
7
  6
CONTINUOUS
  0
VERTEX
 10
37.000000
 20
61.500000
  8
29
 62
7
  6
CONTINUOUS
  0
SEQEND
  0
POLYLINE
  8
29
 62
7
  6
CONTINUOUS
 70
0
 66
1
  0
VERTEX
 10
38.000000
 20
63.800000
  8
29
 62
7
  6
CONTINUOUS
  0
VERTEX
 10
38.000000
 20
61.500000
  8
29
 62
7
  6
CONTINUOUS
  0
SEQEND
  0
POLYLINE
  8
29
 62
7
  6
CONTINUOUS
 70
0
 66
1
  0
VERTEX
 10
36.500000
 20
67.000000
  8
29
 62
7
  6
CONTINUOUS
  0
VERTEX
 10
36.500000
 20
90.000000
  8
29
 62
7
  6
CONTINUOUS
  0
VERTEX
 10
38.500000
 20
90.000000
  8
29
 62
7
  6
CONTINUOUS
  0
VERTEX
 10
38.500000
 20
67.000000
  8
29
 62
7
  6
CONTINUOUS
  0
SEQEND
  0
POLYLINE
  8
29
 62
7
  6
CONTINUOUS
 70
0
 66
1
  0
VERTEX
 10
36.500000
 20
63.800000
  8
29
 62
7
  6
CONTINUOUS
  0
VERTEX
 10
36.500000
 20
60.000000
  8
29
 62
7
  6
CONTINUOUS
  0
SEQEND
  0
POLYLINE
  8
29
 62
7
  6
CONTINUOUS
 70
0
 66
1
  0
VERTEX
 10
38.500000
 20
63.800000
  8
29
 62
7
  6
CONTINUOUS
  0
VERTEX
 10
38.500000
 20
60.000000
  8
29
 62
7
  6
CONTINUOUS
  0
SEQEND
  0
POLYLINE
  8
29
 62
7
  6
CONTINUOUS
 70
1
 66
1
  0
VERTEX
 10
48.400000
 20
67.000000
 30
0.000000
  8
29
 62
7
  6
CONTINUOUS
  0
VERTEX
 10
48.400000
 20
63.800000
 30
0.000000
  8
29
 62
7
  6
CONTINUOUS
  0
VERTEX
 10
26.600000
 20
63.800000
 30
0.000000
  8
29
 62
7
  6
CONTINUOUS
  0
VERTEX
 10
26.600000
 20
67.000000
 30
0.000000
  8
29
 62
7
  6
CONTINUOUS
  0
SEQEND
  0
CIRCLE
  8
29
 62
7
  6
CONTINUOUS
 10
37.500000
 20
66.100000
 30
0.0
 40
0.500000
  0
LINE
  8
29
 62
7
  6
CONTINUOUS
 10
35.100000
 20
66.200000
 11
27.300000
 21
66.200000
  0
LINE
  8
29
 62
7
  6
CONTINUOUS
 10
35.100000
 20
65.600000
 11
27.300000
 21
65.600000
  0
ARC
  8
29
 62
7
  6
CONTINUOUS
 10
27.400000
 20
65.900000
 30
0.000000
 40
0.300000
 50
108.434949
 51
-108.434949
  0
ARC
  8
29
 62
7
  6
CONTINUOUS
 10
35.500000
 20
65.900000
 30
0.000000
 40
0.500000
 50
216.869898
 51
143.130102
  0
LINE
  8
29
 62
7
  6
CONTINUOUS
 10
39.900000
 20
66.200000
 11
47.700000
 21
66.200000
  0
LINE
  8
29
 62
7
  6
CONTINUOUS
 10
39.900000
 20
65.600000
 11
47.700000
 21
65.600000
  0
ARC
  8
29
 62
7
  6
CONTINUOUS
 10
47.600000
 20
65.900000
 30
0.000000
 40
0.300000
 50
-71.565051
 51
71.565051
  0
ARC
  8
29
 62
7
  6
CONTINUOUS
 10
39.500000
 20
65.900000
 30
0.000000
 40
0.500000
 50
36.869898
 51
-36.869898
  0
LINE
  8
29
 62
7
  6
CONTINUOUS
 10
35.100000
 20
64.700000
 11
27.300000
 21
64.700000
  0
LINE
  8
29
 62
7
  6
CONTINUOUS
 10
35.100000
 20
64.100000
 11
27.300000
 21
64.100000
  0
ARC
  8
29
 62
7
  6
CONTINUOUS
 10
27.400000
 20
64.400000
 30
0.000000
 40
0.300000
 50
108.434949
 51
-108.434949
  0
ARC
  8
29
 62
7
  6
CONTINUOUS
 10
35.500000
 20
64.400000
 30
0.000000
 40
0.500000
 50
216.869898
 51
143.130102
  0
LINE
  8
29
 62
7
  6
CONTINUOUS
 10
39.900000
 20
64.700000
 11
47.700000
 21
64.700000
  0
LINE
  8
29
 62
7
  6
CONTINUOUS
 10
39.900000
 20
64.100000
 11
47.700000
 21
64.100000
  0
ARC
  8
29
 62
7
  6
CONTINUOUS
 10
47.600000
 20
64.400000
 30
0.000000
 40
0.300000
 50
-71.565051
 51
71.565051
  0
ARC
  8
29
 62
7
  6
CONTINUOUS
 10
39.500000
 20
64.400000
 30
0.000000
 40
0.500000
 50
36.869898
 51
-36.869898
  0
CIRCLE
  8
29
 62
7
  6
CONTINUOUS
 10
37.500000
 20
71.600000
 30
0.0
 40
0.400000
  0
POLYLINE
  8
29
 62
7
  6
CONTINUOUS
 70
1
 66
1
  0
VERTEX
 10
41.500000
 20
57.400000
 30
0.000000
  8
29
 62
7
  6
CONTINUOUS
  0
VERTEX
 10
41.500000
 20
60.000000
 30
0.000000
  8
29
 62
7
  6
CONTINUOUS
  0
VERTEX
 10
33.500000
 20
60.000000
 30
0.000000
  8
29
 62
7
  6
CONTINUOUS
  0
VERTEX
 10
33.500000
 20
57.400000
 30
0.000000
  8
29
 62
7
  6
CONTINUOUS
  0
SEQEND
  0
POLYLINE
  8
29
 62
7
  6
CONTINUOUS
 70
0
 66
1
  0
VERTEX
 10
30.300000
 20
125.200000
  8
29
 62
7
  6
CONTINUOUS
  0
VERTEX
 10
30.300000
 20
126.300000
  8
29
 62
7
  6
CONTINUOUS
  0
SEQEND
  0
POLYLINE
  8
29
 62
7
  6
CONTINUOUS
 70
1
 66
1
  0
VERTEX
 10
48.300000
 20
129.800000
 30
0.000000
  8
29
 62
7
  6
CONTINUOUS
  0
VERTEX
 10
48.300000
 20
125.200000
 30
0.000000
  8
29
 62
7
  6
CONTINUOUS
  0
VERTEX
 10
26.700000
 20
125.200000
 30
0.000000
  8
29
 62
7
  6
CONTINUOUS
  0
VERTEX
 10
26.700000
 20
129.800000
 30
0.000000
  8
29
 62
7
  6
CONTINUOUS
  0
SEQEND
  0
POLYLINE
  8
29
 62
7
  6
CONTINUOUS
 70
0
 66
1
  0
VERTEX
 10
28.500000
 20
125.200000
  8
29
 62
7
  6
CONTINUOUS
  0
VERTEX
 10
28.500000
 20
126.300000
  8
29
 62
7
  6
CONTINUOUS
  0
SEQEND
  0
POLYLINE
  8
29
 62
7
  6
CONTINUOUS
 70
0
 66
1
  0
VERTEX
 10
33.900000
 20
125.200000
  8
29
 62
7
  6
CONTINUOUS
  0
VERTEX
 10
33.900000
 20
126.300000
  8
29
 62
7
  6
CONTINUOUS
  0
SEQEND
  0
POLYLINE
  8
29
 62
7
  6
CONTINUOUS
 70
0
 66
1
  0
VERTEX
 10
35.700000
 20
125.200000
  8
29
 62
7
  6
CONTINUOUS
  0
VERTEX
 10
35.700000
 20
126.300000
  8
29
 62
7
  6
CONTINUOUS
  0
SEQEND
  0
POLYLINE
  8
29
 62
7
  6
CONTINUOUS
 70
0
 66
1
  0
VERTEX
 10
37.500000
 20
125.200000
  8
29
 62
7
  6
CONTINUOUS
  0
VERTEX
 10
37.500000
 20
126.300000
  8
29
 62
7
  6
CONTINUOUS
  0
SEQEND
  0
POLYLINE
  8
29
 62
7
  6
CONTINUOUS
 70
0
 66
1
  0
VERTEX
 10
39.300000
 20
125.200000
  8
29
 62
7
  6
CONTINUOUS
  0
VERTEX
 10
39.300000
 20
126.300000
  8
29
 62
7
  6
CONTINUOUS
  0
SEQEND
  0
POLYLINE
  8
29
 62
7
  6
CONTINUOUS
 70
0
 66
1
  0
VERTEX
 10
41.100000
 20
125.200000
  8
29
 62
7
  6
CONTINUOUS
  0
VERTEX
 10
41.100000
 20
126.300000
  8
29
 62
7
  6
CONTINUOUS
  0
SEQEND
  0
POLYLINE
  8
29
 62
7
  6
CONTINUOUS
 70
0
 66
1
  0
VERTEX
 10
42.900000
 20
125.200000
  8
29
 62
7
  6
CONTINUOUS
  0
VERTEX
 10
42.900000
 20
126.300000
  8
29
 62
7
  6
CONTINUOUS
  0
SEQEND
  0
POLYLINE
  8
29
 62
7
  6
CONTINUOUS
 70
0
 66
1
  0
VERTEX
 10
44.700000
 20
125.200000
  8
29
 62
7
  6
CONTINUOUS
  0
VERTEX
 10
44.700000
 20
126.300000
  8
29
 62
7
  6
CONTINUOUS
  0
SEQEND
  0
POLYLINE
  8
29
 62
7
  6
CONTINUOUS
 70
0
 66
1
  0
VERTEX
 10
46.500000
 20
125.200000
  8
29
 62
7
  6
CONTINUOUS
  0
VERTEX
 10
46.500000
 20
126.300000
  8
29
 62
7
  6
CONTINUOUS
  0
SEQEND
  0
POLYLINE
  8
29
 62
7
  6
CONTINUOUS
 70
0
 66
1
  0
VERTEX
 10
32.100000
 20
125.200000
  8
29
 62
7
  6
CONTINUOUS
  0
VERTEX
 10
32.100000
 20
126.300000
  8
29
 62
7
  6
CONTINUOUS
  0
SEQEND
  0
POLYLINE
  8
29
 62
7
  6
CONTINUOUS
 70
1
 66
1
  0
VERTEX
 10
24.500000
 20
58.500000
 30
0.000000
  8
29
 62
7
  6
CONTINUOUS
  0
VERTEX
 10
24.500000
 20
75.500000
 30
0.000000
  8
29
 62
7
  6
CONTINUOUS
  0
VERTEX
 10
0.300000
 20
75.500000
 30
0.000000
  8
29
 62
7
  6
CONTINUOUS
  0
VERTEX
 10
0.300000
 20
58.500000
 30
0.000000
  8
29
 62
7
  6
CONTINUOUS
  0
SEQEND
  0
POLYLINE
  8
29
 62
7
  6
CONTINUOUS
 70
1
 66
1
  0
VERTEX
 10
22.100000
 20
118.000000
 30
0.000000
  8
29
 62
7
  6
CONTINUOUS
  0
VERTEX
 10
22.100000
 20
95.000000
 30
0.000000
  8
29
 62
7
  6
CONTINUOUS
  0
VERTEX
 10
2.700000
 20
95.000000
 30
0.000000
  8
29
 62
7
  6
CONTINUOUS
  0
VERTEX
 10
2.700000
 20
118.000000
 30
0.000000
  8
29
 62
7
  6
CONTINUOUS
  0
SEQEND
  0
POLYLINE
  8
29
 62
7
  6
CONTINUOUS
 70
1
 66
1
  0
VERTEX
 10
24.800000
 20
101.700000
 30
0.000000
  8
29
 62
7
  6
CONTINUOUS
  0
VERTEX
 10
24.800000
 20
103.700000
 30
0.000000
  8
29
 62
7
  6
CONTINUOUS
  0
VERTEX
 10
21.900000
 20
103.700000
 30
0.000000
  8
29
 62
7
  6
CONTINUOUS
  0
VERTEX
 10
21.900000
 20
101.700000
 30
0.000000
  8
29
 62
7
  6
CONTINUOUS
  0
SEQEND
  0
POLYLINE
  8
29
 62
7
  6
CONTINUOUS
 70
1
 66
1
  0
VERTEX
 10
24.800000
 20
111.700000
 30
0.000000
  8
29
 62
7
  6
CONTINUOUS
  0
VERTEX
 10
24.800000
 20
113.700000
 30
0.000000
  8
29
 62
7
  6
CONTINUOUS
  0
VERTEX
 10
21.900000
 20
113.700000
 30
0.000000
  8
29
 62
7
  6
CONTINUOUS
  0
VERTEX
 10
21.900000
 20
111.700000
 30
0.000000
  8
29
 62
7
  6
CONTINUOUS
  0
SEQEND
  0
POLYLINE
  8
29
 62
7
  6
CONTINUOUS
 70
1
 66
1
  0
VERTEX
 10
22.300000
 20
115.700000
 30
0.000000
  8
29
 62
7
  6
CONTINUOUS
  0
VERTEX
 10
22.300000
 20
99.700000
 30
0.000000
  8
29
 62
7
  6
CONTINUOUS
  0
VERTEX
 10
2.700000
 20
99.700000
 30
0.000000
  8
29
 62
7
  6
CONTINUOUS
  0
VERTEX
 10
2.700000
 20
115.700000
 30
0.000000
  8
29
 62
7
  6
CONTINUOUS
  0
SEQEND
  0
POLYLINE
  8
29
 62
7
  6
CONTINUOUS
 70
1
 66
1
  0
VERTEX
 10
21.300000
 20
104.400000
 30
0.000000
  8
29
 62
7
  6
CONTINUOUS
  0
VERTEX
 10
21.300000
 20
105.600000
 30
0.000000
  8
29
 62
7
  6
CONTINUOUS
  0
VERTEX
 10
3.700000
 20
105.600000
 30
0.000000
  8
29
 62
7
  6
CONTINUOUS
  0
VERTEX
 10
3.700000
 20
104.400000
 30
0.000000
  8
29
 62
7
  6
CONTINUOUS
  0
SEQEND
  0
POLYLINE
  8
29
 62
7
  6
CONTINUOUS
 70
1
 66
1
  0
VERTEX
 10
21.300000
 20
109.800000
 30
0.000000
  8
29
 62
7
  6
CONTINUOUS
  0
VERTEX
 10
21.300000
 20
111.000000
 30
0.000000
  8
29
 62
7
  6
CONTINUOUS
  0
VERTEX
 10
3.700000
 20
111.000000
 30
0.000000
  8
29
 62
7
  6
CONTINUOUS
  0
VERTEX
 10
3.700000
 20
109.800000
 30
0.000000
  8
29
 62
7
  6
CONTINUOUS
  0
SEQEND
  0
POLYLINE
  8
29
 62
7
  6
CONTINUOUS
 70
1
 66
1
  0
VERTEX
 10
22.200000
 20
115.700000
 30
0.000000
  8
29
 62
7
  6
CONTINUOUS
  0
VERTEX
 10
22.200000
 20
99.700000
 30
0.000000
  8
29
 62
7
  6
CONTINUOUS
  0
VERTEX
 10
2.600000
 20
99.700000
 30
0.000000
  8
29
 62
7
  6
CONTINUOUS
  0
VERTEX
 10
2.600000
 20
115.700000
 30
0.000000
  8
29
 62
7
  6
CONTINUOUS
  0
SEQEND
  0
POLYLINE
  8
29
 62
7
  6
CONTINUOUS
 70
1
 66
1
  0
VERTEX
 10
21.200000
 20
104.400000
 30
0.000000
  8
29
 62
7
  6
CONTINUOUS
  0
VERTEX
 10
21.200000
 20
105.600000
 30
0.000000
  8
29
 62
7
  6
CONTINUOUS
  0
VERTEX
 10
3.600000
 20
105.600000
 30
0.000000
  8
29
 62
7
  6
CONTINUOUS
  0
VERTEX
 10
3.600000
 20
104.400000
 30
0.000000
  8
29
 62
7
  6
CONTINUOUS
  0
SEQEND
  0
POLYLINE
  8
29
 62
7
  6
CONTINUOUS
 70
1
 66
1
  0
VERTEX
 10
21.300000
 20
109.800000
 30
0.000000
  8
29
 62
7
  6
CONTINUOUS
  0
VERTEX
 10
21.300000
 20
111.000000
 30
0.000000
  8
29
 62
7
  6
CONTINUOUS
  0
VERTEX
 10
3.700000
 20
111.000000
 30
0.000000
  8
29
 62
7
  6
CONTINUOUS
  0
VERTEX
 10
3.700000
 20
109.800000
 30
0.000000
  8
29
 62
7
  6
CONTINUOUS
  0
SEQEND
  0
POLYLINE
  8
29
 62
7
  6
CONTINUOUS
 70
1
 66
1
  0
VERTEX
 10
3.100000
 20
111.700000
 30
0.000000
  8
29
 62
7
  6
CONTINUOUS
  0
VERTEX
 10
3.100000
 20
113.700000
 30
0.000000
  8
29
 62
7
  6
CONTINUOUS
  0
VERTEX
 10
0.200000
 20
113.700000
 30
0.000000
  8
29
 62
7
  6
CONTINUOUS
  0
VERTEX
 10
0.200000
 20
111.700000
 30
0.000000
  8
29
 62
7
  6
CONTINUOUS
  0
SEQEND
  0
POLYLINE
  8
29
 62
7
  6
CONTINUOUS
 70
1
 66
1
  0
VERTEX
 10
3.100000
 20
101.700000
 30
0.000000
  8
29
 62
7
  6
CONTINUOUS
  0
VERTEX
 10
3.100000
 20
103.700000
 30
0.000000
  8
29
 62
7
  6
CONTINUOUS
  0
VERTEX
 10
0.200000
 20
103.700000
 30
0.000000
  8
29
 62
7
  6
CONTINUOUS
  0
VERTEX
 10
0.200000
 20
101.700000
 30
0.000000
  8
29
 62
7
  6
CONTINUOUS
  0
SEQEND
  0
POLYLINE
  8
29
 62
7
  6
CONTINUOUS
 70
1
 66
1
  0
VERTEX
 10
49.800000
 20
36.200000
 30
0.000000
  8
29
 62
7
  6
CONTINUOUS
  0
VERTEX
 10
49.800000
 20
38.800000
 30
0.000000
  8
29
 62
7
  6
CONTINUOUS
  0
VERTEX
 10
25.200000
 20
38.800000
 30
0.000000
  8
29
 62
7
  6
CONTINUOUS
  0
VERTEX
 10
25.200000
 20
36.200000
 30
0.000000
  8
29
 62
7
  6
CONTINUOUS
  0
SEQEND
  0
LINE
  8
29
 62
7
  6
CONTINUOUS
 10
49.800000
 20
38.000000
 11
25.200000
 21
38.000000
  0
LINE
  8
29
 62
7
  6
L014100020032000000
 10
49.800000
 20
36.500000
 11
25.200000
 21
36.500000
  0
LINE
  8
29
 62
7
  6
CONTINUOUS
 10
49.800000
 20
37.000000
 11
25.200000
 21
37.000000
  0
LINE
  8
29
 62
7
  6
L014100020032000000
 10
49.800000
 20
38.500000
 11
25.200000
 21
38.500000
  0
POLYLINE
  8
56
 62
7
  6
CONTINUOUS
 70
1
 66
1
  0
VERTEX
 10
16.000000
 20
75.600000
 30
0.000000
  8
56
 62
7
  6
CONTINUOUS
  0
VERTEX
 10
16.000000
 20
91.800000
 30
0.000000
  8
56
 62
7
  6
CONTINUOUS
  0
VERTEX
 10
14.000000
 20
91.800000
 30
0.000000
  8
56
 62
7
  6
CONTINUOUS
  0
VERTEX
 10
14.000000
 20
75.600000
 30
0.000000
  8
56
 62
7
  6
CONTINUOUS
  0
SEQEND
  0
POLYLINE
  8
56
 62
7
  6
CONTINUOUS
 70
1
 66
1
  0
VERTEX
 10
11.100000
 20
75.600000
 30
0.000000
  8
56
 62
7
  6
CONTINUOUS
  0
VERTEX
 10
11.100000
 20
91.800000
 30
0.000000
  8
56
 62
7
  6
CONTINUOUS
  0
VERTEX
 10
9.100000
 20
91.800000
 30
0.000000
  8
56
 62
7
  6
CONTINUOUS
  0
VERTEX
 10
9.100000
 20
75.600000
 30
0.000000
  8
56
 62
7
  6
CONTINUOUS
  0
SEQEND
  0
POLYLINE
  8
56
 62
7
  6
CONTINUOUS
 70
1
 66
1
  0
VERTEX
 10
49.100000
 20
7.700000
 30
0.000000
  8
56
 62
7
  6
CONTINUOUS
  0
VERTEX
 10
49.100000
 20
8.900000
 30
0.000000
  8
56
 62
7
  6
CONTINUOUS
  0
VERTEX
 10
0.900000
 20
8.900000
 30
0.000000
  8
56
 62
7
  6
CONTINUOUS
  0
VERTEX
 10
0.900000
 20
7.700000
 30
0.000000
  8
56
 62
7
  6
CONTINUOUS
  0
SEQEND
  0
POLYLINE
  8
56
 62
7
  6
CONTINUOUS
 70
1
 66
1
  0
VERTEX
 10
49.100000
 20
23.700000
 30
0.000000
  8
56
 62
7
  6
CONTINUOUS
  0
VERTEX
 10
49.100000
 20
24.900000
 30
0.000000
  8
56
 62
7
  6
CONTINUOUS
  0
VERTEX
 10
0.900000
 20
24.900000
 30
0.000000
  8
56
 62
7
  6
CONTINUOUS
  0
VERTEX
 10
0.900000
 20
23.700000
 30
0.000000
  8
56
 62
7
  6
CONTINUOUS
  0
SEQEND
  0
POLYLINE
  8
56
 62
7
  6
CONTINUOUS
 70
1
 66
1
  0
VERTEX
 10
49.100000
 20
19.700000
 30
0.000000
  8
56
 62
7
  6
CONTINUOUS
  0
VERTEX
 10
49.100000
 20
20.900000
 30
0.000000
  8
56
 62
7
  6
CONTINUOUS
  0
VERTEX
 10
0.900000
 20
20.900000
 30
0.000000
  8
56
 62
7
  6
CONTINUOUS
  0
VERTEX
 10
0.900000
 20
19.700000
 30
0.000000
  8
56
 62
7
  6
CONTINUOUS
  0
SEQEND
  0
POLYLINE
  8
56
 62
7
  6
CONTINUOUS
 70
1
 66
1
  0
VERTEX
 10
49.100000
 20
15.700000
 30
0.000000
  8
56
 62
7
  6
CONTINUOUS
  0
VERTEX
 10
49.100000
 20
16.900000
 30
0.000000
  8
56
 62
7
  6
CONTINUOUS
  0
VERTEX
 10
0.900000
 20
16.900000
 30
0.000000
  8
56
 62
7
  6
CONTINUOUS
  0
VERTEX
 10
0.900000
 20
15.700000
 30
0.000000
  8
56
 62
7
  6
CONTINUOUS
  0
SEQEND
  0
POLYLINE
  8
56
 62
7
  6
CONTINUOUS
 70
1
 66
1
  0
VERTEX
 10
49.100000
 20
11.700000
 30
0.000000
  8
56
 62
7
  6
CONTINUOUS
  0
VERTEX
 10
49.100000
 20
12.900000
 30
0.000000
  8
56
 62
7
  6
CONTINUOUS
  0
VERTEX
 10
0.900000
 20
12.900000
 30
0.000000
  8
56
 62
7
  6
CONTINUOUS
  0
VERTEX
 10
0.900000
 20
11.700000
 30
0.000000
  8
56
 62
7
  6
CONTINUOUS
  0
SEQEND
  0
POLYLINE
  8
56
 62
7
  6
CONTINUOUS
 70
1
 66
1
  0
VERTEX
 10
16.000000
 20
23.600000
 30
0.000000
  8
56
 62
7
  6
CONTINUOUS
  0
VERTEX
 10
16.000000
 20
58.500000
 30
0.000000
  8
56
 62
7
  6
CONTINUOUS
  0
VERTEX
 10
14.000000
 20
58.500000
 30
0.000000
  8
56
 62
7
  6
CONTINUOUS
  0
VERTEX
 10
14.000000
 20
23.600000
 30
0.000000
  8
56
 62
7
  6
CONTINUOUS
  0
SEQEND
  0
POLYLINE
  8
56
 62
7
  6
CONTINUOUS
 70
1
 66
1
  0
VERTEX
 10
11.100000
 20
7.700000
 30
0.000000
  8
56
 62
7
  6
CONTINUOUS
  0
VERTEX
 10
11.100000
 20
58.500000
 30
0.000000
  8
56
 62
7
  6
CONTINUOUS
  0
VERTEX
 10
9.100000
 20
58.500000
 30
0.000000
  8
56
 62
7
  6
CONTINUOUS
  0
VERTEX
 10
9.100000
 20
7.700000
 30
0.000000
  8
56
 62
7
  6
CONTINUOUS
  0
SEQEND
  0
POLYLINE
  8
58
 62
7
  6
CONTINUOUS
 70
1
 66
1
  0
VERTEX
 10
16.000000
 20
75.600000
 30
0.000000
  8
58
 62
7
  6
CONTINUOUS
  0
VERTEX
 10
16.000000
 20
91.800000
 30
0.000000
  8
58
 62
7
  6
CONTINUOUS
  0
VERTEX
 10
14.000000
 20
91.800000
 30
0.000000
  8
58
 62
7
  6
CONTINUOUS
  0
VERTEX
 10
14.000000
 20
75.600000
 30
0.000000
  8
58
 62
7
  6
CONTINUOUS
  0
SEQEND
  0
POLYLINE
  8
58
 62
7
  6
CONTINUOUS
 70
1
 66
1
  0
VERTEX
 10
11.100000
 20
75.600000
 30
0.000000
  8
58
 62
7
  6
CONTINUOUS
  0
VERTEX
 10
11.100000
 20
91.800000
 30
0.000000
  8
58
 62
7
  6
CONTINUOUS
  0
VERTEX
 10
9.100000
 20
91.800000
 30
0.000000
  8
58
 62
7
  6
CONTINUOUS
  0
VERTEX
 10
9.100000
 20
75.600000
 30
0.000000
  8
58
 62
7
  6
CONTINUOUS
  0
SEQEND
  0
POLYLINE
  8
58
 62
7
  6
CONTINUOUS
 70
1
 66
1
  0
VERTEX
 10
49.100000
 20
7.700000
 30
0.000000
  8
58
 62
7
  6
CONTINUOUS
  0
VERTEX
 10
49.100000
 20
8.900000
 30
0.000000
  8
58
 62
7
  6
CONTINUOUS
  0
VERTEX
 10
0.900000
 20
8.900000
 30
0.000000
  8
58
 62
7
  6
CONTINUOUS
  0
VERTEX
 10
0.900000
 20
7.700000
 30
0.000000
  8
58
 62
7
  6
CONTINUOUS
  0
SEQEND
  0
POLYLINE
  8
58
 62
7
  6
CONTINUOUS
 70
1
 66
1
  0
VERTEX
 10
49.100000
 20
23.700000
 30
0.000000
  8
58
 62
7
  6
CONTINUOUS
  0
VERTEX
 10
49.100000
 20
24.900000
 30
0.000000
  8
58
 62
7
  6
CONTINUOUS
  0
VERTEX
 10
0.900000
 20
24.900000
 30
0.000000
  8
58
 62
7
  6
CONTINUOUS
  0
VERTEX
 10
0.900000
 20
23.700000
 30
0.000000
  8
58
 62
7
  6
CONTINUOUS
  0
SEQEND
  0
POLYLINE
  8
58
 62
7
  6
CONTINUOUS
 70
1
 66
1
  0
VERTEX
 10
49.100000
 20
19.700000
 30
0.000000
  8
58
 62
7
  6
CONTINUOUS
  0
VERTEX
 10
49.100000
 20
20.900000
 30
0.000000
  8
58
 62
7
  6
CONTINUOUS
  0
VERTEX
 10
0.900000
 20
20.900000
 30
0.000000
  8
58
 62
7
  6
CONTINUOUS
  0
VERTEX
 10
0.900000
 20
19.700000
 30
0.000000
  8
58
 62
7
  6
CONTINUOUS
  0
SEQEND
  0
POLYLINE
  8
58
 62
7
  6
CONTINUOUS
 70
1
 66
1
  0
VERTEX
 10
49.100000
 20
15.700000
 30
0.000000
  8
58
 62
7
  6
CONTINUOUS
  0
VERTEX
 10
49.100000
 20
16.900000
 30
0.000000
  8
58
 62
7
  6
CONTINUOUS
  0
VERTEX
 10
0.900000
 20
16.900000
 30
0.000000
  8
58
 62
7
  6
CONTINUOUS
  0
VERTEX
 10
0.900000
 20
15.700000
 30
0.000000
  8
58
 62
7
  6
CONTINUOUS
  0
SEQEND
  0
POLYLINE
  8
58
 62
7
  6
CONTINUOUS
 70
1
 66
1
  0
VERTEX
 10
49.100000
 20
11.700000
 30
0.000000
  8
58
 62
7
  6
CONTINUOUS
  0
VERTEX
 10
49.100000
 20
12.900000
 30
0.000000
  8
58
 62
7
  6
CONTINUOUS
  0
VERTEX
 10
0.900000
 20
12.900000
 30
0.000000
  8
58
 62
7
  6
CONTINUOUS
  0
VERTEX
 10
0.900000
 20
11.700000
 30
0.000000
  8
58
 62
7
  6
CONTINUOUS
  0
SEQEND
  0
POLYLINE
  8
58
 62
7
  6
CONTINUOUS
 70
1
 66
1
  0
VERTEX
 10
16.000000
 20
23.600000
 30
0.000000
  8
58
 62
7
  6
CONTINUOUS
  0
VERTEX
 10
16.000000
 20
58.500000
 30
0.000000
  8
58
 62
7
  6
CONTINUOUS
  0
VERTEX
 10
14.000000
 20
58.500000
 30
0.000000
  8
58
 62
7
  6
CONTINUOUS
  0
VERTEX
 10
14.000000
 20
23.600000
 30
0.000000
  8
58
 62
7
  6
CONTINUOUS
  0
SEQEND
  0
POLYLINE
  8
58
 62
7
  6
CONTINUOUS
 70
1
 66
1
  0
VERTEX
 10
11.100000
 20
7.700000
 30
0.000000
  8
58
 62
7
  6
CONTINUOUS
  0
VERTEX
 10
11.100000
 20
58.500000
 30
0.000000
  8
58
 62
7
  6
CONTINUOUS
  0
VERTEX
 10
9.100000
 20
58.500000
 30
0.000000
  8
58
 62
7
  6
CONTINUOUS
  0
VERTEX
 10
9.100000
 20
7.700000
 30
0.000000
  8
58
 62
7
  6
CONTINUOUS
  0
SEQEND
  0
LINE
  8
59
 62
7
  6
CONTINUOUS
 10
23.500000
 20
18.300000
 11
22.500000
 21
14.300000
  0
LINE
  8
59
 62
7
  6
CONTINUOUS
 10
24.500000
 20
18.300000
 11
23.500000
 21
14.300000
  0
POLYLINE
  8
59
 62
7
  6
CONTINUOUS
 70
1
 66
1
  0
VERTEX
 10
0.900000
 20
15.000000
 30
0.000000
  8
59
 62
7
  6
CONTINUOUS
  0
VERTEX
 10
0.900000
 20
17.600000
 30
0.000000
  8
59
 62
7
  6
CONTINUOUS
  0
VERTEX
 10
1.300000
 20
17.600000
 30
0.000000
  8
59
 62
7
  6
CONTINUOUS
  0
VERTEX
 10
1.300000
 20
15.000000
 30
0.000000
  8
59
 62
7
  6
CONTINUOUS
  0
SEQEND
  0
LINE
  8
59
 62
7
  6
CONTINUOUS
 10
13.000000
 20
18.300000
 11
12.000000
 21
14.300000
  0
LINE
  8
59
 62
7
  6
CONTINUOUS
 10
11.000000
 20
18.300000
 11
10.000000
 21
14.300000
  0
LINE
  8
59
 62
7
  6
CONTINUOUS
 10
12.000000
 20
18.300000
 11
11.000000
 21
14.300000
  0
LINE
  8
59
 62
7
  6
CONTINUOUS
 10
15.000000
 20
18.300000
 11
14.000000
 21
14.300000
  0
LINE
  8
59
 62
7
  6
CONTINUOUS
 10
14.000000
 20
18.300000
 11
13.000000
 21
14.300000
  0
POLYLINE
  8
59
 62
7
  6
CONTINUOUS
 70
1
 66
1
  0
VERTEX
 10
49.100000
 20
16.000000
 30
0.000000
  8
59
 62
7
  6
CONTINUOUS
  0
VERTEX
 10
49.100000
 20
16.600000
 30
0.000000
  8
59
 62
7
  6
CONTINUOUS
  0
VERTEX
 10
0.900000
 20
16.600000
 30
0.000000
  8
59
 62
7
  6
CONTINUOUS
  0
VERTEX
 10
0.900000
 20
16.000000
 30
0.000000
  8
59
 62
7
  6
CONTINUOUS
  0
SEQEND
  0
LINE
  8
59
 62
7
  6
CONTINUOUS
 10
25.500000
 20
18.300000
 11
24.500000
 21
14.300000
  0
LINE
  8
59
 62
7
  6
CONTINUOUS
 10
27.500000
 20
18.300000
 11
26.500000
 21
14.300000
  0
LINE
  8
59
 62
7
  6
CONTINUOUS
 10
26.500000
 20
18.300000
 11
25.500000
 21
14.300000
  0
POLYLINE
  8
59
 62
7
  6
CONTINUOUS
 70
1
 66
1
  0
VERTEX
 10
48.700000
 20
15.000000
 30
0.000000
  8
59
 62
7
  6
CONTINUOUS
  0
VERTEX
 10
48.700000
 20
17.600000
 30
0.000000
  8
59
 62
7
  6
CONTINUOUS
  0
VERTEX
 10
49.100000
 20
17.600000
 30
0.000000
  8
59
 62
7
  6
CONTINUOUS
  0
VERTEX
 10
49.100000
 20
15.000000
 30
0.000000
  8
59
 62
7
  6
CONTINUOUS
  0
SEQEND
  0
POLYLINE
  8
60
 62
7
  6
CONTINUOUS
 70
1
 66
1
  0
VERTEX
 10
49.100000
 20
23.700000
 30
0.000000
  8
60
 62
7
  6
CONTINUOUS
  0
VERTEX
 10
49.100000
 20
24.900000
 30
0.000000
  8
60
 62
7
  6
CONTINUOUS
  0
VERTEX
 10
0.900000
 20
24.900000
 30
0.000000
  8
60
 62
7
  6
CONTINUOUS
  0
VERTEX
 10
0.900000
 20
23.700000
 30
0.000000
  8
60
 62
7
  6
CONTINUOUS
  0
SEQEND
  0
POLYLINE
  8
60
 62
7
  6
CONTINUOUS
 70
1
 66
1
  0
VERTEX
 10
49.100000
 20
11.700000
 30
0.000000
  8
60
 62
7
  6
CONTINUOUS
  0
VERTEX
 10
49.100000
 20
12.900000
 30
0.000000
  8
60
 62
7
  6
CONTINUOUS
  0
VERTEX
 10
0.900000
 20
12.900000
 30
0.000000
  8
60
 62
7
  6
CONTINUOUS
  0
VERTEX
 10
0.900000
 20
11.700000
 30
0.000000
  8
60
 62
7
  6
CONTINUOUS
  0
SEQEND
  0
POLYLINE
  8
60
 62
7
  6
CONTINUOUS
 70
1
 66
1
  0
VERTEX
 10
49.100000
 20
15.700000
 30
0.000000
  8
60
 62
7
  6
CONTINUOUS
  0
VERTEX
 10
49.100000
 20
16.900000
 30
0.000000
  8
60
 62
7
  6
CONTINUOUS
  0
VERTEX
 10
0.900000
 20
16.900000
 30
0.000000
  8
60
 62
7
  6
CONTINUOUS
  0
VERTEX
 10
0.900000
 20
15.700000
 30
0.000000
  8
60
 62
7
  6
CONTINUOUS
  0
SEQEND
  0
POLYLINE
  8
60
 62
7
  6
CONTINUOUS
 70
1
 66
1
  0
VERTEX
 10
49.100000
 20
19.700000
 30
0.000000
  8
60
 62
7
  6
CONTINUOUS
  0
VERTEX
 10
49.100000
 20
20.900000
 30
0.000000
  8
60
 62
7
  6
CONTINUOUS
  0
VERTEX
 10
0.900000
 20
20.900000
 30
0.000000
  8
60
 62
7
  6
CONTINUOUS
  0
VERTEX
 10
0.900000
 20
19.700000
 30
0.000000
  8
60
 62
7
  6
CONTINUOUS
  0
SEQEND
  0
POLYLINE
  8
60
 62
7
  6
CONTINUOUS
 70
1
 66
1
  0
VERTEX
 10
49.100000
 20
7.700000
 30
0.000000
  8
60
 62
7
  6
CONTINUOUS
  0
VERTEX
 10
49.100000
 20
8.900000
 30
0.000000
  8
60
 62
7
  6
CONTINUOUS
  0
VERTEX
 10
0.900000
 20
8.900000
 30
0.000000
  8
60
 62
7
  6
CONTINUOUS
  0
VERTEX
 10
0.900000
 20
7.700000
 30
0.000000
  8
60
 62
7
  6
CONTINUOUS
  0
SEQEND
  0
POLYLINE
  8
60
 62
255
  6
L000000020000FFFFFF
 70
1
 66
1
  0
VERTEX
 10
11.100000
 20
75.600000
 30
0.000000
  8
60
 62
255
  6
L000000020000FFFFFF
  0
VERTEX
 10
11.100000
 20
91.800000
 30
0.000000
  8
60
 62
255
  6
L000000020000FFFFFF
  0
VERTEX
 10
9.100000
 20
91.800000
 30
0.000000
  8
60
 62
255
  6
L000000020000FFFFFF
  0
VERTEX
 10
9.100000
 20
75.600000
 30
0.000000
  8
60
 62
255
  6
L000000020000FFFFFF
  0
SEQEND
  0
POLYLINE
  8
60
 62
255
  6
L000000020000FFFFFF
 70
1
 66
1
  0
VERTEX
 10
16.000000
 20
75.600000
 30
0.000000
  8
60
 62
255
  6
L000000020000FFFFFF
  0
VERTEX
 10
16.000000
 20
91.800000
 30
0.000000
  8
60
 62
255
  6
L000000020000FFFFFF
  0
VERTEX
 10
14.000000
 20
91.800000
 30
0.000000
  8
60
 62
255
  6
L000000020000FFFFFF
  0
VERTEX
 10
14.000000
 20
75.600000
 30
0.000000
  8
60
 62
255
  6
L000000020000FFFFFF
  0
SEQEND
  0
POLYLINE
  8
60
 62
255
  6
L000000020000FFFFFF
 70
1
 66
1
  0
VERTEX
 10
11.100000
 20
7.700000
 30
0.000000
  8
60
 62
255
  6
L000000020000FFFFFF
  0
VERTEX
 10
11.100000
 20
58.500000
 30
0.000000
  8
60
 62
255
  6
L000000020000FFFFFF
  0
VERTEX
 10
9.100000
 20
58.500000
 30
0.000000
  8
60
 62
255
  6
L000000020000FFFFFF
  0
VERTEX
 10
9.100000
 20
7.700000
 30
0.000000
  8
60
 62
255
  6
L000000020000FFFFFF
  0
SEQEND
  0
POLYLINE
  8
60
 62
255
  6
L000000020000FFFFFF
 70
1
 66
1
  0
VERTEX
 10
16.000000
 20
23.600000
 30
0.000000
  8
60
 62
255
  6
L000000020000FFFFFF
  0
VERTEX
 10
16.000000
 20
58.500000
 30
0.000000
  8
60
 62
255
  6
L000000020000FFFFFF
  0
VERTEX
 10
14.000000
 20
58.500000
 30
0.000000
  8
60
 62
255
  6
L000000020000FFFFFF
  0
VERTEX
 10
14.000000
 20
23.600000
 30
0.000000
  8
60
 62
255
  6
L000000020000FFFFFF
  0
SEQEND
  0
POLYLINE
  8
38
 62
7
  6
L014100020032000000
 70
1
 66
1
  0
VERTEX
 10
21.500000
 20
76.000000
 30
0.000000
  8
38
 62
7
  6
L014100020032000000
  0
VERTEX
 10
21.500000
 20
57.000000
 30
0.000000
  8
38
 62
7
  6
L014100020032000000
  0
VERTEX
 10
17.600000
 20
57.000000
 30
0.000000
  8
38
 62
7
  6
L014100020032000000
  0
VERTEX
 10
17.600000
 20
76.000000
 30
0.000000
  8
38
 62
7
  6
L014100020032000000
  0
SEQEND
  0
POLYLINE
  8
38
 62
7
  6
L014100020032000000
 70
1
 66
1
  0
VERTEX
 10
14.500000
 20
76.000000
 30
0.000000
  8
38
 62
7
  6
L014100020032000000
  0
VERTEX
 10
14.500000
 20
57.000000
 30
0.000000
  8
38
 62
7
  6
L014100020032000000
  0
VERTEX
 10
10.600000
 20
57.000000
 30
0.000000
  8
38
 62
7
  6
L014100020032000000
  0
VERTEX
 10
10.600000
 20
76.000000
 30
0.000000
  8
38
 62
7
  6
L014100020032000000
  0
SEQEND
  0
POLYLINE
  8
38
 62
7
  6
L014100020032000000
 70
1
 66
1
  0
VERTEX
 10
7.200000
 20
76.000000
 30
0.000000
  8
38
 62
7
  6
L014100020032000000
  0
VERTEX
 10
7.200000
 20
57.000000
 30
0.000000
  8
38
 62
7
  6
L014100020032000000
  0
VERTEX
 10
3.300000
 20
57.000000
 30
0.000000
  8
38
 62
7
  6
L014100020032000000
  0
VERTEX
 10
3.300000
 20
76.000000
 30
0.000000
  8
38
 62
7
  6
L014100020032000000
  0
SEQEND
  0
CIRCLE
  8
38
 62
7
  6
CONTINUOUS
 10
5.300000
 20
74.300000
 30
0.0
 40
1.300000
  0
CIRCLE
  8
38
 62
7
  6
CONTINUOUS
 10
5.400000
 20
58.900000
 30
0.0
 40
1.300000
  0
CIRCLE
  8
38
 62
7
  6
CONTINUOUS
 10
12.500000
 20
74.300000
 30
0.0
 40
1.300000
  0
CIRCLE
  8
38
 62
7
  6
CONTINUOUS
 10
12.600000
 20
58.800000
 30
0.0
 40
1.300000
  0
CIRCLE
  8
38
 62
7
  6
CONTINUOUS
 10
19.600000
 20
74.300000
 30
0.0
 40
1.300000
  0
CIRCLE
  8
38
 62
7
  6
CONTINUOUS
 10
19.700000
 20
58.800000
 30
0.0
 40
1.300000
  0
POLYLINE
  8
38
 62
7
  6
CONTINUOUS
 70
1
 66
1
  0
VERTEX
 10
21.500000
 20
76.000000
 30
0.000000
  8
38
 62
7
  6
CONTINUOUS
  0
VERTEX
 10
21.500000
 20
57.000000
 30
0.000000
  8
38
 62
7
  6
CONTINUOUS
  0
VERTEX
 10
17.600000
 20
57.000000
 30
0.000000
  8
38
 62
7
  6
CONTINUOUS
  0
VERTEX
 10
17.600000
 20
76.000000
 30
0.000000
  8
38
 62
7
  6
CONTINUOUS
  0
SEQEND
  0
POLYLINE
  8
38
 62
7
  6
CONTINUOUS
 70
1
 66
1
  0
VERTEX
 10
14.500000
 20
76.000000
 30
0.000000
  8
38
 62
7
  6
CONTINUOUS
  0
VERTEX
 10
14.500000
 20
57.000000
 30
0.000000
  8
38
 62
7
  6
CONTINUOUS
  0
VERTEX
 10
10.600000
 20
57.000000
 30
0.000000
  8
38
 62
7
  6
CONTINUOUS
  0
VERTEX
 10
10.600000
 20
76.000000
 30
0.000000
  8
38
 62
7
  6
CONTINUOUS
  0
SEQEND
  0
POLYLINE
  8
38
 62
7
  6
CONTINUOUS
 70
1
 66
1
  0
VERTEX
 10
7.200000
 20
76.000000
 30
0.000000
  8
38
 62
7
  6
CONTINUOUS
  0
VERTEX
 10
7.200000
 20
57.000000
 30
0.000000
  8
38
 62
7
  6
CONTINUOUS
  0
VERTEX
 10
3.300000
 20
57.000000
 30
0.000000
  8
38
 62
7
  6
CONTINUOUS
  0
VERTEX
 10
3.300000
 20
76.000000
 30
0.000000
  8
38
 62
7
  6
CONTINUOUS
  0
SEQEND
  0
CIRCLE
  8
38
 62
7
  6
CONTINUOUS
 10
5.300000
 20
74.300000
 30
0.0
 40
1.300000
  0
CIRCLE
  8
38
 62
7
  6
CONTINUOUS
 10
5.400000
 20
58.900000
 30
0.0
 40
1.300000
  0
CIRCLE
  8
38
 62
7
  6
CONTINUOUS
 10
12.500000
 20
74.300000
 30
0.0
 40
1.300000
  0
CIRCLE
  8
38
 62
7
  6
CONTINUOUS
 10
12.600000
 20
58.800000
 30
0.0
 40
1.300000
  0
CIRCLE
  8
38
 62
7
  6
CONTINUOUS
 10
19.600000
 20
74.300000
 30
0.0
 40
1.300000
  0
CIRCLE
  8
38
 62
7
  6
CONTINUOUS
 10
19.700000
 20
58.800000
 30
0.0
 40
1.300000
  0
POLYLINE
  8
38
 62
7
  6
CONTINUOUS
 70
1
 66
1
  0
VERTEX
 10
8.900000
 20
64.000000
  8
38
 62
7
  6
CONTINUOUS
  0
VERTEX
 10
8.900000
 20
69.000000
  8
38
 62
7
  6
CONTINUOUS
  0
VERTEX
 10
1.900000
 20
69.000000
  8
38
 62
7
  6
CONTINUOUS
  0
VERTEX
 10
1.900000
 20
64.000000
  8
38
 62
7
  6
CONTINUOUS
  0
SEQEND
  0
POLYLINE
  8
38
 62
7
  6
CONTINUOUS
 70
1
 66
1
  0
VERTEX
 10
16.000000
 20
64.000000
  8
38
 62
7
  6
CONTINUOUS
  0
VERTEX
 10
16.000000
 20
69.000000
  8
38
 62
7
  6
CONTINUOUS
  0
VERTEX
 10
9.000000
 20
69.000000
  8
38
 62
7
  6
CONTINUOUS
  0
VERTEX
 10
9.000000
 20
64.000000
  8
38
 62
7
  6
CONTINUOUS
  0
SEQEND
  0
TEXT
  8
38
 62
7
  6
L010100020032000000
 10
5.200000
 20
65.600000
 40
3.000000
  1
W
 50
0.000000
 51
0.000000
 72
1
 73
0
 11
5.200000
 21
65.600000
  0
TEXT
  8
38
 62
7
  6
L010100020032000000
 10
12.500000
 20
65.700000
 40
3.000000
  1
W
 50
0.000000
 51
0.000000
 72
1
 73
0
 11
12.500000
 21
65.700000
  0
POLYLINE
  8
38
 62
7
  6
CONTINUOUS
 70
1
 66
1
  0
VERTEX
 10
23.100000
 20
64.000000
  8
38
 62
7
  6
CONTINUOUS
  0
VERTEX
 10
23.100000
 20
69.000000
  8
38
 62
7
  6
CONTINUOUS
  0
VERTEX
 10
16.100000
 20
69.000000
  8
38
 62
7
  6
CONTINUOUS
  0
VERTEX
 10
16.100000
 20
64.000000
  8
38
 62
7
  6
CONTINUOUS
  0
SEQEND
  0
TEXT
  8
38
 62
7
  6
L010100020032000000
 10
19.600000
 20
65.700000
 40
3.000000
  1
W
 50
0.000000
 51
0.000000
 72
1
 73
0
 11
19.600000
 21
65.700000
  0
POLYLINE
  8
38
 62
7
  6
CONTINUOUS
 70
1
 66
1
  0
VERTEX
 10
3.200000
 20
96.000000
 30
0.000000
  8
38
 62
7
  6
CONTINUOUS
  0
VERTEX
 10
3.200000
 20
118.000000
 30
0.000000
  8
38
 62
7
  6
CONTINUOUS
  0
VERTEX
 10
21.600000
 20
118.000000
 30
0.000000
  8
38
 62
7
  6
CONTINUOUS
  0
VERTEX
 10
21.600000
 20
96.000000
 30
0.000000
  8
38
 62
7
  6
CONTINUOUS
  0
SEQEND
  0
POLYLINE
  8
38
 62
7
  6
CONTINUOUS
 70
0
 66
1
  0
VERTEX
 10
3.200000
 20
99.000000
  8
38
 62
7
  6
CONTINUOUS
  0
VERTEX
 10
21.600000
 20
99.000000
  8
38
 62
7
  6
CONTINUOUS
  0
SEQEND
  0
POLYLINE
  8
38
 62
7
  6
CONTINUOUS
 70
1
 66
1
  0
VERTEX
 10
20.600000
 20
113.000000
 30
0.000000
  8
38
 62
7
  6
CONTINUOUS
  0
VERTEX
 10
20.600000
 20
116.000000
 30
0.000000
  8
38
 62
7
  6
CONTINUOUS
  0
VERTEX
 10
4.200000
 20
116.000000
 30
0.000000
  8
38
 62
7
  6
CONTINUOUS
  0
VERTEX
 10
4.200000
 20
113.000000
 30
0.000000
  8
38
 62
7
  6
CONTINUOUS
  0
SEQEND
  0
POLYLINE
  8
38
 62
7
  6
CONTINUOUS
 70
0
 66
1
  0
VERTEX
 10
4.200000
 20
115.900000
  8
38
 62
7
  6
CONTINUOUS
  0
VERTEX
 10
20.600000
 20
115.900000
  8
38
 62
7
  6
CONTINUOUS
  0
SEQEND
  0
POLYLINE
  8
38
 62
7
  6
CONTINUOUS
 70
1
 66
1
  0
VERTEX
 10
20.600000
 20
111.000000
 30
0.000000
  8
38
 62
7
  6
CONTINUOUS
  0
VERTEX
 10
20.600000
 20
112.500000
 30
0.000000
  8
38
 62
7
  6
CONTINUOUS
  0
VERTEX
 10
4.200000
 20
112.500000
 30
0.000000
  8
38
 62
7
  6
CONTINUOUS
  0
VERTEX
 10
4.200000
 20
111.000000
 30
0.000000
  8
38
 62
7
  6
CONTINUOUS
  0
SEQEND
  0
TEXT
  8
38
 62
7
  6
CONTINUOUS
 10
16.400000
 20
111.400000
 40
1.200000
  1
XLP1
 50
0.000000
 51
0.000000
 72
0
 73
0
  0
TEXT
  8
38
 62
7
  6
CONTINUOUS
 10
4.700000
 20
111.400000
 40
1.200000
  1
ABB
 50
0.000000
 51
0.000000
 72
0
 73
0
  0
POLYLINE
  8
38
 62
7
  6
CONTINUOUS
 70
1
 66
1
  0
VERTEX
 10
20.600000
 20
110.500000
  8
38
 62
7
  6
CONTINUOUS
  0
VERTEX
 10
4.100000
 20
110.500000
  8
38
 62
7
  6
CONTINUOUS
  0
VERTEX
 10
4.100000
 20
108.500000
  8
38
 62
7
  6
CONTINUOUS
  0
VERTEX
 10
3.800000
 20
108.500000
  8
38
 62
7
  6
CONTINUOUS
  0
VERTEX
 10
3.800000
 20
99.300000
  8
38
 62
7
  6
CONTINUOUS
  0
VERTEX
 10
21.000000
 20
99.300000
  8
38
 62
7
  6
CONTINUOUS
  0
VERTEX
 10
21.000000
 20
108.500000
  8
38
 62
7
  6
CONTINUOUS
  0
VERTEX
 10
20.600000
 20
108.500000
  8
38
 62
7
  6
CONTINUOUS
  0
SEQEND
  0
CIRCLE
  8
38
 62
7
  6
CONTINUOUS
 10
7.400000
 20
100.400000
 30
0.0
 40
0.600000
  0
CIRCLE
  8
38
 62
7
  6
CONTINUOUS
 10
17.400000
 20
109.400000
 30
0.0
 40
0.600000
  0
CIRCLE
  8
38
 62
7
  6
CONTINUOUS
 10
7.400000
 20
109.400000
 30
0.0
 40
0.600000
  0
CIRCLE
  8
38
 62
7
  6
CONTINUOUS
 10
12.400000
 20
109.400000
 30
0.0
 40
0.600000
  0
CIRCLE
  8
38
 62
7
  6
CONTINUOUS
 10
17.400000
 20
100.400000
 30
0.0
 40
0.600000
  0
CIRCLE
  8
38
 62
7
  6
CONTINUOUS
 10
12.400000
 20
100.400000
 30
0.0
 40
0.600000
  0
POLYLINE
  8
38
 62
7
  6
L014100020032000000
 70
1
 66
1
  0
VERTEX
 10
18.900000
 20
101.900000
 30
0.000000
  8
38
 62
7
  6
L014100020032000000
  0
VERTEX
 10
18.900000
 20
107.900000
 30
0.000000
  8
38
 62
7
  6
L014100020032000000
  0
VERTEX
 10
15.900000
 20
107.900000
 30
0.000000
  8
38
 62
7
  6
L014100020032000000
  0
VERTEX
 10
15.900000
 20
101.900000
 30
0.000000
  8
38
 62
7
  6
L014100020032000000
  0
SEQEND
  0
POLYLINE
  8
38
 62
7
  6
L014100020032000000
 70
1
 66
1
  0
VERTEX
 10
13.900000
 20
101.900000
 30
0.000000
  8
38
 62
7
  6
L014100020032000000
  0
VERTEX
 10
13.900000
 20
107.900000
 30
0.000000
  8
38
 62
7
  6
L014100020032000000
  0
VERTEX
 10
10.900000
 20
107.900000
 30
0.000000
  8
38
 62
7
  6
L014100020032000000
  0
VERTEX
 10
10.900000
 20
101.900000
 30
0.000000
  8
38
 62
7
  6
L014100020032000000
  0
SEQEND
  0
POLYLINE
  8
38
 62
7
  6
L014100020032000000
 70
1
 66
1
  0
VERTEX
 10
8.900000
 20
101.900000
 30
0.000000
  8
38
 62
7
  6
L014100020032000000
  0
VERTEX
 10
8.900000
 20
107.900000
 30
0.000000
  8
38
 62
7
  6
L014100020032000000
  0
VERTEX
 10
5.900000
 20
107.900000
 30
0.000000
  8
38
 62
7
  6
L014100020032000000
  0
VERTEX
 10
5.900000
 20
101.900000
 30
0.000000
  8
38
 62
7
  6
L014100020032000000
  0
SEQEND
  0
POLYLINE
  8
38
 62
7
  6
CONTINUOUS
 70
1
 66
1
  0
VERTEX
 10
21.600000
 20
2.500000
 30
0.000000
  8
38
 62
7
  6
CONTINUOUS
  0
VERTEX
 10
21.600000
 20
32.500000
 30
0.000000
  8
38
 62
7
  6
CONTINUOUS
  0
VERTEX
 10
3.200000
 20
32.500000
 30
0.000000
  8
38
 62
7
  6
CONTINUOUS
  0
VERTEX
 10
3.200000
 20
2.500000
 30
0.000000
  8
38
 62
7
  6
CONTINUOUS
  0
SEQEND
  0
TEXT
  8
2
 62
7
  6
CONTINUOUS
 10
11.000000
 20
122.400000
 40
3.000000
  1
PE
 50
90.000000
 51
0.000000
 72
0
 73
0
  0
POLYLINE
  8
2
 62
7
  6
CONTINUOUS
 70
0
 66
1
  0
VERTEX
 10
13.800000
 20
119.000000
  8
2
 62
7
  6
CONTINUOUS
  0
VERTEX
 10
13.800000
 20
122.300000
  8
2
 62
7
  6
CONTINUOUS
  0
VERTEX
 10
16.300000
 20
122.300000
  8
2
 62
7
  6
CONTINUOUS
  0
VERTEX
 10
16.300000
 20
119.000000
  8
2
 62
7
  6
CONTINUOUS
  0
SEQEND
  0
CIRCLE
  8
2
 62
7
  6
CONTINUOUS
 10
15.000000
 20
121.100000
 30
0.0
 40
0.700000
  0
CIRCLE
  8
2
 62
7
  6
CONTINUOUS
 10
10.100000
 20
121.100000
 30
0.0
 40
0.700000
  0
CIRCLE
  8
2
 62
7
  6
CONTINUOUS
 10
10.100000
 20
92.900000
 30
0.0
 40
0.700000
  0
CIRCLE
  8
2
 62
7
  6
CONTINUOUS
 10
15.000000
 20
92.900000
 30
0.0
 40
0.700000
  0
POLYLINE
  8
2
 62
7
  6
CONTINUOUS
 70
0
 66
1
  0
VERTEX
 10
8.800000
 20
119.000000
  8
2
 62
7
  6
CONTINUOUS
  0
VERTEX
 10
8.800000
 20
122.300000
  8
2
 62
7
  6
CONTINUOUS
  0
VERTEX
 10
11.300000
 20
122.300000
  8
2
 62
7
  6
CONTINUOUS
  0
VERTEX
 10
11.300000
 20
119.000000
  8
2
 62
7
  6
CONTINUOUS
  0
SEQEND
  0
POLYLINE
  8
2
 62
7
  6
CONTINUOUS
 70
0
 66
1
  0
VERTEX
 10
8.800000
 20
95.000000
  8
2
 62
7
  6
CONTINUOUS
  0
VERTEX
 10
8.800000
 20
91.700000
  8
2
 62
7
  6
CONTINUOUS
  0
VERTEX
 10
11.300000
 20
91.700000
  8
2
 62
7
  6
CONTINUOUS
  0
VERTEX
 10
11.300000
 20
95.000000
  8
2
 62
7
  6
CONTINUOUS
  0
SEQEND
  0
POLYLINE
  8
2
 62
7
  6
CONTINUOUS
 70
0
 66
1
  0
VERTEX
 10
13.800000
 20
95.000000
  8
2
 62
7
  6
CONTINUOUS
  0
VERTEX
 10
13.800000
 20
91.700000
  8
2
 62
7
  6
CONTINUOUS
  0
VERTEX
 10
16.300000
 20
91.700000
  8
2
 62
7
  6
CONTINUOUS
  0
VERTEX
 10
16.300000
 20
95.000000
  8
2
 62
7
  6
CONTINUOUS
  0
SEQEND
  0
TEXT
  8
2
 62
7
  6
CONTINUOUS
 10
15.900000
 20
122.400000
 40
3.000000
  1
N
 50
90.000000
 51
0.000000
 72
0
 73
0
  0
POLYLINE
  8
2
 62
7
  6
L014100020032000000
 70
1
 66
1
  0
VERTEX
 10
16.000000
 20
64.000000
  8
2
 62
7
  6
L014100020032000000
  0
VERTEX
 10
16.000000
 20
69.000000
  8
2
 62
7
  6
L014100020032000000
  0
VERTEX
 10
9.000000
 20
69.000000
  8
2
 62
7
  6
L014100020032000000
  0
VERTEX
 10
9.000000
 20
64.000000
  8
2
 62
7
  6
L014100020032000000
  0
SEQEND
  0
POLYLINE
  8
2
 62
7
  6
L014100020032000000
 70
1
 66
1
  0
VERTEX
 10
8.900000
 20
64.000000
  8
2
 62
7
  6
L014100020032000000
  0
VERTEX
 10
8.900000
 20
69.000000
  8
2
 62
7
  6
L014100020032000000
  0
VERTEX
 10
1.900000
 20
69.000000
  8
2
 62
7
  6
L014100020032000000
  0
VERTEX
 10
1.900000
 20
64.000000
  8
2
 62
7
  6
L014100020032000000
  0
SEQEND
  0
POLYLINE
  8
2
 62
7
  6
L014100020032000000
 70
1
 66
1
  0
VERTEX
 10
23.100000
 20
64.000000
  8
2
 62
7
  6
L014100020032000000
  0
VERTEX
 10
23.100000
 20
69.000000
  8
2
 62
7
  6
L014100020032000000
  0
VERTEX
 10
16.100000
 20
69.000000
  8
2
 62
7
  6
L014100020032000000
  0
VERTEX
 10
16.100000
 20
64.000000
  8
2
 62
7
  6
L014100020032000000
  0
SEQEND
  0
TEXT
  8
2
 62
7
  6
L010100020032000000
 10
19.600000
 20
65.700000
 40
3.000000
  1
W
 50
0.000000
 51
0.000000
 72
1
 73
0
 11
19.600000
 21
65.700000
  0
TEXT
  8
2
 62
7
  6
L010100020032000000
 10
12.500000
 20
65.700000
 40
3.000000
  1
W
 50
0.000000
 51
0.000000
 72
1
 73
0
 11
12.500000
 21
65.700000
  0
TEXT
  8
2
 62
7
  6
L010100020032000000
 10
5.200000
 20
65.600000
 40
3.000000
  1
W
 50
0.000000
 51
0.000000
 72
1
 73
0
 11
5.200000
 21
65.600000
  0
POLYLINE
  8
2
 62
7
  6
CONTINUOUS
 70
1
 66
1
  0
VERTEX
 10
3.200000
 20
96.000000
 30
0.000000
  8
2
 62
7
  6
CONTINUOUS
  0
VERTEX
 10
3.200000
 20
118.000000
 30
0.000000
  8
2
 62
7
  6
CONTINUOUS
  0
VERTEX
 10
21.600000
 20
118.000000
 30
0.000000
  8
2
 62
7
  6
CONTINUOUS
  0
VERTEX
 10
21.600000
 20
96.000000
 30
0.000000
  8
2
 62
7
  6
CONTINUOUS
  0
SEQEND
  0
POLYLINE
  8
2
 62
7
  6
CONTINUOUS
 70
1
 66
1
  0
VERTEX
 10
20.900000
 20
114.000000
 30
0.000000
  8
2
 62
7
  6
CONTINUOUS
  0
VERTEX
 10
20.900000
 20
117.000000
 30
0.000000
  8
2
 62
7
  6
CONTINUOUS
  0
VERTEX
 10
3.900000
 20
117.000000
 30
0.000000
  8
2
 62
7
  6
CONTINUOUS
  0
VERTEX
 10
3.900000
 20
114.000000
 30
0.000000
  8
2
 62
7
  6
CONTINUOUS
  0
SEQEND
  0
TEXT
  8
2
 62
7
  6
CONTINUOUS
 10
12.600000
 20
98.733333
 40
2.300000
  1
NH1
 50
0.000000
 51
0.000000
 72
1
 73
0
 11
12.600000
 21
98.733333
  0
POLYLINE
  8
2
 62
7
  6
CONTINUOUS
 70
1
 66
1
  0
VERTEX
 10
3.200000
 20
96.000000
 30
0.000000
  8
2
 62
7
  6
CONTINUOUS
  0
VERTEX
 10
3.200000
 20
118.000000
 30
0.000000
  8
2
 62
7
  6
CONTINUOUS
  0
VERTEX
 10
21.600000
 20
118.000000
 30
0.000000
  8
2
 62
7
  6
CONTINUOUS
  0
VERTEX
 10
21.600000
 20
96.000000
 30
0.000000
  8
2
 62
7
  6
CONTINUOUS
  0
SEQEND
  0
POLYLINE
  8
2
 62
7
  6
CONTINUOUS
 70
0
 66
1
  0
VERTEX
 10
3.200000
 20
99.000000
  8
2
 62
7
  6
CONTINUOUS
  0
VERTEX
 10
21.600000
 20
99.000000
  8
2
 62
7
  6
CONTINUOUS
  0
SEQEND
  0
POLYLINE
  8
2
 62
7
  6
CONTINUOUS
 70
1
 66
1
  0
VERTEX
 10
20.600000
 20
113.000000
 30
0.000000
  8
2
 62
7
  6
CONTINUOUS
  0
VERTEX
 10
20.600000
 20
116.000000
 30
0.000000
  8
2
 62
7
  6
CONTINUOUS
  0
VERTEX
 10
4.200000
 20
116.000000
 30
0.000000
  8
2
 62
7
  6
CONTINUOUS
  0
VERTEX
 10
4.200000
 20
113.000000
 30
0.000000
  8
2
 62
7
  6
CONTINUOUS
  0
SEQEND
  0
POLYLINE
  8
2
 62
7
  6
CONTINUOUS
 70
0
 66
1
  0
VERTEX
 10
4.200000
 20
115.900000
  8
2
 62
7
  6
CONTINUOUS
  0
VERTEX
 10
20.600000
 20
115.900000
  8
2
 62
7
  6
CONTINUOUS
  0
SEQEND
  0
POLYLINE
  8
2
 62
7
  6
CONTINUOUS
 70
1
 66
1
  0
VERTEX
 10
20.600000
 20
111.000000
 30
0.000000
  8
2
 62
7
  6
CONTINUOUS
  0
VERTEX
 10
20.600000
 20
112.500000
 30
0.000000
  8
2
 62
7
  6
CONTINUOUS
  0
VERTEX
 10
4.200000
 20
112.500000
 30
0.000000
  8
2
 62
7
  6
CONTINUOUS
  0
VERTEX
 10
4.200000
 20
111.000000
 30
0.000000
  8
2
 62
7
  6
CONTINUOUS
  0
SEQEND
  0
TEXT
  8
2
 62
7
  6
CONTINUOUS
 10
16.400000
 20
111.400000
 40
1.200000
  1
XLP1
 50
0.000000
 51
0.000000
 72
0
 73
0
  0
TEXT
  8
2
 62
7
  6
CONTINUOUS
 10
4.700000
 20
111.400000
 40
1.200000
  1
ABB
 50
0.000000
 51
0.000000
 72
0
 73
0
  0
POLYLINE
  8
2
 62
7
  6
CONTINUOUS
 70
1
 66
1
  0
VERTEX
 10
20.600000
 20
110.500000
  8
2
 62
7
  6
CONTINUOUS
  0
VERTEX
 10
4.100000
 20
110.500000
  8
2
 62
7
  6
CONTINUOUS
  0
VERTEX
 10
4.100000
 20
108.500000
  8
2
 62
7
  6
CONTINUOUS
  0
VERTEX
 10
3.800000
 20
108.500000
  8
2
 62
7
  6
CONTINUOUS
  0
VERTEX
 10
3.800000
 20
99.300000
  8
2
 62
7
  6
CONTINUOUS
  0
VERTEX
 10
21.000000
 20
99.300000
  8
2
 62
7
  6
CONTINUOUS
  0
VERTEX
 10
21.000000
 20
108.500000
  8
2
 62
7
  6
CONTINUOUS
  0
VERTEX
 10
20.600000
 20
108.500000
  8
2
 62
7
  6
CONTINUOUS
  0
SEQEND
  0
CIRCLE
  8
2
 62
7
  6
CONTINUOUS
 10
7.400000
 20
100.400000
 30
0.0
 40
0.600000
  0
CIRCLE
  8
2
 62
7
  6
CONTINUOUS
 10
17.400000
 20
109.400000
 30
0.0
 40
0.600000
  0
CIRCLE
  8
2
 62
7
  6
CONTINUOUS
 10
7.400000
 20
109.400000
 30
0.0
 40
0.600000
  0
CIRCLE
  8
2
 62
7
  6
CONTINUOUS
 10
12.400000
 20
109.400000
 30
0.0
 40
0.600000
  0
CIRCLE
  8
2
 62
7
  6
CONTINUOUS
 10
17.400000
 20
100.400000
 30
0.0
 40
0.600000
  0
CIRCLE
  8
2
 62
7
  6
CONTINUOUS
 10
12.400000
 20
100.400000
 30
0.0
 40
0.600000
  0
POLYLINE
  8
2
 62
7
  6
L014100020032000000
 70
1
 66
1
  0
VERTEX
 10
18.900000
 20
101.900000
 30
0.000000
  8
2
 62
7
  6
L014100020032000000
  0
VERTEX
 10
18.900000
 20
107.900000
 30
0.000000
  8
2
 62
7
  6
L014100020032000000
  0
VERTEX
 10
15.900000
 20
107.900000
 30
0.000000
  8
2
 62
7
  6
L014100020032000000
  0
VERTEX
 10
15.900000
 20
101.900000
 30
0.000000
  8
2
 62
7
  6
L014100020032000000
  0
SEQEND
  0
POLYLINE
  8
2
 62
7
  6
L014100020032000000
 70
1
 66
1
  0
VERTEX
 10
13.900000
 20
101.900000
 30
0.000000
  8
2
 62
7
  6
L014100020032000000
  0
VERTEX
 10
13.900000
 20
107.900000
 30
0.000000
  8
2
 62
7
  6
L014100020032000000
  0
VERTEX
 10
10.900000
 20
107.900000
 30
0.000000
  8
2
 62
7
  6
L014100020032000000
  0
VERTEX
 10
10.900000
 20
101.900000
 30
0.000000
  8
2
 62
7
  6
L014100020032000000
  0
SEQEND
  0
POLYLINE
  8
2
 62
7
  6
L014100020032000000
 70
1
 66
1
  0
VERTEX
 10
8.900000
 20
101.900000
 30
0.000000
  8
2
 62
7
  6
L014100020032000000
  0
VERTEX
 10
8.900000
 20
107.900000
 30
0.000000
  8
2
 62
7
  6
L014100020032000000
  0
VERTEX
 10
5.900000
 20
107.900000
 30
0.000000
  8
2
 62
7
  6
L014100020032000000
  0
VERTEX
 10
5.900000
 20
101.900000
 30
0.000000
  8
2
 62
7
  6
L014100020032000000
  0
SEQEND
  0
POLYLINE
  8
2
 62
7
  6
L014100040032000000
 70
1
 66
1
  0
VERTEX
 10
21.600000
 20
2.500000
 30
0.000000
  8
2
 62
7
  6
L014100040032000000
  0
VERTEX
 10
21.600000
 20
32.500000
 30
0.000000
  8
2
 62
7
  6
L014100040032000000
  0
VERTEX
 10
3.200000
 20
32.500000
 30
0.000000
  8
2
 62
7
  6
L014100040032000000
  0
VERTEX
 10
3.200000
 20
2.500000
 30
0.000000
  8
2
 62
7
  6
L014100040032000000
  0
SEQEND
  0
POLYLINE
  8
2
 62
7
  6
CONTINUOUS
 70
1
 66
1
  0
VERTEX
 10
3.200000
 20
6.700000
 30
0.000000
  8
2
 62
7
  6
CONTINUOUS
  0
VERTEX
 10
3.200000
 20
31.200000
 30
0.000000
  8
2
 62
7
  6
CONTINUOUS
  0
VERTEX
 10
21.600000
 20
31.200000
 30
0.000000
  8
2
 62
7
  6
CONTINUOUS
  0
VERTEX
 10
21.600000
 20
6.700000
 30
0.000000
  8
2
 62
7
  6
CONTINUOUS
  0
SEQEND
  0
POLYLINE
  8
2
 62
7
  6
CONTINUOUS
 70
1
 66
1
  0
VERTEX
 10
19.600000
 20
26.000000
 30
0.000000
  8
2
 62
7
  6
CONTINUOUS
  0
VERTEX
 10
19.600000
 20
29.000000
 30
0.000000
  8
2
 62
7
  6
CONTINUOUS
  0
VERTEX
 10
5.400000
 20
29.000000
 30
0.000000
  8
2
 62
7
  6
CONTINUOUS
  0
VERTEX
 10
5.400000
 20
26.000000
 30
0.000000
  8
2
 62
7
  6
CONTINUOUS
  0
SEQEND
  0
TEXT
  8
2
 62
7
  6
CONTINUOUS
 10
12.600000
 20
3.733333
 40
2.300000
  1
NH1
 50
0.000000
 51
0.000000
 72
1
 73
0
 11
12.600000
 21
3.733333
  0
POLYLINE
  8
2
 62
7
  6
CONTINUOUS
 70
1
 66
1
  0
VERTEX
 10
14.900000
 20
6.700000
 30
0.000000
  8
2
 62
7
  6
CONTINUOUS
  0
VERTEX
 10
14.900000
 20
22.700000
 30
0.000000
  8
2
 62
7
  6
CONTINUOUS
  0
VERTEX
 10
10.100000
 20
22.700000
 30
0.000000
  8
2
 62
7
  6
CONTINUOUS
  0
VERTEX
 10
10.100000
 20
6.700000
 30
0.000000
  8
2
 62
7
  6
CONTINUOUS
  0
SEQEND
  0
POLYLINE
  8
2
 62
7
  6
CONTINUOUS
 70
1
 66
1
  0
VERTEX
 10
9.300000
 20
6.700000
 30
0.000000
  8
2
 62
7
  6
CONTINUOUS
  0
VERTEX
 10
9.300000
 20
22.700000
 30
0.000000
  8
2
 62
7
  6
CONTINUOUS
  0
VERTEX
 10
4.500000
 20
22.700000
 30
0.000000
  8
2
 62
7
  6
CONTINUOUS
  0
VERTEX
 10
4.500000
 20
6.700000
 30
0.000000
  8
2
 62
7
  6
CONTINUOUS
  0
SEQEND
  0
POLYLINE
  8
2
 62
7
  6
CONTINUOUS
 70
1
 66
1
  0
VERTEX
 10
20.500000
 20
6.700000
 30
0.000000
  8
2
 62
7
  6
CONTINUOUS
  0
VERTEX
 10
20.500000
 20
22.700000
 30
0.000000
  8
2
 62
7
  6
CONTINUOUS
  0
VERTEX
 10
15.700000
 20
22.700000
 30
0.000000
  8
2
 62
7
  6
CONTINUOUS
  0
VERTEX
 10
15.700000
 20
6.700000
 30
0.000000
  8
2
 62
7
  6
CONTINUOUS
  0
SEQEND
  0
POLYLINE
  8
30
 62
7
  6
CONTINUOUS
 70
1
 66
1
  0
VERTEX
 10
1.700000
 20
5.700000
 30
0.000000
  8
30
 62
7
  6
CONTINUOUS
  0
VERTEX
 10
1.700000
 20
28.200000
 30
0.000000
  8
30
 62
7
  6
CONTINUOUS
  0
VERTEX
 10
0.700000
 20
28.200000
 30
0.000000
  8
30
 62
7
  6
CONTINUOUS
  0
VERTEX
 10
0.700000
 20
5.700000
 30
0.000000
  8
30
 62
7
  6
CONTINUOUS
  0
SEQEND
  0
POLYLINE
  8
30
 62
7
  6
CONTINUOUS
 70
1
 66
1
  0
VERTEX
 10
26.700000
 20
5.700000
 30
0.000000
  8
30
 62
7
  6
CONTINUOUS
  0
VERTEX
 10
26.700000
 20
28.200000
 30
0.000000
  8
30
 62
7
  6
CONTINUOUS
  0
VERTEX
 10
23.300000
 20
28.200000
 30
0.000000
  8
30
 62
7
  6
CONTINUOUS
  0
VERTEX
 10
23.300000
 20
5.700000
 30
0.000000
  8
30
 62
7
  6
CONTINUOUS
  0
SEQEND
  0
POLYLINE
  8
30
 62
7
  6
CONTINUOUS
 70
1
 66
1
  0
VERTEX
 10
49.300000
 20
5.700000
 30
0.000000
  8
30
 62
7
  6
CONTINUOUS
  0
VERTEX
 10
49.300000
 20
28.200000
 30
0.000000
  8
30
 62
7
  6
CONTINUOUS
  0
VERTEX
 10
48.300000
 20
28.200000
 30
0.000000
  8
30
 62
7
  6
CONTINUOUS
  0
VERTEX
 10
48.300000
 20
5.700000
 30
0.000000
  8
30
 62
7
  6
CONTINUOUS
  0
SEQEND
  0
POLYLINE
  8
157
 62
7
  6
CONTINUOUS
 70
1
 66
1
  0
VERTEX
 10
3.200000
 20
96.000000
 30
0.000000
  8
157
 62
7
  6
CONTINUOUS
  0
VERTEX
 10
3.200000
 20
118.000000
 30
0.000000
  8
157
 62
7
  6
CONTINUOUS
  0
VERTEX
 10
21.600000
 20
118.000000
 30
0.000000
  8
157
 62
7
  6
CONTINUOUS
  0
VERTEX
 10
21.600000
 20
96.000000
 30
0.000000
  8
157
 62
7
  6
CONTINUOUS
  0
SEQEND
  0
TEXT
  8
157
 62
7
  6
CONTINUOUS
 10
12.600000
 20
98.733333
 40
2.300000
  1
NH1
 50
0.000000
 51
0.000000
 72
1
 73
0
 11
12.600000
 21
98.733333
  0
POLYLINE
  8
157
 62
7
  6
CONTINUOUS
 70
1
 66
1
  0
VERTEX
 10
20.900000
 20
114.000000
 30
0.000000
  8
157
 62
7
  6
CONTINUOUS
  0
VERTEX
 10
20.900000
 20
117.000000
 30
0.000000
  8
157
 62
7
  6
CONTINUOUS
  0
VERTEX
 10
3.900000
 20
117.000000
 30
0.000000
  8
157
 62
7
  6
CONTINUOUS
  0
VERTEX
 10
3.900000
 20
114.000000
 30
0.000000
  8
157
 62
7
  6
CONTINUOUS
  0
SEQEND
  0
LINE
  8
158
 62
1
  6
L0141000400320000FF
 10
49.000000
 20
29.000000
 11
26.000000
 21
29.000000
  0
POLYLINE
  8
158
 62
1
  6
L0000000200000000FF
 70
1
 66
1
  0
VERTEX
 10
49.000000
 20
29.000000
 30
0.000000
  8
158
 62
1
  6
L0000000200000000FF
  0
VERTEX
 10
49.000000
 20
28.000000
 30
0.000000
  8
158
 62
1
  6
L0000000200000000FF
  0
VERTEX
 10
48.000000
 20
28.000000
 30
0.000000
  8
158
 62
1
  6
L0000000200000000FF
  0
VERTEX
 10
48.000000
 20
29.000000
 30
0.000000
  8
158
 62
1
  6
L0000000200000000FF
  0
SEQEND
  0
POLYLINE
  8
158
 62
1
  6
L0000000200000000FF
 70
1
 66
1
  0
VERTEX
 10
27.000000
 20
29.000000
 30
0.000000
  8
158
 62
1
  6
L0000000200000000FF
  0
VERTEX
 10
27.000000
 20
28.000000
 30
0.000000
  8
158
 62
1
  6
L0000000200000000FF
  0
VERTEX
 10
26.000000
 20
28.000000
 30
0.000000
  8
158
 62
1
  6
L0000000200000000FF
  0
VERTEX
 10
26.000000
 20
29.000000
 30
0.000000
  8
158
 62
1
  6
L0000000200000000FF
  0
SEQEND
  0
POLYLINE
  8
158
 62
7
  6
CONTINUOUS
 70
1
 66
1
  0
VERTEX
 10
48.000000
 20
23.600000
 30
0.000000
  8
158
 62
7
  6
CONTINUOUS
  0
VERTEX
 10
48.000000
 20
25.000000
 30
0.000000
  8
158
 62
7
  6
CONTINUOUS
  0
VERTEX
 10
27.000000
 20
25.000000
 30
0.000000
  8
158
 62
7
  6
CONTINUOUS
  0
VERTEX
 10
27.000000
 20
23.600000
 30
0.000000
  8
158
 62
7
  6
CONTINUOUS
  0
SEQEND
  0
POLYLINE
  8
158
 62
7
  6
CONTINUOUS
 70
1
 66
1
  0
VERTEX
 10
48.000000
 20
19.600000
 30
0.000000
  8
158
 62
7
  6
CONTINUOUS
  0
VERTEX
 10
48.000000
 20
21.000000
 30
0.000000
  8
158
 62
7
  6
CONTINUOUS
  0
VERTEX
 10
27.000000
 20
21.000000
 30
0.000000
  8
158
 62
7
  6
CONTINUOUS
  0
VERTEX
 10
27.000000
 20
19.600000
 30
0.000000
  8
158
 62
7
  6
CONTINUOUS
  0
SEQEND
  0
POLYLINE
  8
158
 62
7
  6
CONTINUOUS
 70
1
 66
1
  0
VERTEX
 10
48.000000
 20
15.600000
 30
0.000000
  8
158
 62
7
  6
CONTINUOUS
  0
VERTEX
 10
48.000000
 20
17.000000
 30
0.000000
  8
158
 62
7
  6
CONTINUOUS
  0
VERTEX
 10
27.000000
 20
17.000000
 30
0.000000
  8
158
 62
7
  6
CONTINUOUS
  0
VERTEX
 10
27.000000
 20
15.600000
 30
0.000000
  8
158
 62
7
  6
CONTINUOUS
  0
SEQEND
  0
POLYLINE
  8
158
 62
7
  6
CONTINUOUS
 70
1
 66
1
  0
VERTEX
 10
48.000000
 20
11.600000
 30
0.000000
  8
158
 62
7
  6
CONTINUOUS
  0
VERTEX
 10
48.000000
 20
13.000000
 30
0.000000
  8
158
 62
7
  6
CONTINUOUS
  0
VERTEX
 10
27.000000
 20
13.000000
 30
0.000000
  8
158
 62
7
  6
CONTINUOUS
  0
VERTEX
 10
27.000000
 20
11.600000
 30
0.000000
  8
158
 62
7
  6
CONTINUOUS
  0
SEQEND
  0
POLYLINE
  8
158
 62
7
  6
CONTINUOUS
 70
1
 66
1
  0
VERTEX
 10
48.000000
 20
7.600000
 30
0.000000
  8
158
 62
7
  6
CONTINUOUS
  0
VERTEX
 10
48.000000
 20
9.000000
 30
0.000000
  8
158
 62
7
  6
CONTINUOUS
  0
VERTEX
 10
27.000000
 20
9.000000
 30
0.000000
  8
158
 62
7
  6
CONTINUOUS
  0
VERTEX
 10
27.000000
 20
7.600000
 30
0.000000
  8
158
 62
7
  6
CONTINUOUS
  0
SEQEND
  0
LINE
  8
160
 62
1
  6
L0141000200320000FF
 10
24.000000
 20
135.000000
 11
24.000000
 21
44.000000
  0
LINE
  8
160
 62
1
  6
L0141000200320000FF
 10
49.000000
 20
44.000000
 11
49.000000
 21
0.000000
  0
POLYLINE
  8
161
 62
7
  6
CONTINUOUS
 70
1
 66
1
  0
VERTEX
 10
24.800000
 20
101.700000
 30
0.000000
  8
161
 62
7
  6
CONTINUOUS
  0
VERTEX
 10
24.800000
 20
103.700000
 30
0.000000
  8
161
 62
7
  6
CONTINUOUS
  0
VERTEX
 10
21.900000
 20
103.700000
 30
0.000000
  8
161
 62
7
  6
CONTINUOUS
  0
VERTEX
 10
21.900000
 20
101.700000
 30
0.000000
  8
161
 62
7
  6
CONTINUOUS
  0
SEQEND
  0
POLYLINE
  8
161
 62
7
  6
CONTINUOUS
 70
1
 66
1
  0
VERTEX
 10
24.800000
 20
111.700000
 30
0.000000
  8
161
 62
7
  6
CONTINUOUS
  0
VERTEX
 10
24.800000
 20
113.700000
 30
0.000000
  8
161
 62
7
  6
CONTINUOUS
  0
VERTEX
 10
21.900000
 20
113.700000
 30
0.000000
  8
161
 62
7
  6
CONTINUOUS
  0
VERTEX
 10
21.900000
 20
111.700000
 30
0.000000
  8
161
 62
7
  6
CONTINUOUS
  0
SEQEND
  0
POLYLINE
  8
161
 62
7
  6
CONTINUOUS
 70
1
 66
1
  0
VERTEX
 10
3.100000
 20
111.700000
 30
0.000000
  8
161
 62
7
  6
CONTINUOUS
  0
VERTEX
 10
3.100000
 20
113.700000
 30
0.000000
  8
161
 62
7
  6
CONTINUOUS
  0
VERTEX
 10
0.200000
 20
113.700000
 30
0.000000
  8
161
 62
7
  6
CONTINUOUS
  0
VERTEX
 10
0.200000
 20
111.700000
 30
0.000000
  8
161
 62
7
  6
CONTINUOUS
  0
SEQEND
  0
POLYLINE
  8
161
 62
7
  6
CONTINUOUS
 70
1
 66
1
  0
VERTEX
 10
3.100000
 20
101.700000
 30
0.000000
  8
161
 62
7
  6
CONTINUOUS
  0
VERTEX
 10
3.100000
 20
103.700000
 30
0.000000
  8
161
 62
7
  6
CONTINUOUS
  0
VERTEX
 10
0.200000
 20
103.700000
 30
0.000000
  8
161
 62
7
  6
CONTINUOUS
  0
VERTEX
 10
0.200000
 20
101.700000
 30
0.000000
  8
161
 62
7
  6
CONTINUOUS
  0
SEQEND
  0
ENDBLK
  0
ENDSEC
  0
SECTION
  2
ENTITIES
  0
INSERT
  8
0
 2
ka4242
 10
0.000000
 20
0.000000
 30
0.0
 50
0.0
  0
ENDSEC
  0
EOF
