  0
SECTION
  2
HEADER
  9
$ACADVER
  1
AC1009
  9
$INSBASE
 10
0.0
 20
0.0
 30
0.0
  9
$EXTMIN
 10
0.0
 20
0.0
 30
0.0
  9
$EXTMAX
 10
0.000000
 20
0.000000
 30
0.0
  9
$LIMMIN
 10
0.0
 20
0.0
  9
$LIMMAX
 10
0.000000
 20
0.000000
  0
ENDSEC
  0
SECTION
  2
TABLES
  0
TABLE
  2
LTYPE
 70
4
  0
LTYPE
  2
CONTINUOUS
 70
64
  3
Solid line
 72
65
 73
0
 40
0.000000
  0
LTYPE
  2
L000000020000FFFFFF
 70
64
  3
Solid line
 72
65
 73
0
 40
0.000000
  0
LTYPE
  2
L000000000000000000
 70
64
  3
Solid line
 72
65
 73
0
 40
0.000000
  0
LTYPE
  2
L000000020000008000
 70
64
  3
Solid line
 72
65
 73
0
 40
0.000000
  0
ENDTAB
  0
TABLE
  2
LAYER
 70
8
  0
LAYER
  2
0
 70
64
 62
7
  6
CONTINUOUS
  0
LAYER
  2
1
 70
64
 62
7
  6
CONTINUOUS
  0
LAYER
  2
2
 70
64
 62
7
  6
CONTINUOUS
  0
LAYER
  2
3
 70
64
 62
7
  6
CONTINUOUS
  0
LAYER
  2
4
 70
64
 62
7
  6
CONTINUOUS
  0
LAYER
  2
5
 70
64
 62
7
  6
CONTINUOUS
  0
LAYER
  2
6
 70
64
 62
7
  6
CONTINUOUS
  0
LAYER
  2
7
 70
64
 62
7
  6
CONTINUOUS
  0
LAYER
  2
8
 70
64
 62
7
  6
CONTINUOUS
  0
LAYER
  2
9
 70
64
 62
7
  6
CONTINUOUS
  0
LAYER
  2
10
 70
64
 62
7
  6
CONTINUOUS
  0
LAYER
  2
11
 70
64
 62
7
  6
CONTINUOUS
  0
LAYER
  2
12
 70
64
 62
7
  6
CONTINUOUS
  0
LAYER
  2
13
 70
64
 62
7
  6
CONTINUOUS
  0
LAYER
  2
14
 70
64
 62
7
  6
CONTINUOUS
  0
LAYER
  2
15
 70
64
 62
7
  6
CONTINUOUS
  0
LAYER
  2
16
 70
64
 62
7
  6
CONTINUOUS
  0
LAYER
  2
17
 70
64
 62
7
  6
CONTINUOUS
  0
LAYER
  2
18
 70
64
 62
7
  6
CONTINUOUS
  0
LAYER
  2
19
 70
64
 62
7
  6
CONTINUOUS
  0
LAYER
  2
20
 70
64
 62
7
  6
CONTINUOUS
  0
LAYER
  2
21
 70
64
 62
7
  6
CONTINUOUS
  0
LAYER
  2
22
 70
64
 62
7
  6
CONTINUOUS
  0
LAYER
  2
23
 70
64
 62
7
  6
CONTINUOUS
  0
LAYER
  2
24
 70
64
 62
7
  6
CONTINUOUS
  0
LAYER
  2
25
 70
64
 62
7
  6
CONTINUOUS
  0
LAYER
  2
26
 70
64
 62
7
  6
CONTINUOUS
  0
LAYER
  2
27
 70
64
 62
7
  6
CONTINUOUS
  0
LAYER
  2
28
 70
64
 62
7
  6
CONTINUOUS
  0
LAYER
  2
29
 70
64
 62
-7
  6
CONTINUOUS
  0
LAYER
  2
30
 70
64
 62
7
  6
CONTINUOUS
  0
LAYER
  2
31
 70
64
 62
7
  6
CONTINUOUS
  0
LAYER
  2
32
 70
64
 62
7
  6
CONTINUOUS
  0
LAYER
  2
33
 70
64
 62
7
  6
CONTINUOUS
  0
LAYER
  2
34
 70
64
 62
7
  6
CONTINUOUS
  0
LAYER
  2
35
 70
64
 62
7
  6
CONTINUOUS
  0
LAYER
  2
36
 70
64
 62
7
  6
CONTINUOUS
  0
LAYER
  2
37
 70
64
 62
7
  6
CONTINUOUS
  0
LAYER
  2
38
 70
64
 62
7
  6
CONTINUOUS
  0
LAYER
  2
39
 70
64
 62
7
  6
CONTINUOUS
  0
LAYER
  2
40
 70
64
 62
7
  6
CONTINUOUS
  0
LAYER
  2
41
 70
64
 62
7
  6
CONTINUOUS
  0
LAYER
  2
42
 70
64
 62
7
  6
CONTINUOUS
  0
LAYER
  2
43
 70
64
 62
7
  6
CONTINUOUS
  0
LAYER
  2
44
 70
64
 62
7
  6
CONTINUOUS
  0
LAYER
  2
45
 70
64
 62
7
  6
CONTINUOUS
  0
LAYER
  2
46
 70
64
 62
7
  6
CONTINUOUS
  0
LAYER
  2
47
 70
64
 62
7
  6
CONTINUOUS
  0
LAYER
  2
48
 70
64
 62
7
  6
CONTINUOUS
  0
LAYER
  2
49
 70
64
 62
7
  6
CONTINUOUS
  0
LAYER
  2
50
 70
64
 62
7
  6
CONTINUOUS
  0
LAYER
  2
51
 70
64
 62
7
  6
CONTINUOUS
  0
LAYER
  2
52
 70
64
 62
7
  6
CONTINUOUS
  0
LAYER
  2
53
 70
64
 62
7
  6
CONTINUOUS
  0
LAYER
  2
54
 70
64
 62
7
  6
CONTINUOUS
  0
LAYER
  2
55
 70
64
 62
7
  6
CONTINUOUS
  0
LAYER
  2
56
 70
64
 62
7
  6
CONTINUOUS
  0
LAYER
  2
57
 70
64
 62
7
  6
CONTINUOUS
  0
LAYER
  2
58
 70
64
 62
7
  6
CONTINUOUS
  0
LAYER
  2
59
 70
64
 62
7
  6
CONTINUOUS
  0
LAYER
  2
60
 70
64
 62
7
  6
CONTINUOUS
  0
LAYER
  2
61
 70
64
 62
7
  6
CONTINUOUS
  0
LAYER
  2
62
 70
64
 62
7
  6
CONTINUOUS
  0
LAYER
  2
63
 70
64
 62
7
  6
CONTINUOUS
  0
LAYER
  2
64
 70
64
 62
7
  6
CONTINUOUS
  0
LAYER
  2
65
 70
64
 62
7
  6
CONTINUOUS
  0
LAYER
  2
66
 70
64
 62
7
  6
CONTINUOUS
  0
LAYER
  2
67
 70
64
 62
7
  6
CONTINUOUS
  0
LAYER
  2
68
 70
64
 62
7
  6
CONTINUOUS
  0
LAYER
  2
69
 70
64
 62
7
  6
CONTINUOUS
  0
LAYER
  2
70
 70
64
 62
7
  6
CONTINUOUS
  0
LAYER
  2
71
 70
64
 62
7
  6
CONTINUOUS
  0
LAYER
  2
72
 70
64
 62
7
  6
CONTINUOUS
  0
LAYER
  2
73
 70
64
 62
7
  6
CONTINUOUS
  0
LAYER
  2
74
 70
64
 62
7
  6
CONTINUOUS
  0
LAYER
  2
75
 70
64
 62
7
  6
CONTINUOUS
  0
LAYER
  2
76
 70
64
 62
7
  6
CONTINUOUS
  0
LAYER
  2
77
 70
64
 62
7
  6
CONTINUOUS
  0
LAYER
  2
78
 70
64
 62
7
  6
CONTINUOUS
  0
LAYER
  2
79
 70
64
 62
7
  6
CONTINUOUS
  0
LAYER
  2
80
 70
64
 62
7
  6
CONTINUOUS
  0
LAYER
  2
81
 70
64
 62
7
  6
CONTINUOUS
  0
LAYER
  2
82
 70
64
 62
7
  6
CONTINUOUS
  0
LAYER
  2
83
 70
64
 62
7
  6
CONTINUOUS
  0
LAYER
  2
84
 70
64
 62
7
  6
CONTINUOUS
  0
LAYER
  2
85
 70
64
 62
7
  6
CONTINUOUS
  0
LAYER
  2
86
 70
64
 62
7
  6
CONTINUOUS
  0
LAYER
  2
87
 70
64
 62
7
  6
CONTINUOUS
  0
LAYER
  2
88
 70
64
 62
7
  6
CONTINUOUS
  0
LAYER
  2
89
 70
64
 62
7
  6
CONTINUOUS
  0
LAYER
  2
90
 70
64
 62
7
  6
CONTINUOUS
  0
LAYER
  2
91
 70
64
 62
7
  6
CONTINUOUS
  0
LAYER
  2
92
 70
64
 62
7
  6
CONTINUOUS
  0
LAYER
  2
93
 70
64
 62
7
  6
CONTINUOUS
  0
LAYER
  2
94
 70
64
 62
7
  6
CONTINUOUS
  0
LAYER
  2
95
 70
64
 62
7
  6
CONTINUOUS
  0
LAYER
  2
96
 70
64
 62
7
  6
CONTINUOUS
  0
LAYER
  2
97
 70
64
 62
7
  6
CONTINUOUS
  0
LAYER
  2
98
 70
64
 62
7
  6
CONTINUOUS
  0
LAYER
  2
99
 70
64
 62
7
  6
CONTINUOUS
  0
LAYER
  2
100
 70
64
 62
7
  6
CONTINUOUS
  0
LAYER
  2
101
 70
64
 62
7
  6
CONTINUOUS
  0
LAYER
  2
102
 70
64
 62
7
  6
CONTINUOUS
  0
LAYER
  2
103
 70
64
 62
7
  6
CONTINUOUS
  0
LAYER
  2
104
 70
64
 62
7
  6
CONTINUOUS
  0
LAYER
  2
105
 70
64
 62
7
  6
CONTINUOUS
  0
LAYER
  2
106
 70
64
 62
7
  6
CONTINUOUS
  0
LAYER
  2
107
 70
64
 62
7
  6
CONTINUOUS
  0
LAYER
  2
108
 70
64
 62
7
  6
CONTINUOUS
  0
LAYER
  2
109
 70
64
 62
7
  6
CONTINUOUS
  0
LAYER
  2
110
 70
64
 62
7
  6
CONTINUOUS
  0
LAYER
  2
111
 70
64
 62
7
  6
CONTINUOUS
  0
LAYER
  2
112
 70
64
 62
7
  6
CONTINUOUS
  0
LAYER
  2
113
 70
64
 62
7
  6
CONTINUOUS
  0
LAYER
  2
114
 70
64
 62
7
  6
CONTINUOUS
  0
LAYER
  2
115
 70
64
 62
7
  6
CONTINUOUS
  0
LAYER
  2
116
 70
64
 62
7
  6
CONTINUOUS
  0
LAYER
  2
117
 70
64
 62
7
  6
CONTINUOUS
  0
LAYER
  2
118
 70
64
 62
7
  6
CONTINUOUS
  0
LAYER
  2
119
 70
64
 62
7
  6
CONTINUOUS
  0
LAYER
  2
120
 70
64
 62
7
  6
CONTINUOUS
  0
LAYER
  2
121
 70
64
 62
7
  6
CONTINUOUS
  0
LAYER
  2
122
 70
64
 62
7
  6
CONTINUOUS
  0
LAYER
  2
123
 70
64
 62
7
  6
CONTINUOUS
  0
LAYER
  2
124
 70
64
 62
7
  6
CONTINUOUS
  0
LAYER
  2
125
 70
64
 62
7
  6
CONTINUOUS
  0
LAYER
  2
126
 70
64
 62
7
  6
CONTINUOUS
  0
LAYER
  2
127
 70
64
 62
7
  6
CONTINUOUS
  0
LAYER
  2
128
 70
64
 62
7
  6
CONTINUOUS
  0
LAYER
  2
129
 70
64
 62
7
  6
CONTINUOUS
  0
LAYER
  2
130
 70
64
 62
7
  6
CONTINUOUS
  0
LAYER
  2
131
 70
64
 62
7
  6
CONTINUOUS
  0
LAYER
  2
132
 70
64
 62
7
  6
CONTINUOUS
  0
LAYER
  2
133
 70
64
 62
7
  6
CONTINUOUS
  0
LAYER
  2
134
 70
64
 62
7
  6
CONTINUOUS
  0
LAYER
  2
135
 70
64
 62
7
  6
CONTINUOUS
  0
LAYER
  2
136
 70
64
 62
7
  6
CONTINUOUS
  0
LAYER
  2
137
 70
64
 62
7
  6
CONTINUOUS
  0
LAYER
  2
138
 70
64
 62
7
  6
CONTINUOUS
  0
LAYER
  2
139
 70
64
 62
7
  6
CONTINUOUS
  0
LAYER
  2
140
 70
64
 62
7
  6
CONTINUOUS
  0
LAYER
  2
141
 70
64
 62
7
  6
CONTINUOUS
  0
LAYER
  2
142
 70
64
 62
7
  6
CONTINUOUS
  0
LAYER
  2
143
 70
64
 62
7
  6
CONTINUOUS
  0
LAYER
  2
144
 70
64
 62
7
  6
CONTINUOUS
  0
LAYER
  2
145
 70
64
 62
7
  6
CONTINUOUS
  0
LAYER
  2
146
 70
64
 62
7
  6
CONTINUOUS
  0
LAYER
  2
147
 70
64
 62
7
  6
CONTINUOUS
  0
LAYER
  2
148
 70
64
 62
7
  6
CONTINUOUS
  0
LAYER
  2
149
 70
64
 62
7
  6
CONTINUOUS
  0
LAYER
  2
150
 70
64
 62
7
  6
CONTINUOUS
  0
LAYER
  2
151
 70
64
 62
7
  6
CONTINUOUS
  0
LAYER
  2
152
 70
64
 62
7
  6
CONTINUOUS
  0
LAYER
  2
153
 70
64
 62
7
  6
CONTINUOUS
  0
LAYER
  2
154
 70
64
 62
7
  6
CONTINUOUS
  0
LAYER
  2
155
 70
64
 62
7
  6
CONTINUOUS
  0
LAYER
  2
156
 70
64
 62
7
  6
CONTINUOUS
  0
LAYER
  2
157
 70
64
 62
7
  6
CONTINUOUS
  0
LAYER
  2
158
 70
64
 62
7
  6
CONTINUOUS
  0
LAYER
  2
159
 70
64
 62
7
  6
CONTINUOUS
  0
LAYER
  2
160
 70
64
 62
7
  6
CONTINUOUS
  0
LAYER
  2
161
 70
64
 62
7
  6
CONTINUOUS
  0
LAYER
  2
162
 70
64
 62
7
  6
CONTINUOUS
  0
LAYER
  2
163
 70
64
 62
7
  6
CONTINUOUS
  0
LAYER
  2
164
 70
64
 62
7
  6
CONTINUOUS
  0
LAYER
  2
165
 70
64
 62
7
  6
CONTINUOUS
  0
LAYER
  2
166
 70
64
 62
7
  6
CONTINUOUS
  0
LAYER
  2
167
 70
64
 62
7
  6
CONTINUOUS
  0
LAYER
  2
168
 70
64
 62
7
  6
CONTINUOUS
  0
LAYER
  2
169
 70
64
 62
7
  6
CONTINUOUS
  0
LAYER
  2
170
 70
64
 62
7
  6
CONTINUOUS
  0
LAYER
  2
171
 70
64
 62
7
  6
CONTINUOUS
  0
LAYER
  2
172
 70
64
 62
7
  6
CONTINUOUS
  0
LAYER
  2
173
 70
64
 62
7
  6
CONTINUOUS
  0
LAYER
  2
174
 70
64
 62
7
  6
CONTINUOUS
  0
LAYER
  2
175
 70
64
 62
7
  6
CONTINUOUS
  0
LAYER
  2
176
 70
64
 62
7
  6
CONTINUOUS
  0
LAYER
  2
177
 70
64
 62
7
  6
CONTINUOUS
  0
LAYER
  2
178
 70
64
 62
7
  6
CONTINUOUS
  0
LAYER
  2
179
 70
64
 62
7
  6
CONTINUOUS
  0
LAYER
  2
180
 70
64
 62
7
  6
CONTINUOUS
  0
LAYER
  2
181
 70
64
 62
7
  6
CONTINUOUS
  0
LAYER
  2
182
 70
64
 62
7
  6
CONTINUOUS
  0
LAYER
  2
183
 70
64
 62
7
  6
CONTINUOUS
  0
LAYER
  2
184
 70
64
 62
7
  6
CONTINUOUS
  0
LAYER
  2
185
 70
64
 62
7
  6
CONTINUOUS
  0
LAYER
  2
186
 70
64
 62
7
  6
CONTINUOUS
  0
LAYER
  2
187
 70
64
 62
7
  6
CONTINUOUS
  0
LAYER
  2
188
 70
64
 62
7
  6
CONTINUOUS
  0
LAYER
  2
189
 70
64
 62
7
  6
CONTINUOUS
  0
LAYER
  2
190
 70
64
 62
7
  6
CONTINUOUS
  0
LAYER
  2
191
 70
64
 62
7
  6
CONTINUOUS
  0
LAYER
  2
192
 70
64
 62
7
  6
CONTINUOUS
  0
LAYER
  2
193
 70
64
 62
7
  6
CONTINUOUS
  0
LAYER
  2
194
 70
64
 62
7
  6
CONTINUOUS
  0
LAYER
  2
195
 70
64
 62
7
  6
CONTINUOUS
  0
LAYER
  2
196
 70
64
 62
7
  6
CONTINUOUS
  0
LAYER
  2
197
 70
64
 62
7
  6
CONTINUOUS
  0
LAYER
  2
198
 70
64
 62
7
  6
CONTINUOUS
  0
LAYER
  2
199
 70
64
 62
7
  6
CONTINUOUS
  0
ENDTAB
  0
ENDSEC
  0
SECTION
  2
BLOCKS
  0
BLOCK
  8
0
  2
ak660m
 70
 0
 10
0.0
 20
0.0
 30
0.0
  0
SOLID
  8
0
 62
255
  6
CONTINUOUS
 10
33.900000
 20
82.800000
 11
33.900000
 21
0.000000
 12
0.000000
 22
82.800000
 13
0.000000
 23
0.000000
  0
POLYLINE
  8
0
 62
7
  6
CONTINUOUS
 70
1
 66
1
  0
VERTEX
 10
33.900000
 20
82.800000
 30
0.000000
  8
0
 62
7
  6
CONTINUOUS
  0
VERTEX
 10
33.900000
 20
0.000000
 30
0.000000
  8
0
 62
7
  6
CONTINUOUS
  0
VERTEX
 10
0.000000
 20
0.000000
 30
0.000000
  8
0
 62
7
  6
CONTINUOUS
  0
VERTEX
 10
0.000000
 20
82.800000
 30
0.000000
  8
0
 62
7
  6
CONTINUOUS
  0
SEQEND
  0
POLYLINE
  8
0
 62
7
  6
CONTINUOUS
 70
1
 66
1
  0
VERTEX
 10
33.700000
 20
0.200000
 30
0.000000
  8
0
 62
7
  6
CONTINUOUS
  0
VERTEX
 10
33.700000
 20
82.600000
 30
0.000000
  8
0
 62
7
  6
CONTINUOUS
  0
VERTEX
 10
0.200000
 20
82.600000
 30
0.000000
  8
0
 62
7
  6
CONTINUOUS
  0
VERTEX
 10
0.200000
 20
0.200000
 30
0.000000
  8
0
 62
7
  6
CONTINUOUS
  0
SEQEND
  0
CIRCLE
  8
0
 62
7
  6
L000000000000000000
 10
20.100000
 20
74.600000
 30
0.0
 40
1.300000
  0
CIRCLE
  8
0
 62
7
  6
L000000000000000000
 10
13.700000
 20
74.600000
 30
0.0
 40
1.300000
  0
CIRCLE
  8
0
 62
7
  6
L000000000000000000
 10
10.200000
 20
74.600000
 30
0.0
 40
1.300000
  0
CIRCLE
  8
0
 62
7
  6
L000000000000000000
 10
23.600000
 20
74.600000
 30
0.0
 40
1.300000
  0
CIRCLE
  8
0
 62
7
  6
L000000000000000000
 10
6.700000
 20
74.600000
 30
0.0
 40
1.300000
  0
CIRCLE
  8
0
 62
7
  6
L000000000000000000
 10
27.100000
 20
74.600000
 30
0.0
 40
1.300000
  0
CIRCLE
  8
0
 62
7
  6
L000000000000000000
 10
6.700000
 20
8.100000
 30
0.0
 40
1.300000
  0
CIRCLE
  8
0
 62
7
  6
L000000000000000000
 10
10.200000
 20
8.100000
 30
0.0
 40
1.300000
  0
CIRCLE
  8
0
 62
7
  6
L000000000000000000
 10
13.700000
 20
8.100000
 30
0.0
 40
1.300000
  0
CIRCLE
  8
0
 62
7
  6
L000000000000000000
 10
20.100000
 20
8.100000
 30
0.0
 40
1.300000
  0
CIRCLE
  8
0
 62
7
  6
L000000000000000000
 10
23.600000
 20
8.100000
 30
0.0
 40
1.300000
  0
CIRCLE
  8
0
 62
7
  6
L000000000000000000
 10
27.100000
 20
8.100000
 30
0.0
 40
1.300000
  0
POLYLINE
  8
0
 62
7
  6
L000000000000000000
 70
1
 66
1
  0
VERTEX
 10
4.800000
 20
72.600000
  8
0
 62
7
  6
L000000000000000000
  0
VERTEX
 10
6.000000
 20
71.800000
  8
0
 62
7
  6
L000000000000000000
  0
VERTEX
 10
6.000000
 20
10.900000
  8
0
 62
7
  6
L000000000000000000
  0
VERTEX
 10
4.800000
 20
10.100000
  8
0
 62
7
  6
L000000000000000000
  0
SEQEND
  0
POLYLINE
  8
0
 62
7
  6
L000000000000000000
 70
1
 66
1
  0
VERTEX
 10
29.000000
 20
72.600000
  8
0
 62
7
  6
L000000000000000000
  0
VERTEX
 10
27.800000
 20
71.800000
  8
0
 62
7
  6
L000000000000000000
  0
VERTEX
 10
27.800000
 20
10.900000
  8
0
 62
7
  6
L000000000000000000
  0
VERTEX
 10
29.000000
 20
10.100000
  8
0
 62
7
  6
L000000000000000000
  0
SEQEND
  0
CIRCLE
  8
0
 62
7
  6
CONTINUOUS
 10
31.500000
 20
75.000000
 30
0.0
 40
0.500000
  0
CIRCLE
  8
0
 62
7
  6
CONTINUOUS
 10
2.500000
 20
75.000000
 30
0.0
 40
0.500000
  0
CIRCLE
  8
0
 62
7
  6
CONTINUOUS
 10
2.500000
 20
7.700000
 30
0.0
 40
0.500000
  0
CIRCLE
  8
0
 62
7
  6
CONTINUOUS
 10
31.500000
 20
7.700000
 30
0.0
 40
0.500000
  0
CIRCLE
  8
0
 62
7
  6
CONTINUOUS
 10
2.500000
 20
75.000000
 30
0.0
 40
0.900000
  0
CIRCLE
  8
0
 62
7
  6
CONTINUOUS
 10
31.500000
 20
75.000000
 30
0.0
 40
0.900000
  0
CIRCLE
  8
0
 62
7
  6
CONTINUOUS
 10
31.500000
 20
7.700000
 30
0.0
 40
0.900000
  0
CIRCLE
  8
0
 62
7
  6
CONTINUOUS
 10
2.500000
 20
7.700000
 30
0.0
 40
0.900000
  0
CIRCLE
  8
0
 62
7
  6
L000000000000000000
 10
16.900000
 20
74.600000
 30
0.0
 40
1.300000
  0
POLYLINE
  8
0
 62
7
  6
CONTINUOUS
 70
0
 66
1
  0
VERTEX
 10
2.000000
 20
74.200000
  8
0
 62
7
  6
CONTINUOUS
  0
VERTEX
 10
2.000000
 20
8.500000
  8
0
 62
7
  6
CONTINUOUS
  0
SEQEND
  0
POLYLINE
  8
0
 62
7
  6
CONTINUOUS
 70
0
 66
1
  0
VERTEX
 10
31.900000
 20
74.200000
  8
0
 62
7
  6
CONTINUOUS
  0
VERTEX
 10
31.900000
 20
8.500000
  8
0
 62
7
  6
CONTINUOUS
  0
SEQEND
  0
POLYLINE
  8
0
 62
7
  6
CONTINUOUS
 70
1
 66
1
  0
VERTEX
 10
31.500000
 20
80.000000
 30
0.000000
  8
0
 62
7
  6
CONTINUOUS
  0
VERTEX
 10
31.500000
 20
82.600000
 30
0.000000
  8
0
 62
7
  6
CONTINUOUS
  0
VERTEX
 10
2.500000
 20
82.600000
 30
0.000000
  8
0
 62
7
  6
CONTINUOUS
  0
VERTEX
 10
2.500000
 20
80.000000
 30
0.000000
  8
0
 62
7
  6
CONTINUOUS
  0
SEQEND
  0
POLYLINE
  8
0
 62
7
  6
CONTINUOUS
 70
1
 66
1
  0
VERTEX
 10
31.500000
 20
0.200000
 30
0.000000
  8
0
 62
7
  6
CONTINUOUS
  0
VERTEX
 10
31.500000
 20
2.800000
 30
0.000000
  8
0
 62
7
  6
CONTINUOUS
  0
VERTEX
 10
2.500000
 20
2.800000
 30
0.000000
  8
0
 62
7
  6
CONTINUOUS
  0
VERTEX
 10
2.500000
 20
0.200000
 30
0.000000
  8
0
 62
7
  6
CONTINUOUS
  0
SEQEND
  0
POLYLINE
  8
0
 62
7
  6
CONTINUOUS
 70
0
 66
1
  0
VERTEX
 10
2.000000
 20
73.900000
  8
0
 62
7
  6
CONTINUOUS
  0
VERTEX
 10
3.400000
 20
73.900000
  8
0
 62
7
  6
CONTINUOUS
  0
VERTEX
 10
3.900000
 20
75.200000
  8
0
 62
7
  6
CONTINUOUS
  0
VERTEX
 10
3.900000
 20
80.000000
  8
0
 62
7
  6
CONTINUOUS
  0
SEQEND
  0
POLYLINE
  8
0
 62
7
  6
CONTINUOUS
 70
0
 66
1
  0
VERTEX
 10
31.900000
 20
73.900000
  8
0
 62
7
  6
CONTINUOUS
  0
VERTEX
 10
30.500000
 20
73.900000
  8
0
 62
7
  6
CONTINUOUS
  0
VERTEX
 10
30.000000
 20
75.200000
  8
0
 62
7
  6
CONTINUOUS
  0
VERTEX
 10
30.000000
 20
80.000000
  8
0
 62
7
  6
CONTINUOUS
  0
SEQEND
  0
POLYLINE
  8
0
 62
7
  6
CONTINUOUS
 70
0
 66
1
  0
VERTEX
 10
31.900000
 20
8.900000
  8
0
 62
7
  6
CONTINUOUS
  0
VERTEX
 10
30.500000
 20
8.900000
  8
0
 62
7
  6
CONTINUOUS
  0
VERTEX
 10
30.000000
 20
7.600000
  8
0
 62
7
  6
CONTINUOUS
  0
VERTEX
 10
30.000000
 20
2.800000
  8
0
 62
7
  6
CONTINUOUS
  0
SEQEND
  0
POLYLINE
  8
0
 62
7
  6
CONTINUOUS
 70
0
 66
1
  0
VERTEX
 10
2.000000
 20
8.900000
  8
0
 62
7
  6
CONTINUOUS
  0
VERTEX
 10
3.400000
 20
8.900000
  8
0
 62
7
  6
CONTINUOUS
  0
VERTEX
 10
3.900000
 20
7.600000
  8
0
 62
7
  6
CONTINUOUS
  0
VERTEX
 10
3.900000
 20
2.800000
  8
0
 62
7
  6
CONTINUOUS
  0
SEQEND
  0
SOLID
  8
0
 62
255
  6
CONTINUOUS
 10
2.000000
 20
56.500000
 11
2.000000
 21
61.400000
 12
0.000000
 22
56.500000
 13
0.000000
 23
61.400000
  0
POLYLINE
  8
0
 62
7
  6
CONTINUOUS
 70
1
 66
1
  0
VERTEX
 10
2.000000
 20
56.500000
 30
0.000000
  8
0
 62
7
  6
CONTINUOUS
  0
VERTEX
 10
2.000000
 20
61.400000
 30
0.000000
  8
0
 62
7
  6
CONTINUOUS
  0
VERTEX
 10
0.000000
 20
61.400000
 30
0.000000
  8
0
 62
7
  6
CONTINUOUS
  0
VERTEX
 10
0.000000
 20
56.500000
 30
0.000000
  8
0
 62
7
  6
CONTINUOUS
  0
SEQEND
  0
SOLID
  8
0
 62
255
  6
CONTINUOUS
 10
2.000000
 20
44.000000
 11
2.000000
 21
48.900000
 12
0.000000
 22
44.000000
 13
0.000000
 23
48.900000
  0
POLYLINE
  8
0
 62
7
  6
CONTINUOUS
 70
1
 66
1
  0
VERTEX
 10
2.000000
 20
44.000000
 30
0.000000
  8
0
 62
7
  6
CONTINUOUS
  0
VERTEX
 10
2.000000
 20
48.900000
 30
0.000000
  8
0
 62
7
  6
CONTINUOUS
  0
VERTEX
 10
0.000000
 20
48.900000
 30
0.000000
  8
0
 62
7
  6
CONTINUOUS
  0
VERTEX
 10
0.000000
 20
44.000000
 30
0.000000
  8
0
 62
7
  6
CONTINUOUS
  0
SEQEND
  0
SOLID
  8
0
 62
255
  6
CONTINUOUS
 10
2.000000
 20
31.500000
 11
2.000000
 21
36.400000
 12
0.000000
 22
31.500000
 13
0.000000
 23
36.400000
  0
POLYLINE
  8
0
 62
7
  6
CONTINUOUS
 70
1
 66
1
  0
VERTEX
 10
2.000000
 20
31.500000
 30
0.000000
  8
0
 62
7
  6
CONTINUOUS
  0
VERTEX
 10
2.000000
 20
36.400000
 30
0.000000
  8
0
 62
7
  6
CONTINUOUS
  0
VERTEX
 10
0.000000
 20
36.400000
 30
0.000000
  8
0
 62
7
  6
CONTINUOUS
  0
VERTEX
 10
0.000000
 20
31.500000
 30
0.000000
  8
0
 62
7
  6
CONTINUOUS
  0
SEQEND
  0
SOLID
  8
0
 62
255
  6
CONTINUOUS
 10
2.000000
 20
19.000000
 11
2.000000
 21
23.900000
 12
0.000000
 22
19.000000
 13
0.000000
 23
23.900000
  0
POLYLINE
  8
0
 62
7
  6
CONTINUOUS
 70
1
 66
1
  0
VERTEX
 10
2.000000
 20
19.000000
 30
0.000000
  8
0
 62
7
  6
CONTINUOUS
  0
VERTEX
 10
2.000000
 20
23.900000
 30
0.000000
  8
0
 62
7
  6
CONTINUOUS
  0
VERTEX
 10
0.000000
 20
23.900000
 30
0.000000
  8
0
 62
7
  6
CONTINUOUS
  0
VERTEX
 10
0.000000
 20
19.000000
 30
0.000000
  8
0
 62
7
  6
CONTINUOUS
  0
SEQEND
  0
SOLID
  8
0
 62
255
  6
CONTINUOUS
 10
33.900000
 20
56.500000
 11
33.900000
 21
61.400000
 12
31.900000
 22
56.500000
 13
31.900000
 23
61.400000
  0
POLYLINE
  8
0
 62
7
  6
CONTINUOUS
 70
1
 66
1
  0
VERTEX
 10
33.900000
 20
56.500000
 30
0.000000
  8
0
 62
7
  6
CONTINUOUS
  0
VERTEX
 10
33.900000
 20
61.400000
 30
0.000000
  8
0
 62
7
  6
CONTINUOUS
  0
VERTEX
 10
31.900000
 20
61.400000
 30
0.000000
  8
0
 62
7
  6
CONTINUOUS
  0
VERTEX
 10
31.900000
 20
56.500000
 30
0.000000
  8
0
 62
7
  6
CONTINUOUS
  0
SEQEND
  0
SOLID
  8
0
 62
255
  6
CONTINUOUS
 10
33.900000
 20
44.000000
 11
33.900000
 21
48.900000
 12
31.900000
 22
44.000000
 13
31.900000
 23
48.900000
  0
POLYLINE
  8
0
 62
7
  6
CONTINUOUS
 70
1
 66
1
  0
VERTEX
 10
33.900000
 20
44.000000
 30
0.000000
  8
0
 62
7
  6
CONTINUOUS
  0
VERTEX
 10
33.900000
 20
48.900000
 30
0.000000
  8
0
 62
7
  6
CONTINUOUS
  0
VERTEX
 10
31.900000
 20
48.900000
 30
0.000000
  8
0
 62
7
  6
CONTINUOUS
  0
VERTEX
 10
31.900000
 20
44.000000
 30
0.000000
  8
0
 62
7
  6
CONTINUOUS
  0
SEQEND
  0
SOLID
  8
0
 62
255
  6
CONTINUOUS
 10
33.900000
 20
31.500000
 11
33.900000
 21
36.400000
 12
31.900000
 22
31.500000
 13
31.900000
 23
36.400000
  0
POLYLINE
  8
0
 62
7
  6
CONTINUOUS
 70
1
 66
1
  0
VERTEX
 10
33.900000
 20
31.500000
 30
0.000000
  8
0
 62
7
  6
CONTINUOUS
  0
VERTEX
 10
33.900000
 20
36.400000
 30
0.000000
  8
0
 62
7
  6
CONTINUOUS
  0
VERTEX
 10
31.900000
 20
36.400000
 30
0.000000
  8
0
 62
7
  6
CONTINUOUS
  0
VERTEX
 10
31.900000
 20
31.500000
 30
0.000000
  8
0
 62
7
  6
CONTINUOUS
  0
SEQEND
  0
SOLID
  8
0
 62
255
  6
CONTINUOUS
 10
33.900000
 20
19.000000
 11
33.900000
 21
23.900000
 12
31.900000
 22
19.000000
 13
31.900000
 23
23.900000
  0
POLYLINE
  8
0
 62
7
  6
CONTINUOUS
 70
1
 66
1
  0
VERTEX
 10
33.900000
 20
19.000000
 30
0.000000
  8
0
 62
7
  6
CONTINUOUS
  0
VERTEX
 10
33.900000
 20
23.900000
 30
0.000000
  8
0
 62
7
  6
CONTINUOUS
  0
VERTEX
 10
31.900000
 20
23.900000
 30
0.000000
  8
0
 62
7
  6
CONTINUOUS
  0
VERTEX
 10
31.900000
 20
19.000000
 30
0.000000
  8
0
 62
7
  6
CONTINUOUS
  0
SEQEND
  0
SOLID
  8
0
 62
255
  6
CONTINUOUS
 10
2.000000
 20
67.000000
 11
2.000000
 21
71.900000
 12
0.000000
 22
67.000000
 13
0.000000
 23
71.900000
  0
POLYLINE
  8
0
 62
7
  6
CONTINUOUS
 70
1
 66
1
  0
VERTEX
 10
2.000000
 20
67.000000
 30
0.000000
  8
0
 62
7
  6
CONTINUOUS
  0
VERTEX
 10
2.000000
 20
71.900000
 30
0.000000
  8
0
 62
7
  6
CONTINUOUS
  0
VERTEX
 10
0.000000
 20
71.900000
 30
0.000000
  8
0
 62
7
  6
CONTINUOUS
  0
VERTEX
 10
0.000000
 20
67.000000
 30
0.000000
  8
0
 62
7
  6
CONTINUOUS
  0
SEQEND
  0
SOLID
  8
0
 62
255
  6
CONTINUOUS
 10
2.000000
 20
12.100000
 11
2.000000
 21
17.000000
 12
0.000000
 22
12.100000
 13
0.000000
 23
17.000000
  0
POLYLINE
  8
0
 62
7
  6
CONTINUOUS
 70
1
 66
1
  0
VERTEX
 10
2.000000
 20
12.100000
 30
0.000000
  8
0
 62
7
  6
CONTINUOUS
  0
VERTEX
 10
2.000000
 20
17.000000
 30
0.000000
  8
0
 62
7
  6
CONTINUOUS
  0
VERTEX
 10
0.000000
 20
17.000000
 30
0.000000
  8
0
 62
7
  6
CONTINUOUS
  0
VERTEX
 10
0.000000
 20
12.100000
 30
0.000000
  8
0
 62
7
  6
CONTINUOUS
  0
SEQEND
  0
SOLID
  8
0
 62
255
  6
CONTINUOUS
 10
33.900000
 20
67.000000
 11
33.900000
 21
71.900000
 12
31.900000
 22
67.000000
 13
31.900000
 23
71.900000
  0
POLYLINE
  8
0
 62
7
  6
CONTINUOUS
 70
1
 66
1
  0
VERTEX
 10
33.900000
 20
67.000000
 30
0.000000
  8
0
 62
7
  6
CONTINUOUS
  0
VERTEX
 10
33.900000
 20
71.900000
 30
0.000000
  8
0
 62
7
  6
CONTINUOUS
  0
VERTEX
 10
31.900000
 20
71.900000
 30
0.000000
  8
0
 62
7
  6
CONTINUOUS
  0
VERTEX
 10
31.900000
 20
67.000000
 30
0.000000
  8
0
 62
7
  6
CONTINUOUS
  0
SEQEND
  0
SOLID
  8
0
 62
255
  6
CONTINUOUS
 10
33.900000
 20
12.100000
 11
33.900000
 21
17.000000
 12
31.900000
 22
12.100000
 13
31.900000
 23
17.000000
  0
POLYLINE
  8
0
 62
7
  6
CONTINUOUS
 70
1
 66
1
  0
VERTEX
 10
33.900000
 20
12.100000
 30
0.000000
  8
0
 62
7
  6
CONTINUOUS
  0
VERTEX
 10
33.900000
 20
17.000000
 30
0.000000
  8
0
 62
7
  6
CONTINUOUS
  0
VERTEX
 10
31.900000
 20
17.000000
 30
0.000000
  8
0
 62
7
  6
CONTINUOUS
  0
VERTEX
 10
31.900000
 20
12.100000
 30
0.000000
  8
0
 62
7
  6
CONTINUOUS
  0
SEQEND
  0
CIRCLE
  8
0
 62
7
  6
CONTINUOUS
 10
32.500000
 20
4.000000
 30
0.0
 40
1.200000
  0
CIRCLE
  8
0
 62
7
  6
CONTINUOUS
 10
1.500000
 20
78.800000
 30
0.0
 40
1.200000
  0
CIRCLE
  8
0
 62
7
  6
CONTINUOUS
 10
32.500000
 20
78.800000
 30
0.0
 40
1.200000
  0
CIRCLE
  8
0
 62
7
  6
CONTINUOUS
 10
1.400000
 20
4.000000
 30
0.0
 40
1.200000
  0
CIRCLE
  8
0
 62
7
  6
L000000000000000000
 10
10.200000
 20
59.000000
 30
0.0
 40
1.300000
  0
CIRCLE
  8
0
 62
7
  6
L000000000000000000
 10
23.600000
 20
59.000000
 30
0.0
 40
1.300000
  0
CIRCLE
  8
0
 62
7
  6
L000000000000000000
 10
20.100000
 20
59.000000
 30
0.0
 40
1.300000
  0
CIRCLE
  8
0
 62
7
  6
L000000000000000000
 10
13.700000
 20
59.000000
 30
0.0
 40
1.300000
  0
CIRCLE
  8
0
 62
7
  6
L000000000000000000
 10
10.200000
 20
46.500000
 30
0.0
 40
1.300000
  0
CIRCLE
  8
0
 62
7
  6
L000000000000000000
 10
23.600000
 20
46.500000
 30
0.0
 40
1.300000
  0
CIRCLE
  8
0
 62
7
  6
L000000000000000000
 10
20.100000
 20
46.500000
 30
0.0
 40
1.300000
  0
CIRCLE
  8
0
 62
7
  6
L000000000000000000
 10
13.700000
 20
46.500000
 30
0.0
 40
1.300000
  0
CIRCLE
  8
0
 62
7
  6
L000000000000000000
 10
10.200000
 20
34.000000
 30
0.0
 40
1.300000
  0
CIRCLE
  8
0
 62
7
  6
L000000000000000000
 10
23.600000
 20
34.000000
 30
0.0
 40
1.300000
  0
CIRCLE
  8
0
 62
7
  6
L000000000000000000
 10
20.100000
 20
34.000000
 30
0.0
 40
1.300000
  0
CIRCLE
  8
0
 62
7
  6
L000000000000000000
 10
13.700000
 20
34.000000
 30
0.0
 40
1.300000
  0
CIRCLE
  8
0
 62
7
  6
L000000000000000000
 10
10.200000
 20
21.500000
 30
0.0
 40
1.300000
  0
CIRCLE
  8
0
 62
7
  6
L000000000000000000
 10
23.600000
 20
21.500000
 30
0.0
 40
1.300000
  0
CIRCLE
  8
0
 62
7
  6
L000000000000000000
 10
20.100000
 20
21.500000
 30
0.0
 40
1.300000
  0
CIRCLE
  8
0
 62
7
  6
L000000000000000000
 10
13.700000
 20
21.500000
 30
0.0
 40
1.300000
  0
SOLID
  8
1
 62
255
  6
CONTINUOUS
 10
29.700000
 20
66.600000
 11
29.700000
 21
70.200000
 12
4.100000
 22
66.600000
 13
4.100000
 23
70.200000
  0
POLYLINE
  8
1
 62
7
  6
CONTINUOUS
 70
1
 66
1
  0
VERTEX
 10
29.700000
 20
66.600000
 30
0.000000
  8
1
 62
7
  6
CONTINUOUS
  0
VERTEX
 10
29.700000
 20
70.200000
 30
0.000000
  8
1
 62
7
  6
CONTINUOUS
  0
VERTEX
 10
4.100000
 20
70.200000
 30
0.000000
  8
1
 62
7
  6
CONTINUOUS
  0
VERTEX
 10
4.100000
 20
66.600000
 30
0.000000
  8
1
 62
7
  6
CONTINUOUS
  0
SEQEND
  0
POLYLINE
  8
1
 62
7
  6
CONTINUOUS
 70
1
 66
1
  0
VERTEX
 10
29.700000
 20
67.100000
 30
0.000000
  8
1
 62
7
  6
CONTINUOUS
  0
VERTEX
 10
29.700000
 20
69.700000
 30
0.000000
  8
1
 62
7
  6
CONTINUOUS
  0
VERTEX
 10
4.100000
 20
69.700000
 30
0.000000
  8
1
 62
7
  6
CONTINUOUS
  0
VERTEX
 10
4.100000
 20
67.100000
 30
0.000000
  8
1
 62
7
  6
CONTINUOUS
  0
SEQEND
  0
POLYLINE
  8
1
 62
7
  6
L000000000000000000
 70
1
 66
1
  0
VERTEX
 10
29.700000
 20
67.000000
 30
0.000000
  8
1
 62
7
  6
L000000000000000000
  0
VERTEX
 10
29.700000
 20
69.800000
 30
0.000000
  8
1
 62
7
  6
L000000000000000000
  0
VERTEX
 10
4.100000
 20
69.800000
 30
0.000000
  8
1
 62
7
  6
L000000000000000000
  0
VERTEX
 10
4.100000
 20
67.000000
 30
0.000000
  8
1
 62
7
  6
L000000000000000000
  0
SEQEND
  0
POLYLINE
  8
1
 62
7
  6
CONTINUOUS
 70
1
 66
1
  0
VERTEX
 10
29.700000
 20
66.600000
 30
0.000000
  8
1
 62
7
  6
CONTINUOUS
  0
VERTEX
 10
29.700000
 20
70.200000
 30
0.000000
  8
1
 62
7
  6
CONTINUOUS
  0
VERTEX
 10
4.100000
 20
70.200000
 30
0.000000
  8
1
 62
7
  6
CONTINUOUS
  0
VERTEX
 10
4.100000
 20
66.600000
 30
0.000000
  8
1
 62
7
  6
CONTINUOUS
  0
SEQEND
  0
POLYLINE
  8
1
 62
7
  6
CONTINUOUS
 70
1
 66
1
  0
VERTEX
 10
6.000000
 20
72.600000
  8
1
 62
7
  6
CONTINUOUS
  0
VERTEX
 10
27.800000
 20
72.600000
  8
1
 62
7
  6
CONTINUOUS
  0
VERTEX
 10
27.800000
 20
70.500000
  8
1
 62
7
  6
CONTINUOUS
  0
VERTEX
 10
29.400000
 20
70.500000
  8
1
 62
7
  6
CONTINUOUS
  0
VERTEX
 10
29.400000
 20
68.400000
  8
1
 62
7
  6
CONTINUOUS
  0
VERTEX
 10
4.400000
 20
68.400000
  8
1
 62
7
  6
CONTINUOUS
  0
VERTEX
 10
4.400000
 20
70.500000
  8
1
 62
7
  6
CONTINUOUS
  0
VERTEX
 10
6.000000
 20
70.500000
  8
1
 62
7
  6
CONTINUOUS
  0
SEQEND
  0
POLYLINE
  8
1
 62
255
  6
L000000020000FFFFFF
 70
1
 66
1
  0
VERTEX
 10
0.000000
 20
82.800000
  8
1
 62
255
  6
L000000020000FFFFFF
  0
VERTEX
 10
0.000000
 20
69.700000
  8
1
 62
255
  6
L000000020000FFFFFF
  0
VERTEX
 10
2.500000
 20
69.700000
  8
1
 62
255
  6
L000000020000FFFFFF
  0
VERTEX
 10
5.700000
 20
70.300000
  8
1
 62
255
  6
L000000020000FFFFFF
  0
VERTEX
 10
5.700000
 20
72.900000
  8
1
 62
255
  6
L000000020000FFFFFF
  0
VERTEX
 10
28.200000
 20
72.900000
  8
1
 62
255
  6
L000000020000FFFFFF
  0
VERTEX
 10
28.200000
 20
70.300000
  8
1
 62
255
  6
L000000020000FFFFFF
  0
VERTEX
 10
31.500000
 20
69.700000
  8
1
 62
255
  6
L000000020000FFFFFF
  0
VERTEX
 10
33.900000
 20
69.700000
  8
1
 62
255
  6
L000000020000FFFFFF
  0
VERTEX
 10
33.900000
 20
82.800000
  8
1
 62
255
  6
L000000020000FFFFFF
  0
SEQEND
  0
SOLID
  8
1
 62
255
  6
L000000020000FFFFFF
 10
33.900000
 20
9.600000
 11
33.900000
 21
69.700000
 12
31.500000
 22
9.600000
 13
31.500000
 23
69.700000
  0
POLYLINE
  8
1
 62
255
  6
L000000020000FFFFFF
 70
1
 66
1
  0
VERTEX
 10
33.900000
 20
9.600000
 30
0.000000
  8
1
 62
255
  6
L000000020000FFFFFF
  0
VERTEX
 10
33.900000
 20
69.700000
 30
0.000000
  8
1
 62
255
  6
L000000020000FFFFFF
  0
VERTEX
 10
31.500000
 20
69.700000
 30
0.000000
  8
1
 62
255
  6
L000000020000FFFFFF
  0
VERTEX
 10
31.500000
 20
9.600000
 30
0.000000
  8
1
 62
255
  6
L000000020000FFFFFF
  0
SEQEND
  0
SOLID
  8
1
 62
255
  6
L000000020000FFFFFF
 10
2.500000
 20
9.600000
 11
2.500000
 21
69.700000
 12
0.000000
 22
9.600000
 13
0.000000
 23
69.700000
  0
POLYLINE
  8
1
 62
255
  6
L000000020000FFFFFF
 70
1
 66
1
  0
VERTEX
 10
2.500000
 20
9.600000
 30
0.000000
  8
1
 62
255
  6
L000000020000FFFFFF
  0
VERTEX
 10
2.500000
 20
69.700000
 30
0.000000
  8
1
 62
255
  6
L000000020000FFFFFF
  0
VERTEX
 10
0.000000
 20
69.700000
 30
0.000000
  8
1
 62
255
  6
L000000020000FFFFFF
  0
VERTEX
 10
0.000000
 20
9.600000
 30
0.000000
  8
1
 62
255
  6
L000000020000FFFFFF
  0
SEQEND
  0
POLYLINE
  8
1
 62
255
  6
L000000020000FFFFFF
 70
1
 66
1
  0
VERTEX
 10
0.000000
 20
9.600000
  8
1
 62
255
  6
L000000020000FFFFFF
  0
VERTEX
 10
2.500000
 20
9.600000
  8
1
 62
255
  6
L000000020000FFFFFF
  0
VERTEX
 10
5.400000
 20
8.900000
  8
1
 62
255
  6
L000000020000FFFFFF
  0
VERTEX
 10
28.400000
 20
8.900000
  8
1
 62
255
  6
L000000020000FFFFFF
  0
VERTEX
 10
31.500000
 20
9.600000
  8
1
 62
255
  6
L000000020000FFFFFF
  0
VERTEX
 10
33.900000
 20
9.600000
  8
1
 62
255
  6
L000000020000FFFFFF
  0
VERTEX
 10
33.900000
 20
0.000000
  8
1
 62
255
  6
L000000020000FFFFFF
  0
VERTEX
 10
0.000000
 20
0.000000
  8
1
 62
255
  6
L000000020000FFFFFF
  0
SEQEND
  0
POLYLINE
  8
1
 62
7
  6
CONTINUOUS
 70
1
 66
1
  0
VERTEX
 10
33.900000
 20
82.800000
 30
0.000000
  8
1
 62
7
  6
CONTINUOUS
  0
VERTEX
 10
33.900000
 20
0.000000
 30
0.000000
  8
1
 62
7
  6
CONTINUOUS
  0
VERTEX
 10
0.000000
 20
0.000000
 30
0.000000
  8
1
 62
7
  6
CONTINUOUS
  0
VERTEX
 10
0.000000
 20
82.800000
 30
0.000000
  8
1
 62
7
  6
CONTINUOUS
  0
SEQEND
  0
POLYLINE
  8
1
 62
7
  6
CONTINUOUS
 70
1
 66
1
  0
VERTEX
 10
32.800000
 20
1.100000
 30
0.000000
  8
1
 62
7
  6
CONTINUOUS
  0
VERTEX
 10
32.800000
 20
81.700000
 30
0.000000
  8
1
 62
7
  6
CONTINUOUS
  0
VERTEX
 10
1.000000
 20
81.700000
 30
0.000000
  8
1
 62
7
  6
CONTINUOUS
  0
VERTEX
 10
1.000000
 20
1.100000
 30
0.000000
  8
1
 62
7
  6
CONTINUOUS
  0
SEQEND
  0
POLYLINE
  8
1
 62
7
  6
CONTINUOUS
 70
1
 66
1
  0
VERTEX
 10
32.600000
 20
1.300000
 30
0.000000
  8
1
 62
7
  6
CONTINUOUS
  0
VERTEX
 10
32.600000
 20
81.500000
 30
0.000000
  8
1
 62
7
  6
CONTINUOUS
  0
VERTEX
 10
1.200000
 20
81.500000
 30
0.000000
  8
1
 62
7
  6
CONTINUOUS
  0
VERTEX
 10
1.200000
 20
1.300000
 30
0.000000
  8
1
 62
7
  6
CONTINUOUS
  0
SEQEND
  0
CIRCLE
  8
1
 62
7
  6
CONTINUOUS
 10
31.500000
 20
75.000000
 30
0.0
 40
0.700000
  0
CIRCLE
  8
1
 62
7
  6
CONTINUOUS
 10
2.500000
 20
75.000000
 30
0.0
 40
0.700000
  0
CIRCLE
  8
1
 62
7
  6
CONTINUOUS
 10
31.500000
 20
7.700000
 30
0.0
 40
0.700000
  0
CIRCLE
  8
1
 62
7
  6
CONTINUOUS
 10
2.500000
 20
7.700000
 30
0.0
 40
0.700000
  0
POLYLINE
  8
1
 62
7
  6
CONTINUOUS
 70
0
 66
1
  0
VERTEX
 10
31.000000
 20
75.000000
  8
1
 62
7
  6
CONTINUOUS
  0
VERTEX
 10
32.000000
 20
75.000000
  8
1
 62
7
  6
CONTINUOUS
  0
SEQEND
  0
POLYLINE
  8
1
 62
7
  6
CONTINUOUS
 70
0
 66
1
  0
VERTEX
 10
2.000000
 20
75.000000
  8
1
 62
7
  6
CONTINUOUS
  0
VERTEX
 10
3.000000
 20
75.000000
  8
1
 62
7
  6
CONTINUOUS
  0
SEQEND
  0
POLYLINE
  8
1
 62
7
  6
CONTINUOUS
 70
0
 66
1
  0
VERTEX
 10
2.000000
 20
7.700000
  8
1
 62
7
  6
CONTINUOUS
  0
VERTEX
 10
3.000000
 20
7.700000
  8
1
 62
7
  6
CONTINUOUS
  0
SEQEND
  0
POLYLINE
  8
1
 62
7
  6
CONTINUOUS
 70
0
 66
1
  0
VERTEX
 10
31.000000
 20
7.700000
  8
1
 62
7
  6
CONTINUOUS
  0
VERTEX
 10
32.000000
 20
7.700000
  8
1
 62
7
  6
CONTINUOUS
  0
SEQEND
  0
POLYLINE
  8
1
 62
7
  6
CONTINUOUS
 70
1
 66
1
  0
VERTEX
 10
4.200000
 20
74.900000
 30
0.000000
  8
1
 62
7
  6
CONTINUOUS
  0
VERTEX
 10
4.200000
 20
75.100000
 30
0.000000
  8
1
 62
7
  6
CONTINUOUS
  0
VERTEX
 10
3.400000
 20
75.100000
 30
0.000000
  8
1
 62
7
  6
CONTINUOUS
  0
VERTEX
 10
3.400000
 20
74.900000
 30
0.000000
  8
1
 62
7
  6
CONTINUOUS
  0
SEQEND
  0
POLYLINE
  8
1
 62
7
  6
CONTINUOUS
 70
1
 66
1
  0
VERTEX
 10
29.800000
 20
7.800000
 30
0.000000
  8
1
 62
7
  6
CONTINUOUS
  0
VERTEX
 10
29.800000
 20
7.600000
 30
0.000000
  8
1
 62
7
  6
CONTINUOUS
  0
VERTEX
 10
30.600000
 20
7.600000
 30
0.000000
  8
1
 62
7
  6
CONTINUOUS
  0
VERTEX
 10
30.600000
 20
7.800000
 30
0.000000
  8
1
 62
7
  6
CONTINUOUS
  0
SEQEND
  0
POLYLINE
  8
1
 62
7
  6
CONTINUOUS
 70
0
 66
1
  0
VERTEX
 10
4.400000
 20
70.000000
  8
1
 62
7
  6
CONTINUOUS
  0
VERTEX
 10
1.200000
 20
70.000000
  8
1
 62
7
  6
CONTINUOUS
  0
SEQEND
  0
POLYLINE
  8
1
 62
7
  6
CONTINUOUS
 70
0
 66
1
  0
VERTEX
 10
2.500000
 20
10.400000
  8
1
 62
7
  6
CONTINUOUS
  0
VERTEX
 10
1.200000
 20
10.400000
  8
1
 62
7
  6
CONTINUOUS
  0
SEQEND
  0
POLYLINE
  8
1
 62
7
  6
CONTINUOUS
 70
0
 66
1
  0
VERTEX
 10
32.600000
 20
70.300000
  8
1
 62
7
  6
CONTINUOUS
  0
VERTEX
 10
28.200000
 20
70.300000
  8
1
 62
7
  6
CONTINUOUS
  0
SEQEND
  0
POLYLINE
  8
1
 62
7
  6
CONTINUOUS
 70
0
 66
1
  0
VERTEX
 10
32.600000
 20
10.100000
  8
1
 62
7
  6
CONTINUOUS
  0
VERTEX
 10
31.500000
 20
10.100000
  8
1
 62
7
  6
CONTINUOUS
  0
SEQEND
  0
POLYLINE
  8
1
 62
7
  6
L000000000000000000
 70
1
 66
1
  0
VERTEX
 10
2.900000
 20
79.200000
 30
0.000000
  8
1
 62
7
  6
L000000000000000000
  0
VERTEX
 10
2.900000
 20
79.700000
 30
0.000000
  8
1
 62
7
  6
L000000000000000000
  0
VERTEX
 10
2.400000
 20
79.700000
 30
0.000000
  8
1
 62
7
  6
L000000000000000000
  0
VERTEX
 10
2.400000
 20
79.200000
 30
0.000000
  8
1
 62
7
  6
L000000000000000000
  0
SEQEND
  0
POLYLINE
  8
1
 62
7
  6
L000000000000000000
 70
1
 66
1
  0
VERTEX
 10
2.900000
 20
78.400000
 30
0.000000
  8
1
 62
7
  6
L000000000000000000
  0
VERTEX
 10
2.900000
 20
78.900000
 30
0.000000
  8
1
 62
7
  6
L000000000000000000
  0
VERTEX
 10
2.400000
 20
78.900000
 30
0.000000
  8
1
 62
7
  6
L000000000000000000
  0
VERTEX
 10
2.400000
 20
78.400000
 30
0.000000
  8
1
 62
7
  6
L000000000000000000
  0
SEQEND
  0
POLYLINE
  8
1
 62
7
  6
L000000000000000000
 70
1
 66
1
  0
VERTEX
 10
2.900000
 20
77.600000
 30
0.000000
  8
1
 62
7
  6
L000000000000000000
  0
VERTEX
 10
2.900000
 20
78.100000
 30
0.000000
  8
1
 62
7
  6
L000000000000000000
  0
VERTEX
 10
2.400000
 20
78.100000
 30
0.000000
  8
1
 62
7
  6
L000000000000000000
  0
VERTEX
 10
2.400000
 20
77.600000
 30
0.000000
  8
1
 62
7
  6
L000000000000000000
  0
SEQEND
  0
POLYLINE
  8
1
 62
7
  6
L000000000000000000
 70
1
 66
1
  0
VERTEX
 10
2.900000
 20
76.800000
 30
0.000000
  8
1
 62
7
  6
L000000000000000000
  0
VERTEX
 10
2.900000
 20
77.300000
 30
0.000000
  8
1
 62
7
  6
L000000000000000000
  0
VERTEX
 10
2.400000
 20
77.300000
 30
0.000000
  8
1
 62
7
  6
L000000000000000000
  0
VERTEX
 10
2.400000
 20
76.800000
 30
0.000000
  8
1
 62
7
  6
L000000000000000000
  0
SEQEND
  0
POLYLINE
  8
1
 62
7
  6
L000000000000000000
 70
1
 66
1
  0
VERTEX
 10
2.900000
 20
76.000000
 30
0.000000
  8
1
 62
7
  6
L000000000000000000
  0
VERTEX
 10
2.900000
 20
76.500000
 30
0.000000
  8
1
 62
7
  6
L000000000000000000
  0
VERTEX
 10
2.400000
 20
76.500000
 30
0.000000
  8
1
 62
7
  6
L000000000000000000
  0
VERTEX
 10
2.400000
 20
76.000000
 30
0.000000
  8
1
 62
7
  6
L000000000000000000
  0
SEQEND
  0
POLYLINE
  8
1
 62
7
  6
L000000000000000000
 70
1
 66
1
  0
VERTEX
 10
3.700000
 20
80.800000
 30
0.000000
  8
1
 62
7
  6
L000000000000000000
  0
VERTEX
 10
3.700000
 20
81.300000
 30
0.000000
  8
1
 62
7
  6
L000000000000000000
  0
VERTEX
 10
3.200000
 20
81.300000
 30
0.000000
  8
1
 62
7
  6
L000000000000000000
  0
VERTEX
 10
3.200000
 20
80.800000
 30
0.000000
  8
1
 62
7
  6
L000000000000000000
  0
SEQEND
  0
POLYLINE
  8
1
 62
7
  6
L000000000000000000
 70
1
 66
1
  0
VERTEX
 10
3.700000
 20
79.200000
 30
0.000000
  8
1
 62
7
  6
L000000000000000000
  0
VERTEX
 10
3.700000
 20
79.700000
 30
0.000000
  8
1
 62
7
  6
L000000000000000000
  0
VERTEX
 10
3.200000
 20
79.700000
 30
0.000000
  8
1
 62
7
  6
L000000000000000000
  0
VERTEX
 10
3.200000
 20
79.200000
 30
0.000000
  8
1
 62
7
  6
L000000000000000000
  0
SEQEND
  0
POLYLINE
  8
1
 62
7
  6
L000000000000000000
 70
1
 66
1
  0
VERTEX
 10
3.700000
 20
77.600000
 30
0.000000
  8
1
 62
7
  6
L000000000000000000
  0
VERTEX
 10
3.700000
 20
78.100000
 30
0.000000
  8
1
 62
7
  6
L000000000000000000
  0
VERTEX
 10
3.200000
 20
78.100000
 30
0.000000
  8
1
 62
7
  6
L000000000000000000
  0
VERTEX
 10
3.200000
 20
77.600000
 30
0.000000
  8
1
 62
7
  6
L000000000000000000
  0
SEQEND
  0
POLYLINE
  8
1
 62
7
  6
L000000000000000000
 70
1
 66
1
  0
VERTEX
 10
3.700000
 20
76.800000
 30
0.000000
  8
1
 62
7
  6
L000000000000000000
  0
VERTEX
 10
3.700000
 20
77.300000
 30
0.000000
  8
1
 62
7
  6
L000000000000000000
  0
VERTEX
 10
3.200000
 20
77.300000
 30
0.000000
  8
1
 62
7
  6
L000000000000000000
  0
VERTEX
 10
3.200000
 20
76.800000
 30
0.000000
  8
1
 62
7
  6
L000000000000000000
  0
SEQEND
  0
POLYLINE
  8
1
 62
7
  6
L000000000000000000
 70
1
 66
1
  0
VERTEX
 10
3.700000
 20
76.000000
 30
0.000000
  8
1
 62
7
  6
L000000000000000000
  0
VERTEX
 10
3.700000
 20
76.500000
 30
0.000000
  8
1
 62
7
  6
L000000000000000000
  0
VERTEX
 10
3.200000
 20
76.500000
 30
0.000000
  8
1
 62
7
  6
L000000000000000000
  0
VERTEX
 10
3.200000
 20
76.000000
 30
0.000000
  8
1
 62
7
  6
L000000000000000000
  0
SEQEND
  0
POLYLINE
  8
1
 62
7
  6
L000000000000000000
 70
1
 66
1
  0
VERTEX
 10
3.700000
 20
78.400000
 30
0.000000
  8
1
 62
7
  6
L000000000000000000
  0
VERTEX
 10
3.700000
 20
78.900000
 30
0.000000
  8
1
 62
7
  6
L000000000000000000
  0
VERTEX
 10
3.200000
 20
78.900000
 30
0.000000
  8
1
 62
7
  6
L000000000000000000
  0
VERTEX
 10
3.200000
 20
78.400000
 30
0.000000
  8
1
 62
7
  6
L000000000000000000
  0
SEQEND
  0
POLYLINE
  8
1
 62
7
  6
L000000000000000000
 70
1
 66
1
  0
VERTEX
 10
3.700000
 20
80.000000
 30
0.000000
  8
1
 62
7
  6
L000000000000000000
  0
VERTEX
 10
3.700000
 20
80.500000
 30
0.000000
  8
1
 62
7
  6
L000000000000000000
  0
VERTEX
 10
3.200000
 20
80.500000
 30
0.000000
  8
1
 62
7
  6
L000000000000000000
  0
VERTEX
 10
3.200000
 20
80.000000
 30
0.000000
  8
1
 62
7
  6
L000000000000000000
  0
SEQEND
  0
POLYLINE
  8
1
 62
7
  6
L000000000000000000
 70
1
 66
1
  0
VERTEX
 10
4.500000
 20
80.800000
 30
0.000000
  8
1
 62
7
  6
L000000000000000000
  0
VERTEX
 10
4.500000
 20
81.300000
 30
0.000000
  8
1
 62
7
  6
L000000000000000000
  0
VERTEX
 10
4.000000
 20
81.300000
 30
0.000000
  8
1
 62
7
  6
L000000000000000000
  0
VERTEX
 10
4.000000
 20
80.800000
 30
0.000000
  8
1
 62
7
  6
L000000000000000000
  0
SEQEND
  0
POLYLINE
  8
1
 62
7
  6
L000000000000000000
 70
1
 66
1
  0
VERTEX
 10
4.500000
 20
79.200000
 30
0.000000
  8
1
 62
7
  6
L000000000000000000
  0
VERTEX
 10
4.500000
 20
79.700000
 30
0.000000
  8
1
 62
7
  6
L000000000000000000
  0
VERTEX
 10
4.000000
 20
79.700000
 30
0.000000
  8
1
 62
7
  6
L000000000000000000
  0
VERTEX
 10
4.000000
 20
79.200000
 30
0.000000
  8
1
 62
7
  6
L000000000000000000
  0
SEQEND
  0
POLYLINE
  8
1
 62
7
  6
L000000000000000000
 70
1
 66
1
  0
VERTEX
 10
4.500000
 20
77.600000
 30
0.000000
  8
1
 62
7
  6
L000000000000000000
  0
VERTEX
 10
4.500000
 20
78.100000
 30
0.000000
  8
1
 62
7
  6
L000000000000000000
  0
VERTEX
 10
4.000000
 20
78.100000
 30
0.000000
  8
1
 62
7
  6
L000000000000000000
  0
VERTEX
 10
4.000000
 20
77.600000
 30
0.000000
  8
1
 62
7
  6
L000000000000000000
  0
SEQEND
  0
POLYLINE
  8
1
 62
7
  6
L000000000000000000
 70
1
 66
1
  0
VERTEX
 10
4.500000
 20
76.800000
 30
0.000000
  8
1
 62
7
  6
L000000000000000000
  0
VERTEX
 10
4.500000
 20
77.300000
 30
0.000000
  8
1
 62
7
  6
L000000000000000000
  0
VERTEX
 10
4.000000
 20
77.300000
 30
0.000000
  8
1
 62
7
  6
L000000000000000000
  0
VERTEX
 10
4.000000
 20
76.800000
 30
0.000000
  8
1
 62
7
  6
L000000000000000000
  0
SEQEND
  0
POLYLINE
  8
1
 62
7
  6
L000000000000000000
 70
1
 66
1
  0
VERTEX
 10
4.500000
 20
76.000000
 30
0.000000
  8
1
 62
7
  6
L000000000000000000
  0
VERTEX
 10
4.500000
 20
76.500000
 30
0.000000
  8
1
 62
7
  6
L000000000000000000
  0
VERTEX
 10
4.000000
 20
76.500000
 30
0.000000
  8
1
 62
7
  6
L000000000000000000
  0
VERTEX
 10
4.000000
 20
76.000000
 30
0.000000
  8
1
 62
7
  6
L000000000000000000
  0
SEQEND
  0
POLYLINE
  8
1
 62
7
  6
L000000000000000000
 70
1
 66
1
  0
VERTEX
 10
4.500000
 20
78.400000
 30
0.000000
  8
1
 62
7
  6
L000000000000000000
  0
VERTEX
 10
4.500000
 20
78.900000
 30
0.000000
  8
1
 62
7
  6
L000000000000000000
  0
VERTEX
 10
4.000000
 20
78.900000
 30
0.000000
  8
1
 62
7
  6
L000000000000000000
  0
VERTEX
 10
4.000000
 20
78.400000
 30
0.000000
  8
1
 62
7
  6
L000000000000000000
  0
SEQEND
  0
POLYLINE
  8
1
 62
7
  6
L000000000000000000
 70
1
 66
1
  0
VERTEX
 10
4.500000
 20
80.000000
 30
0.000000
  8
1
 62
7
  6
L000000000000000000
  0
VERTEX
 10
4.500000
 20
80.500000
 30
0.000000
  8
1
 62
7
  6
L000000000000000000
  0
VERTEX
 10
4.000000
 20
80.500000
 30
0.000000
  8
1
 62
7
  6
L000000000000000000
  0
VERTEX
 10
4.000000
 20
80.000000
 30
0.000000
  8
1
 62
7
  6
L000000000000000000
  0
SEQEND
  0
POLYLINE
  8
1
 62
7
  6
L000000000000000000
 70
1
 66
1
  0
VERTEX
 10
5.300000
 20
80.800000
 30
0.000000
  8
1
 62
7
  6
L000000000000000000
  0
VERTEX
 10
5.300000
 20
81.300000
 30
0.000000
  8
1
 62
7
  6
L000000000000000000
  0
VERTEX
 10
4.800000
 20
81.300000
 30
0.000000
  8
1
 62
7
  6
L000000000000000000
  0
VERTEX
 10
4.800000
 20
80.800000
 30
0.000000
  8
1
 62
7
  6
L000000000000000000
  0
SEQEND
  0
POLYLINE
  8
1
 62
7
  6
L000000000000000000
 70
1
 66
1
  0
VERTEX
 10
6.900000
 20
80.800000
 30
0.000000
  8
1
 62
7
  6
L000000000000000000
  0
VERTEX
 10
6.900000
 20
81.300000
 30
0.000000
  8
1
 62
7
  6
L000000000000000000
  0
VERTEX
 10
6.400000
 20
81.300000
 30
0.000000
  8
1
 62
7
  6
L000000000000000000
  0
VERTEX
 10
6.400000
 20
80.800000
 30
0.000000
  8
1
 62
7
  6
L000000000000000000
  0
SEQEND
  0
POLYLINE
  8
1
 62
7
  6
L000000000000000000
 70
1
 66
1
  0
VERTEX
 10
6.900000
 20
80.000000
 30
0.000000
  8
1
 62
7
  6
L000000000000000000
  0
VERTEX
 10
6.900000
 20
80.500000
 30
0.000000
  8
1
 62
7
  6
L000000000000000000
  0
VERTEX
 10
6.400000
 20
80.500000
 30
0.000000
  8
1
 62
7
  6
L000000000000000000
  0
VERTEX
 10
6.400000
 20
80.000000
 30
0.000000
  8
1
 62
7
  6
L000000000000000000
  0
SEQEND
  0
POLYLINE
  8
1
 62
7
  6
L000000000000000000
 70
1
 66
1
  0
VERTEX
 10
6.100000
 20
80.800000
 30
0.000000
  8
1
 62
7
  6
L000000000000000000
  0
VERTEX
 10
6.100000
 20
81.300000
 30
0.000000
  8
1
 62
7
  6
L000000000000000000
  0
VERTEX
 10
5.600000
 20
81.300000
 30
0.000000
  8
1
 62
7
  6
L000000000000000000
  0
VERTEX
 10
5.600000
 20
80.800000
 30
0.000000
  8
1
 62
7
  6
L000000000000000000
  0
SEQEND
  0
POLYLINE
  8
1
 62
7
  6
L000000000000000000
 70
1
 66
1
  0
VERTEX
 10
5.300000
 20
80.000000
 30
0.000000
  8
1
 62
7
  6
L000000000000000000
  0
VERTEX
 10
5.300000
 20
80.500000
 30
0.000000
  8
1
 62
7
  6
L000000000000000000
  0
VERTEX
 10
4.800000
 20
80.500000
 30
0.000000
  8
1
 62
7
  6
L000000000000000000
  0
VERTEX
 10
4.800000
 20
80.000000
 30
0.000000
  8
1
 62
7
  6
L000000000000000000
  0
SEQEND
  0
POLYLINE
  8
1
 62
7
  6
L000000000000000000
 70
1
 66
1
  0
VERTEX
 10
6.100000
 20
80.000000
 30
0.000000
  8
1
 62
7
  6
L000000000000000000
  0
VERTEX
 10
6.100000
 20
80.500000
 30
0.000000
  8
1
 62
7
  6
L000000000000000000
  0
VERTEX
 10
5.600000
 20
80.500000
 30
0.000000
  8
1
 62
7
  6
L000000000000000000
  0
VERTEX
 10
5.600000
 20
80.000000
 30
0.000000
  8
1
 62
7
  6
L000000000000000000
  0
SEQEND
  0
POLYLINE
  8
1
 62
7
  6
L000000000000000000
 70
1
 66
1
  0
VERTEX
 10
5.300000
 20
79.200000
 30
0.000000
  8
1
 62
7
  6
L000000000000000000
  0
VERTEX
 10
5.300000
 20
79.700000
 30
0.000000
  8
1
 62
7
  6
L000000000000000000
  0
VERTEX
 10
4.800000
 20
79.700000
 30
0.000000
  8
1
 62
7
  6
L000000000000000000
  0
VERTEX
 10
4.800000
 20
79.200000
 30
0.000000
  8
1
 62
7
  6
L000000000000000000
  0
SEQEND
  0
POLYLINE
  8
1
 62
7
  6
L000000000000000000
 70
1
 66
1
  0
VERTEX
 10
6.100000
 20
79.200000
 30
0.000000
  8
1
 62
7
  6
L000000000000000000
  0
VERTEX
 10
6.100000
 20
79.700000
 30
0.000000
  8
1
 62
7
  6
L000000000000000000
  0
VERTEX
 10
5.600000
 20
79.700000
 30
0.000000
  8
1
 62
7
  6
L000000000000000000
  0
VERTEX
 10
5.600000
 20
79.200000
 30
0.000000
  8
1
 62
7
  6
L000000000000000000
  0
SEQEND
  0
POLYLINE
  8
1
 62
7
  6
L000000000000000000
 70
1
 66
1
  0
VERTEX
 10
6.900000
 20
79.200000
 30
0.000000
  8
1
 62
7
  6
L000000000000000000
  0
VERTEX
 10
6.900000
 20
79.700000
 30
0.000000
  8
1
 62
7
  6
L000000000000000000
  0
VERTEX
 10
6.400000
 20
79.700000
 30
0.000000
  8
1
 62
7
  6
L000000000000000000
  0
VERTEX
 10
6.400000
 20
79.200000
 30
0.000000
  8
1
 62
7
  6
L000000000000000000
  0
SEQEND
  0
POLYLINE
  8
1
 62
7
  6
L000000000000000000
 70
1
 66
1
  0
VERTEX
 10
6.900000
 20
78.400000
 30
0.000000
  8
1
 62
7
  6
L000000000000000000
  0
VERTEX
 10
6.900000
 20
78.900000
 30
0.000000
  8
1
 62
7
  6
L000000000000000000
  0
VERTEX
 10
6.400000
 20
78.900000
 30
0.000000
  8
1
 62
7
  6
L000000000000000000
  0
VERTEX
 10
6.400000
 20
78.400000
 30
0.000000
  8
1
 62
7
  6
L000000000000000000
  0
SEQEND
  0
POLYLINE
  8
1
 62
7
  6
L000000000000000000
 70
1
 66
1
  0
VERTEX
 10
6.100000
 20
77.600000
 30
0.000000
  8
1
 62
7
  6
L000000000000000000
  0
VERTEX
 10
6.100000
 20
78.100000
 30
0.000000
  8
1
 62
7
  6
L000000000000000000
  0
VERTEX
 10
5.600000
 20
78.100000
 30
0.000000
  8
1
 62
7
  6
L000000000000000000
  0
VERTEX
 10
5.600000
 20
77.600000
 30
0.000000
  8
1
 62
7
  6
L000000000000000000
  0
SEQEND
  0
POLYLINE
  8
1
 62
7
  6
L000000000000000000
 70
1
 66
1
  0
VERTEX
 10
6.100000
 20
76.800000
 30
0.000000
  8
1
 62
7
  6
L000000000000000000
  0
VERTEX
 10
6.100000
 20
77.300000
 30
0.000000
  8
1
 62
7
  6
L000000000000000000
  0
VERTEX
 10
5.600000
 20
77.300000
 30
0.000000
  8
1
 62
7
  6
L000000000000000000
  0
VERTEX
 10
5.600000
 20
76.800000
 30
0.000000
  8
1
 62
7
  6
L000000000000000000
  0
SEQEND
  0
POLYLINE
  8
1
 62
7
  6
L000000000000000000
 70
1
 66
1
  0
VERTEX
 10
6.900000
 20
76.800000
 30
0.000000
  8
1
 62
7
  6
L000000000000000000
  0
VERTEX
 10
6.900000
 20
77.300000
 30
0.000000
  8
1
 62
7
  6
L000000000000000000
  0
VERTEX
 10
6.400000
 20
77.300000
 30
0.000000
  8
1
 62
7
  6
L000000000000000000
  0
VERTEX
 10
6.400000
 20
76.800000
 30
0.000000
  8
1
 62
7
  6
L000000000000000000
  0
SEQEND
  0
POLYLINE
  8
1
 62
7
  6
L000000000000000000
 70
1
 66
1
  0
VERTEX
 10
6.900000
 20
77.600000
 30
0.000000
  8
1
 62
7
  6
L000000000000000000
  0
VERTEX
 10
6.900000
 20
78.100000
 30
0.000000
  8
1
 62
7
  6
L000000000000000000
  0
VERTEX
 10
6.400000
 20
78.100000
 30
0.000000
  8
1
 62
7
  6
L000000000000000000
  0
VERTEX
 10
6.400000
 20
77.600000
 30
0.000000
  8
1
 62
7
  6
L000000000000000000
  0
SEQEND
  0
POLYLINE
  8
1
 62
7
  6
L000000000000000000
 70
1
 66
1
  0
VERTEX
 10
6.100000
 20
78.400000
 30
0.000000
  8
1
 62
7
  6
L000000000000000000
  0
VERTEX
 10
6.100000
 20
78.900000
 30
0.000000
  8
1
 62
7
  6
L000000000000000000
  0
VERTEX
 10
5.600000
 20
78.900000
 30
0.000000
  8
1
 62
7
  6
L000000000000000000
  0
VERTEX
 10
5.600000
 20
78.400000
 30
0.000000
  8
1
 62
7
  6
L000000000000000000
  0
SEQEND
  0
POLYLINE
  8
1
 62
7
  6
L000000000000000000
 70
1
 66
1
  0
VERTEX
 10
5.300000
 20
78.400000
 30
0.000000
  8
1
 62
7
  6
L000000000000000000
  0
VERTEX
 10
5.300000
 20
78.900000
 30
0.000000
  8
1
 62
7
  6
L000000000000000000
  0
VERTEX
 10
4.800000
 20
78.900000
 30
0.000000
  8
1
 62
7
  6
L000000000000000000
  0
VERTEX
 10
4.800000
 20
78.400000
 30
0.000000
  8
1
 62
7
  6
L000000000000000000
  0
SEQEND
  0
POLYLINE
  8
1
 62
7
  6
L000000000000000000
 70
1
 66
1
  0
VERTEX
 10
5.300000
 20
77.600000
 30
0.000000
  8
1
 62
7
  6
L000000000000000000
  0
VERTEX
 10
5.300000
 20
78.100000
 30
0.000000
  8
1
 62
7
  6
L000000000000000000
  0
VERTEX
 10
4.800000
 20
78.100000
 30
0.000000
  8
1
 62
7
  6
L000000000000000000
  0
VERTEX
 10
4.800000
 20
77.600000
 30
0.000000
  8
1
 62
7
  6
L000000000000000000
  0
SEQEND
  0
POLYLINE
  8
1
 62
7
  6
L000000000000000000
 70
1
 66
1
  0
VERTEX
 10
5.300000
 20
76.800000
 30
0.000000
  8
1
 62
7
  6
L000000000000000000
  0
VERTEX
 10
5.300000
 20
77.300000
 30
0.000000
  8
1
 62
7
  6
L000000000000000000
  0
VERTEX
 10
4.800000
 20
77.300000
 30
0.000000
  8
1
 62
7
  6
L000000000000000000
  0
VERTEX
 10
4.800000
 20
76.800000
 30
0.000000
  8
1
 62
7
  6
L000000000000000000
  0
SEQEND
  0
POLYLINE
  8
1
 62
7
  6
L000000000000000000
 70
1
 66
1
  0
VERTEX
 10
5.300000
 20
76.000000
 30
0.000000
  8
1
 62
7
  6
L000000000000000000
  0
VERTEX
 10
5.300000
 20
76.500000
 30
0.000000
  8
1
 62
7
  6
L000000000000000000
  0
VERTEX
 10
4.800000
 20
76.500000
 30
0.000000
  8
1
 62
7
  6
L000000000000000000
  0
VERTEX
 10
4.800000
 20
76.000000
 30
0.000000
  8
1
 62
7
  6
L000000000000000000
  0
SEQEND
  0
POLYLINE
  8
1
 62
7
  6
L000000000000000000
 70
1
 66
1
  0
VERTEX
 10
6.100000
 20
76.000000
 30
0.000000
  8
1
 62
7
  6
L000000000000000000
  0
VERTEX
 10
6.100000
 20
76.500000
 30
0.000000
  8
1
 62
7
  6
L000000000000000000
  0
VERTEX
 10
5.600000
 20
76.500000
 30
0.000000
  8
1
 62
7
  6
L000000000000000000
  0
VERTEX
 10
5.600000
 20
76.000000
 30
0.000000
  8
1
 62
7
  6
L000000000000000000
  0
SEQEND
  0
POLYLINE
  8
1
 62
7
  6
L000000000000000000
 70
1
 66
1
  0
VERTEX
 10
6.900000
 20
76.000000
 30
0.000000
  8
1
 62
7
  6
L000000000000000000
  0
VERTEX
 10
6.900000
 20
76.500000
 30
0.000000
  8
1
 62
7
  6
L000000000000000000
  0
VERTEX
 10
6.400000
 20
76.500000
 30
0.000000
  8
1
 62
7
  6
L000000000000000000
  0
VERTEX
 10
6.400000
 20
76.000000
 30
0.000000
  8
1
 62
7
  6
L000000000000000000
  0
SEQEND
  0
POLYLINE
  8
1
 62
7
  6
L000000000000000000
 70
1
 66
1
  0
VERTEX
 10
7.700000
 20
80.800000
 30
0.000000
  8
1
 62
7
  6
L000000000000000000
  0
VERTEX
 10
7.700000
 20
81.300000
 30
0.000000
  8
1
 62
7
  6
L000000000000000000
  0
VERTEX
 10
7.200000
 20
81.300000
 30
0.000000
  8
1
 62
7
  6
L000000000000000000
  0
VERTEX
 10
7.200000
 20
80.800000
 30
0.000000
  8
1
 62
7
  6
L000000000000000000
  0
SEQEND
  0
POLYLINE
  8
1
 62
7
  6
L000000000000000000
 70
1
 66
1
  0
VERTEX
 10
9.300000
 20
80.800000
 30
0.000000
  8
1
 62
7
  6
L000000000000000000
  0
VERTEX
 10
9.300000
 20
81.300000
 30
0.000000
  8
1
 62
7
  6
L000000000000000000
  0
VERTEX
 10
8.800000
 20
81.300000
 30
0.000000
  8
1
 62
7
  6
L000000000000000000
  0
VERTEX
 10
8.800000
 20
80.800000
 30
0.000000
  8
1
 62
7
  6
L000000000000000000
  0
SEQEND
  0
POLYLINE
  8
1
 62
7
  6
L000000000000000000
 70
1
 66
1
  0
VERTEX
 10
9.300000
 20
80.000000
 30
0.000000
  8
1
 62
7
  6
L000000000000000000
  0
VERTEX
 10
9.300000
 20
80.500000
 30
0.000000
  8
1
 62
7
  6
L000000000000000000
  0
VERTEX
 10
8.800000
 20
80.500000
 30
0.000000
  8
1
 62
7
  6
L000000000000000000
  0
VERTEX
 10
8.800000
 20
80.000000
 30
0.000000
  8
1
 62
7
  6
L000000000000000000
  0
SEQEND
  0
POLYLINE
  8
1
 62
7
  6
L000000000000000000
 70
1
 66
1
  0
VERTEX
 10
8.500000
 20
80.800000
 30
0.000000
  8
1
 62
7
  6
L000000000000000000
  0
VERTEX
 10
8.500000
 20
81.300000
 30
0.000000
  8
1
 62
7
  6
L000000000000000000
  0
VERTEX
 10
8.000000
 20
81.300000
 30
0.000000
  8
1
 62
7
  6
L000000000000000000
  0
VERTEX
 10
8.000000
 20
80.800000
 30
0.000000
  8
1
 62
7
  6
L000000000000000000
  0
SEQEND
  0
POLYLINE
  8
1
 62
7
  6
L000000000000000000
 70
1
 66
1
  0
VERTEX
 10
7.700000
 20
80.000000
 30
0.000000
  8
1
 62
7
  6
L000000000000000000
  0
VERTEX
 10
7.700000
 20
80.500000
 30
0.000000
  8
1
 62
7
  6
L000000000000000000
  0
VERTEX
 10
7.200000
 20
80.500000
 30
0.000000
  8
1
 62
7
  6
L000000000000000000
  0
VERTEX
 10
7.200000
 20
80.000000
 30
0.000000
  8
1
 62
7
  6
L000000000000000000
  0
SEQEND
  0
POLYLINE
  8
1
 62
7
  6
L000000000000000000
 70
1
 66
1
  0
VERTEX
 10
8.500000
 20
80.000000
 30
0.000000
  8
1
 62
7
  6
L000000000000000000
  0
VERTEX
 10
8.500000
 20
80.500000
 30
0.000000
  8
1
 62
7
  6
L000000000000000000
  0
VERTEX
 10
8.000000
 20
80.500000
 30
0.000000
  8
1
 62
7
  6
L000000000000000000
  0
VERTEX
 10
8.000000
 20
80.000000
 30
0.000000
  8
1
 62
7
  6
L000000000000000000
  0
SEQEND
  0
POLYLINE
  8
1
 62
7
  6
L000000000000000000
 70
1
 66
1
  0
VERTEX
 10
7.700000
 20
79.200000
 30
0.000000
  8
1
 62
7
  6
L000000000000000000
  0
VERTEX
 10
7.700000
 20
79.700000
 30
0.000000
  8
1
 62
7
  6
L000000000000000000
  0
VERTEX
 10
7.200000
 20
79.700000
 30
0.000000
  8
1
 62
7
  6
L000000000000000000
  0
VERTEX
 10
7.200000
 20
79.200000
 30
0.000000
  8
1
 62
7
  6
L000000000000000000
  0
SEQEND
  0
POLYLINE
  8
1
 62
7
  6
L000000000000000000
 70
1
 66
1
  0
VERTEX
 10
8.500000
 20
79.200000
 30
0.000000
  8
1
 62
7
  6
L000000000000000000
  0
VERTEX
 10
8.500000
 20
79.700000
 30
0.000000
  8
1
 62
7
  6
L000000000000000000
  0
VERTEX
 10
8.000000
 20
79.700000
 30
0.000000
  8
1
 62
7
  6
L000000000000000000
  0
VERTEX
 10
8.000000
 20
79.200000
 30
0.000000
  8
1
 62
7
  6
L000000000000000000
  0
SEQEND
  0
POLYLINE
  8
1
 62
7
  6
L000000000000000000
 70
1
 66
1
  0
VERTEX
 10
9.300000
 20
79.200000
 30
0.000000
  8
1
 62
7
  6
L000000000000000000
  0
VERTEX
 10
9.300000
 20
79.700000
 30
0.000000
  8
1
 62
7
  6
L000000000000000000
  0
VERTEX
 10
8.800000
 20
79.700000
 30
0.000000
  8
1
 62
7
  6
L000000000000000000
  0
VERTEX
 10
8.800000
 20
79.200000
 30
0.000000
  8
1
 62
7
  6
L000000000000000000
  0
SEQEND
  0
POLYLINE
  8
1
 62
7
  6
L000000000000000000
 70
1
 66
1
  0
VERTEX
 10
9.300000
 20
78.400000
 30
0.000000
  8
1
 62
7
  6
L000000000000000000
  0
VERTEX
 10
9.300000
 20
78.900000
 30
0.000000
  8
1
 62
7
  6
L000000000000000000
  0
VERTEX
 10
8.800000
 20
78.900000
 30
0.000000
  8
1
 62
7
  6
L000000000000000000
  0
VERTEX
 10
8.800000
 20
78.400000
 30
0.000000
  8
1
 62
7
  6
L000000000000000000
  0
SEQEND
  0
POLYLINE
  8
1
 62
7
  6
L000000000000000000
 70
1
 66
1
  0
VERTEX
 10
8.500000
 20
77.600000
 30
0.000000
  8
1
 62
7
  6
L000000000000000000
  0
VERTEX
 10
8.500000
 20
78.100000
 30
0.000000
  8
1
 62
7
  6
L000000000000000000
  0
VERTEX
 10
8.000000
 20
78.100000
 30
0.000000
  8
1
 62
7
  6
L000000000000000000
  0
VERTEX
 10
8.000000
 20
77.600000
 30
0.000000
  8
1
 62
7
  6
L000000000000000000
  0
SEQEND
  0
POLYLINE
  8
1
 62
7
  6
L000000000000000000
 70
1
 66
1
  0
VERTEX
 10
8.500000
 20
76.800000
 30
0.000000
  8
1
 62
7
  6
L000000000000000000
  0
VERTEX
 10
8.500000
 20
77.300000
 30
0.000000
  8
1
 62
7
  6
L000000000000000000
  0
VERTEX
 10
8.000000
 20
77.300000
 30
0.000000
  8
1
 62
7
  6
L000000000000000000
  0
VERTEX
 10
8.000000
 20
76.800000
 30
0.000000
  8
1
 62
7
  6
L000000000000000000
  0
SEQEND
  0
POLYLINE
  8
1
 62
7
  6
L000000000000000000
 70
1
 66
1
  0
VERTEX
 10
9.300000
 20
76.800000
 30
0.000000
  8
1
 62
7
  6
L000000000000000000
  0
VERTEX
 10
9.300000
 20
77.300000
 30
0.000000
  8
1
 62
7
  6
L000000000000000000
  0
VERTEX
 10
8.800000
 20
77.300000
 30
0.000000
  8
1
 62
7
  6
L000000000000000000
  0
VERTEX
 10
8.800000
 20
76.800000
 30
0.000000
  8
1
 62
7
  6
L000000000000000000
  0
SEQEND
  0
POLYLINE
  8
1
 62
7
  6
L000000000000000000
 70
1
 66
1
  0
VERTEX
 10
9.300000
 20
77.600000
 30
0.000000
  8
1
 62
7
  6
L000000000000000000
  0
VERTEX
 10
9.300000
 20
78.100000
 30
0.000000
  8
1
 62
7
  6
L000000000000000000
  0
VERTEX
 10
8.800000
 20
78.100000
 30
0.000000
  8
1
 62
7
  6
L000000000000000000
  0
VERTEX
 10
8.800000
 20
77.600000
 30
0.000000
  8
1
 62
7
  6
L000000000000000000
  0
SEQEND
  0
POLYLINE
  8
1
 62
7
  6
L000000000000000000
 70
1
 66
1
  0
VERTEX
 10
8.500000
 20
78.400000
 30
0.000000
  8
1
 62
7
  6
L000000000000000000
  0
VERTEX
 10
8.500000
 20
78.900000
 30
0.000000
  8
1
 62
7
  6
L000000000000000000
  0
VERTEX
 10
8.000000
 20
78.900000
 30
0.000000
  8
1
 62
7
  6
L000000000000000000
  0
VERTEX
 10
8.000000
 20
78.400000
 30
0.000000
  8
1
 62
7
  6
L000000000000000000
  0
SEQEND
  0
POLYLINE
  8
1
 62
7
  6
L000000000000000000
 70
1
 66
1
  0
VERTEX
 10
7.700000
 20
78.400000
 30
0.000000
  8
1
 62
7
  6
L000000000000000000
  0
VERTEX
 10
7.700000
 20
78.900000
 30
0.000000
  8
1
 62
7
  6
L000000000000000000
  0
VERTEX
 10
7.200000
 20
78.900000
 30
0.000000
  8
1
 62
7
  6
L000000000000000000
  0
VERTEX
 10
7.200000
 20
78.400000
 30
0.000000
  8
1
 62
7
  6
L000000000000000000
  0
SEQEND
  0
POLYLINE
  8
1
 62
7
  6
L000000000000000000
 70
1
 66
1
  0
VERTEX
 10
7.700000
 20
77.600000
 30
0.000000
  8
1
 62
7
  6
L000000000000000000
  0
VERTEX
 10
7.700000
 20
78.100000
 30
0.000000
  8
1
 62
7
  6
L000000000000000000
  0
VERTEX
 10
7.200000
 20
78.100000
 30
0.000000
  8
1
 62
7
  6
L000000000000000000
  0
VERTEX
 10
7.200000
 20
77.600000
 30
0.000000
  8
1
 62
7
  6
L000000000000000000
  0
SEQEND
  0
POLYLINE
  8
1
 62
7
  6
L000000000000000000
 70
1
 66
1
  0
VERTEX
 10
7.700000
 20
76.800000
 30
0.000000
  8
1
 62
7
  6
L000000000000000000
  0
VERTEX
 10
7.700000
 20
77.300000
 30
0.000000
  8
1
 62
7
  6
L000000000000000000
  0
VERTEX
 10
7.200000
 20
77.300000
 30
0.000000
  8
1
 62
7
  6
L000000000000000000
  0
VERTEX
 10
7.200000
 20
76.800000
 30
0.000000
  8
1
 62
7
  6
L000000000000000000
  0
SEQEND
  0
POLYLINE
  8
1
 62
7
  6
L000000000000000000
 70
1
 66
1
  0
VERTEX
 10
7.700000
 20
76.000000
 30
0.000000
  8
1
 62
7
  6
L000000000000000000
  0
VERTEX
 10
7.700000
 20
76.500000
 30
0.000000
  8
1
 62
7
  6
L000000000000000000
  0
VERTEX
 10
7.200000
 20
76.500000
 30
0.000000
  8
1
 62
7
  6
L000000000000000000
  0
VERTEX
 10
7.200000
 20
76.000000
 30
0.000000
  8
1
 62
7
  6
L000000000000000000
  0
SEQEND
  0
POLYLINE
  8
1
 62
7
  6
L000000000000000000
 70
1
 66
1
  0
VERTEX
 10
8.500000
 20
76.000000
 30
0.000000
  8
1
 62
7
  6
L000000000000000000
  0
VERTEX
 10
8.500000
 20
76.500000
 30
0.000000
  8
1
 62
7
  6
L000000000000000000
  0
VERTEX
 10
8.000000
 20
76.500000
 30
0.000000
  8
1
 62
7
  6
L000000000000000000
  0
VERTEX
 10
8.000000
 20
76.000000
 30
0.000000
  8
1
 62
7
  6
L000000000000000000
  0
SEQEND
  0
POLYLINE
  8
1
 62
7
  6
L000000000000000000
 70
1
 66
1
  0
VERTEX
 10
9.300000
 20
76.000000
 30
0.000000
  8
1
 62
7
  6
L000000000000000000
  0
VERTEX
 10
9.300000
 20
76.500000
 30
0.000000
  8
1
 62
7
  6
L000000000000000000
  0
VERTEX
 10
8.800000
 20
76.500000
 30
0.000000
  8
1
 62
7
  6
L000000000000000000
  0
VERTEX
 10
8.800000
 20
76.000000
 30
0.000000
  8
1
 62
7
  6
L000000000000000000
  0
SEQEND
  0
POLYLINE
  8
1
 62
7
  6
L000000000000000000
 70
1
 66
1
  0
VERTEX
 10
10.100000
 20
80.800000
 30
0.000000
  8
1
 62
7
  6
L000000000000000000
  0
VERTEX
 10
10.100000
 20
81.300000
 30
0.000000
  8
1
 62
7
  6
L000000000000000000
  0
VERTEX
 10
9.600000
 20
81.300000
 30
0.000000
  8
1
 62
7
  6
L000000000000000000
  0
VERTEX
 10
9.600000
 20
80.800000
 30
0.000000
  8
1
 62
7
  6
L000000000000000000
  0
SEQEND
  0
POLYLINE
  8
1
 62
7
  6
L000000000000000000
 70
1
 66
1
  0
VERTEX
 10
11.700000
 20
80.800000
 30
0.000000
  8
1
 62
7
  6
L000000000000000000
  0
VERTEX
 10
11.700000
 20
81.300000
 30
0.000000
  8
1
 62
7
  6
L000000000000000000
  0
VERTEX
 10
11.200000
 20
81.300000
 30
0.000000
  8
1
 62
7
  6
L000000000000000000
  0
VERTEX
 10
11.200000
 20
80.800000
 30
0.000000
  8
1
 62
7
  6
L000000000000000000
  0
SEQEND
  0
POLYLINE
  8
1
 62
7
  6
L000000000000000000
 70
1
 66
1
  0
VERTEX
 10
11.700000
 20
80.000000
 30
0.000000
  8
1
 62
7
  6
L000000000000000000
  0
VERTEX
 10
11.700000
 20
80.500000
 30
0.000000
  8
1
 62
7
  6
L000000000000000000
  0
VERTEX
 10
11.200000
 20
80.500000
 30
0.000000
  8
1
 62
7
  6
L000000000000000000
  0
VERTEX
 10
11.200000
 20
80.000000
 30
0.000000
  8
1
 62
7
  6
L000000000000000000
  0
SEQEND
  0
POLYLINE
  8
1
 62
7
  6
L000000000000000000
 70
1
 66
1
  0
VERTEX
 10
10.900000
 20
80.800000
 30
0.000000
  8
1
 62
7
  6
L000000000000000000
  0
VERTEX
 10
10.900000
 20
81.300000
 30
0.000000
  8
1
 62
7
  6
L000000000000000000
  0
VERTEX
 10
10.400000
 20
81.300000
 30
0.000000
  8
1
 62
7
  6
L000000000000000000
  0
VERTEX
 10
10.400000
 20
80.800000
 30
0.000000
  8
1
 62
7
  6
L000000000000000000
  0
SEQEND
  0
POLYLINE
  8
1
 62
7
  6
L000000000000000000
 70
1
 66
1
  0
VERTEX
 10
10.100000
 20
80.000000
 30
0.000000
  8
1
 62
7
  6
L000000000000000000
  0
VERTEX
 10
10.100000
 20
80.500000
 30
0.000000
  8
1
 62
7
  6
L000000000000000000
  0
VERTEX
 10
9.600000
 20
80.500000
 30
0.000000
  8
1
 62
7
  6
L000000000000000000
  0
VERTEX
 10
9.600000
 20
80.000000
 30
0.000000
  8
1
 62
7
  6
L000000000000000000
  0
SEQEND
  0
POLYLINE
  8
1
 62
7
  6
L000000000000000000
 70
1
 66
1
  0
VERTEX
 10
10.900000
 20
80.000000
 30
0.000000
  8
1
 62
7
  6
L000000000000000000
  0
VERTEX
 10
10.900000
 20
80.500000
 30
0.000000
  8
1
 62
7
  6
L000000000000000000
  0
VERTEX
 10
10.400000
 20
80.500000
 30
0.000000
  8
1
 62
7
  6
L000000000000000000
  0
VERTEX
 10
10.400000
 20
80.000000
 30
0.000000
  8
1
 62
7
  6
L000000000000000000
  0
SEQEND
  0
POLYLINE
  8
1
 62
7
  6
L000000000000000000
 70
1
 66
1
  0
VERTEX
 10
10.100000
 20
79.200000
 30
0.000000
  8
1
 62
7
  6
L000000000000000000
  0
VERTEX
 10
10.100000
 20
79.700000
 30
0.000000
  8
1
 62
7
  6
L000000000000000000
  0
VERTEX
 10
9.600000
 20
79.700000
 30
0.000000
  8
1
 62
7
  6
L000000000000000000
  0
VERTEX
 10
9.600000
 20
79.200000
 30
0.000000
  8
1
 62
7
  6
L000000000000000000
  0
SEQEND
  0
POLYLINE
  8
1
 62
7
  6
L000000000000000000
 70
1
 66
1
  0
VERTEX
 10
10.900000
 20
79.200000
 30
0.000000
  8
1
 62
7
  6
L000000000000000000
  0
VERTEX
 10
10.900000
 20
79.700000
 30
0.000000
  8
1
 62
7
  6
L000000000000000000
  0
VERTEX
 10
10.400000
 20
79.700000
 30
0.000000
  8
1
 62
7
  6
L000000000000000000
  0
VERTEX
 10
10.400000
 20
79.200000
 30
0.000000
  8
1
 62
7
  6
L000000000000000000
  0
SEQEND
  0
POLYLINE
  8
1
 62
7
  6
L000000000000000000
 70
1
 66
1
  0
VERTEX
 10
11.700000
 20
79.200000
 30
0.000000
  8
1
 62
7
  6
L000000000000000000
  0
VERTEX
 10
11.700000
 20
79.700000
 30
0.000000
  8
1
 62
7
  6
L000000000000000000
  0
VERTEX
 10
11.200000
 20
79.700000
 30
0.000000
  8
1
 62
7
  6
L000000000000000000
  0
VERTEX
 10
11.200000
 20
79.200000
 30
0.000000
  8
1
 62
7
  6
L000000000000000000
  0
SEQEND
  0
POLYLINE
  8
1
 62
7
  6
L000000000000000000
 70
1
 66
1
  0
VERTEX
 10
11.700000
 20
78.400000
 30
0.000000
  8
1
 62
7
  6
L000000000000000000
  0
VERTEX
 10
11.700000
 20
78.900000
 30
0.000000
  8
1
 62
7
  6
L000000000000000000
  0
VERTEX
 10
11.200000
 20
78.900000
 30
0.000000
  8
1
 62
7
  6
L000000000000000000
  0
VERTEX
 10
11.200000
 20
78.400000
 30
0.000000
  8
1
 62
7
  6
L000000000000000000
  0
SEQEND
  0
POLYLINE
  8
1
 62
7
  6
L000000000000000000
 70
1
 66
1
  0
VERTEX
 10
10.900000
 20
77.600000
 30
0.000000
  8
1
 62
7
  6
L000000000000000000
  0
VERTEX
 10
10.900000
 20
78.100000
 30
0.000000
  8
1
 62
7
  6
L000000000000000000
  0
VERTEX
 10
10.400000
 20
78.100000
 30
0.000000
  8
1
 62
7
  6
L000000000000000000
  0
VERTEX
 10
10.400000
 20
77.600000
 30
0.000000
  8
1
 62
7
  6
L000000000000000000
  0
SEQEND
  0
POLYLINE
  8
1
 62
7
  6
L000000000000000000
 70
1
 66
1
  0
VERTEX
 10
10.900000
 20
76.800000
 30
0.000000
  8
1
 62
7
  6
L000000000000000000
  0
VERTEX
 10
10.900000
 20
77.300000
 30
0.000000
  8
1
 62
7
  6
L000000000000000000
  0
VERTEX
 10
10.400000
 20
77.300000
 30
0.000000
  8
1
 62
7
  6
L000000000000000000
  0
VERTEX
 10
10.400000
 20
76.800000
 30
0.000000
  8
1
 62
7
  6
L000000000000000000
  0
SEQEND
  0
POLYLINE
  8
1
 62
7
  6
L000000000000000000
 70
1
 66
1
  0
VERTEX
 10
11.700000
 20
76.800000
 30
0.000000
  8
1
 62
7
  6
L000000000000000000
  0
VERTEX
 10
11.700000
 20
77.300000
 30
0.000000
  8
1
 62
7
  6
L000000000000000000
  0
VERTEX
 10
11.200000
 20
77.300000
 30
0.000000
  8
1
 62
7
  6
L000000000000000000
  0
VERTEX
 10
11.200000
 20
76.800000
 30
0.000000
  8
1
 62
7
  6
L000000000000000000
  0
SEQEND
  0
POLYLINE
  8
1
 62
7
  6
L000000000000000000
 70
1
 66
1
  0
VERTEX
 10
11.700000
 20
77.600000
 30
0.000000
  8
1
 62
7
  6
L000000000000000000
  0
VERTEX
 10
11.700000
 20
78.100000
 30
0.000000
  8
1
 62
7
  6
L000000000000000000
  0
VERTEX
 10
11.200000
 20
78.100000
 30
0.000000
  8
1
 62
7
  6
L000000000000000000
  0
VERTEX
 10
11.200000
 20
77.600000
 30
0.000000
  8
1
 62
7
  6
L000000000000000000
  0
SEQEND
  0
POLYLINE
  8
1
 62
7
  6
L000000000000000000
 70
1
 66
1
  0
VERTEX
 10
10.900000
 20
78.400000
 30
0.000000
  8
1
 62
7
  6
L000000000000000000
  0
VERTEX
 10
10.900000
 20
78.900000
 30
0.000000
  8
1
 62
7
  6
L000000000000000000
  0
VERTEX
 10
10.400000
 20
78.900000
 30
0.000000
  8
1
 62
7
  6
L000000000000000000
  0
VERTEX
 10
10.400000
 20
78.400000
 30
0.000000
  8
1
 62
7
  6
L000000000000000000
  0
SEQEND
  0
POLYLINE
  8
1
 62
7
  6
L000000000000000000
 70
1
 66
1
  0
VERTEX
 10
10.100000
 20
78.400000
 30
0.000000
  8
1
 62
7
  6
L000000000000000000
  0
VERTEX
 10
10.100000
 20
78.900000
 30
0.000000
  8
1
 62
7
  6
L000000000000000000
  0
VERTEX
 10
9.600000
 20
78.900000
 30
0.000000
  8
1
 62
7
  6
L000000000000000000
  0
VERTEX
 10
9.600000
 20
78.400000
 30
0.000000
  8
1
 62
7
  6
L000000000000000000
  0
SEQEND
  0
POLYLINE
  8
1
 62
7
  6
L000000000000000000
 70
1
 66
1
  0
VERTEX
 10
10.100000
 20
77.600000
 30
0.000000
  8
1
 62
7
  6
L000000000000000000
  0
VERTEX
 10
10.100000
 20
78.100000
 30
0.000000
  8
1
 62
7
  6
L000000000000000000
  0
VERTEX
 10
9.600000
 20
78.100000
 30
0.000000
  8
1
 62
7
  6
L000000000000000000
  0
VERTEX
 10
9.600000
 20
77.600000
 30
0.000000
  8
1
 62
7
  6
L000000000000000000
  0
SEQEND
  0
POLYLINE
  8
1
 62
7
  6
L000000000000000000
 70
1
 66
1
  0
VERTEX
 10
10.100000
 20
76.800000
 30
0.000000
  8
1
 62
7
  6
L000000000000000000
  0
VERTEX
 10
10.100000
 20
77.300000
 30
0.000000
  8
1
 62
7
  6
L000000000000000000
  0
VERTEX
 10
9.600000
 20
77.300000
 30
0.000000
  8
1
 62
7
  6
L000000000000000000
  0
VERTEX
 10
9.600000
 20
76.800000
 30
0.000000
  8
1
 62
7
  6
L000000000000000000
  0
SEQEND
  0
POLYLINE
  8
1
 62
7
  6
L000000000000000000
 70
1
 66
1
  0
VERTEX
 10
10.100000
 20
76.000000
 30
0.000000
  8
1
 62
7
  6
L000000000000000000
  0
VERTEX
 10
10.100000
 20
76.500000
 30
0.000000
  8
1
 62
7
  6
L000000000000000000
  0
VERTEX
 10
9.600000
 20
76.500000
 30
0.000000
  8
1
 62
7
  6
L000000000000000000
  0
VERTEX
 10
9.600000
 20
76.000000
 30
0.000000
  8
1
 62
7
  6
L000000000000000000
  0
SEQEND
  0
POLYLINE
  8
1
 62
7
  6
L000000000000000000
 70
1
 66
1
  0
VERTEX
 10
10.900000
 20
76.000000
 30
0.000000
  8
1
 62
7
  6
L000000000000000000
  0
VERTEX
 10
10.900000
 20
76.500000
 30
0.000000
  8
1
 62
7
  6
L000000000000000000
  0
VERTEX
 10
10.400000
 20
76.500000
 30
0.000000
  8
1
 62
7
  6
L000000000000000000
  0
VERTEX
 10
10.400000
 20
76.000000
 30
0.000000
  8
1
 62
7
  6
L000000000000000000
  0
SEQEND
  0
POLYLINE
  8
1
 62
7
  6
L000000000000000000
 70
1
 66
1
  0
VERTEX
 10
11.700000
 20
76.000000
 30
0.000000
  8
1
 62
7
  6
L000000000000000000
  0
VERTEX
 10
11.700000
 20
76.500000
 30
0.000000
  8
1
 62
7
  6
L000000000000000000
  0
VERTEX
 10
11.200000
 20
76.500000
 30
0.000000
  8
1
 62
7
  6
L000000000000000000
  0
VERTEX
 10
11.200000
 20
76.000000
 30
0.000000
  8
1
 62
7
  6
L000000000000000000
  0
SEQEND
  0
POLYLINE
  8
1
 62
7
  6
L000000000000000000
 70
1
 66
1
  0
VERTEX
 10
12.500000
 20
80.800000
 30
0.000000
  8
1
 62
7
  6
L000000000000000000
  0
VERTEX
 10
12.500000
 20
81.300000
 30
0.000000
  8
1
 62
7
  6
L000000000000000000
  0
VERTEX
 10
12.000000
 20
81.300000
 30
0.000000
  8
1
 62
7
  6
L000000000000000000
  0
VERTEX
 10
12.000000
 20
80.800000
 30
0.000000
  8
1
 62
7
  6
L000000000000000000
  0
SEQEND
  0
POLYLINE
  8
1
 62
7
  6
L000000000000000000
 70
1
 66
1
  0
VERTEX
 10
14.100000
 20
80.800000
 30
0.000000
  8
1
 62
7
  6
L000000000000000000
  0
VERTEX
 10
14.100000
 20
81.300000
 30
0.000000
  8
1
 62
7
  6
L000000000000000000
  0
VERTEX
 10
13.600000
 20
81.300000
 30
0.000000
  8
1
 62
7
  6
L000000000000000000
  0
VERTEX
 10
13.600000
 20
80.800000
 30
0.000000
  8
1
 62
7
  6
L000000000000000000
  0
SEQEND
  0
POLYLINE
  8
1
 62
7
  6
L000000000000000000
 70
1
 66
1
  0
VERTEX
 10
14.100000
 20
80.000000
 30
0.000000
  8
1
 62
7
  6
L000000000000000000
  0
VERTEX
 10
14.100000
 20
80.500000
 30
0.000000
  8
1
 62
7
  6
L000000000000000000
  0
VERTEX
 10
13.600000
 20
80.500000
 30
0.000000
  8
1
 62
7
  6
L000000000000000000
  0
VERTEX
 10
13.600000
 20
80.000000
 30
0.000000
  8
1
 62
7
  6
L000000000000000000
  0
SEQEND
  0
POLYLINE
  8
1
 62
7
  6
L000000000000000000
 70
1
 66
1
  0
VERTEX
 10
13.300000
 20
80.800000
 30
0.000000
  8
1
 62
7
  6
L000000000000000000
  0
VERTEX
 10
13.300000
 20
81.300000
 30
0.000000
  8
1
 62
7
  6
L000000000000000000
  0
VERTEX
 10
12.800000
 20
81.300000
 30
0.000000
  8
1
 62
7
  6
L000000000000000000
  0
VERTEX
 10
12.800000
 20
80.800000
 30
0.000000
  8
1
 62
7
  6
L000000000000000000
  0
SEQEND
  0
POLYLINE
  8
1
 62
7
  6
L000000000000000000
 70
1
 66
1
  0
VERTEX
 10
12.500000
 20
80.000000
 30
0.000000
  8
1
 62
7
  6
L000000000000000000
  0
VERTEX
 10
12.500000
 20
80.500000
 30
0.000000
  8
1
 62
7
  6
L000000000000000000
  0
VERTEX
 10
12.000000
 20
80.500000
 30
0.000000
  8
1
 62
7
  6
L000000000000000000
  0
VERTEX
 10
12.000000
 20
80.000000
 30
0.000000
  8
1
 62
7
  6
L000000000000000000
  0
SEQEND
  0
POLYLINE
  8
1
 62
7
  6
L000000000000000000
 70
1
 66
1
  0
VERTEX
 10
13.300000
 20
80.000000
 30
0.000000
  8
1
 62
7
  6
L000000000000000000
  0
VERTEX
 10
13.300000
 20
80.500000
 30
0.000000
  8
1
 62
7
  6
L000000000000000000
  0
VERTEX
 10
12.800000
 20
80.500000
 30
0.000000
  8
1
 62
7
  6
L000000000000000000
  0
VERTEX
 10
12.800000
 20
80.000000
 30
0.000000
  8
1
 62
7
  6
L000000000000000000
  0
SEQEND
  0
POLYLINE
  8
1
 62
7
  6
L000000000000000000
 70
1
 66
1
  0
VERTEX
 10
12.500000
 20
79.200000
 30
0.000000
  8
1
 62
7
  6
L000000000000000000
  0
VERTEX
 10
12.500000
 20
79.700000
 30
0.000000
  8
1
 62
7
  6
L000000000000000000
  0
VERTEX
 10
12.000000
 20
79.700000
 30
0.000000
  8
1
 62
7
  6
L000000000000000000
  0
VERTEX
 10
12.000000
 20
79.200000
 30
0.000000
  8
1
 62
7
  6
L000000000000000000
  0
SEQEND
  0
POLYLINE
  8
1
 62
7
  6
L000000000000000000
 70
1
 66
1
  0
VERTEX
 10
13.300000
 20
79.200000
 30
0.000000
  8
1
 62
7
  6
L000000000000000000
  0
VERTEX
 10
13.300000
 20
79.700000
 30
0.000000
  8
1
 62
7
  6
L000000000000000000
  0
VERTEX
 10
12.800000
 20
79.700000
 30
0.000000
  8
1
 62
7
  6
L000000000000000000
  0
VERTEX
 10
12.800000
 20
79.200000
 30
0.000000
  8
1
 62
7
  6
L000000000000000000
  0
SEQEND
  0
POLYLINE
  8
1
 62
7
  6
L000000000000000000
 70
1
 66
1
  0
VERTEX
 10
14.100000
 20
79.200000
 30
0.000000
  8
1
 62
7
  6
L000000000000000000
  0
VERTEX
 10
14.100000
 20
79.700000
 30
0.000000
  8
1
 62
7
  6
L000000000000000000
  0
VERTEX
 10
13.600000
 20
79.700000
 30
0.000000
  8
1
 62
7
  6
L000000000000000000
  0
VERTEX
 10
13.600000
 20
79.200000
 30
0.000000
  8
1
 62
7
  6
L000000000000000000
  0
SEQEND
  0
POLYLINE
  8
1
 62
7
  6
L000000000000000000
 70
1
 66
1
  0
VERTEX
 10
14.100000
 20
78.400000
 30
0.000000
  8
1
 62
7
  6
L000000000000000000
  0
VERTEX
 10
14.100000
 20
78.900000
 30
0.000000
  8
1
 62
7
  6
L000000000000000000
  0
VERTEX
 10
13.600000
 20
78.900000
 30
0.000000
  8
1
 62
7
  6
L000000000000000000
  0
VERTEX
 10
13.600000
 20
78.400000
 30
0.000000
  8
1
 62
7
  6
L000000000000000000
  0
SEQEND
  0
POLYLINE
  8
1
 62
7
  6
L000000000000000000
 70
1
 66
1
  0
VERTEX
 10
13.300000
 20
77.600000
 30
0.000000
  8
1
 62
7
  6
L000000000000000000
  0
VERTEX
 10
13.300000
 20
78.100000
 30
0.000000
  8
1
 62
7
  6
L000000000000000000
  0
VERTEX
 10
12.800000
 20
78.100000
 30
0.000000
  8
1
 62
7
  6
L000000000000000000
  0
VERTEX
 10
12.800000
 20
77.600000
 30
0.000000
  8
1
 62
7
  6
L000000000000000000
  0
SEQEND
  0
POLYLINE
  8
1
 62
7
  6
L000000000000000000
 70
1
 66
1
  0
VERTEX
 10
13.300000
 20
76.800000
 30
0.000000
  8
1
 62
7
  6
L000000000000000000
  0
VERTEX
 10
13.300000
 20
77.300000
 30
0.000000
  8
1
 62
7
  6
L000000000000000000
  0
VERTEX
 10
12.800000
 20
77.300000
 30
0.000000
  8
1
 62
7
  6
L000000000000000000
  0
VERTEX
 10
12.800000
 20
76.800000
 30
0.000000
  8
1
 62
7
  6
L000000000000000000
  0
SEQEND
  0
POLYLINE
  8
1
 62
7
  6
L000000000000000000
 70
1
 66
1
  0
VERTEX
 10
14.100000
 20
76.800000
 30
0.000000
  8
1
 62
7
  6
L000000000000000000
  0
VERTEX
 10
14.100000
 20
77.300000
 30
0.000000
  8
1
 62
7
  6
L000000000000000000
  0
VERTEX
 10
13.600000
 20
77.300000
 30
0.000000
  8
1
 62
7
  6
L000000000000000000
  0
VERTEX
 10
13.600000
 20
76.800000
 30
0.000000
  8
1
 62
7
  6
L000000000000000000
  0
SEQEND
  0
POLYLINE
  8
1
 62
7
  6
L000000000000000000
 70
1
 66
1
  0
VERTEX
 10
14.100000
 20
77.600000
 30
0.000000
  8
1
 62
7
  6
L000000000000000000
  0
VERTEX
 10
14.100000
 20
78.100000
 30
0.000000
  8
1
 62
7
  6
L000000000000000000
  0
VERTEX
 10
13.600000
 20
78.100000
 30
0.000000
  8
1
 62
7
  6
L000000000000000000
  0
VERTEX
 10
13.600000
 20
77.600000
 30
0.000000
  8
1
 62
7
  6
L000000000000000000
  0
SEQEND
  0
POLYLINE
  8
1
 62
7
  6
L000000000000000000
 70
1
 66
1
  0
VERTEX
 10
13.300000
 20
78.400000
 30
0.000000
  8
1
 62
7
  6
L000000000000000000
  0
VERTEX
 10
13.300000
 20
78.900000
 30
0.000000
  8
1
 62
7
  6
L000000000000000000
  0
VERTEX
 10
12.800000
 20
78.900000
 30
0.000000
  8
1
 62
7
  6
L000000000000000000
  0
VERTEX
 10
12.800000
 20
78.400000
 30
0.000000
  8
1
 62
7
  6
L000000000000000000
  0
SEQEND
  0
POLYLINE
  8
1
 62
7
  6
L000000000000000000
 70
1
 66
1
  0
VERTEX
 10
12.500000
 20
78.400000
 30
0.000000
  8
1
 62
7
  6
L000000000000000000
  0
VERTEX
 10
12.500000
 20
78.900000
 30
0.000000
  8
1
 62
7
  6
L000000000000000000
  0
VERTEX
 10
12.000000
 20
78.900000
 30
0.000000
  8
1
 62
7
  6
L000000000000000000
  0
VERTEX
 10
12.000000
 20
78.400000
 30
0.000000
  8
1
 62
7
  6
L000000000000000000
  0
SEQEND
  0
POLYLINE
  8
1
 62
7
  6
L000000000000000000
 70
1
 66
1
  0
VERTEX
 10
12.500000
 20
77.600000
 30
0.000000
  8
1
 62
7
  6
L000000000000000000
  0
VERTEX
 10
12.500000
 20
78.100000
 30
0.000000
  8
1
 62
7
  6
L000000000000000000
  0
VERTEX
 10
12.000000
 20
78.100000
 30
0.000000
  8
1
 62
7
  6
L000000000000000000
  0
VERTEX
 10
12.000000
 20
77.600000
 30
0.000000
  8
1
 62
7
  6
L000000000000000000
  0
SEQEND
  0
POLYLINE
  8
1
 62
7
  6
L000000000000000000
 70
1
 66
1
  0
VERTEX
 10
12.500000
 20
76.800000
 30
0.000000
  8
1
 62
7
  6
L000000000000000000
  0
VERTEX
 10
12.500000
 20
77.300000
 30
0.000000
  8
1
 62
7
  6
L000000000000000000
  0
VERTEX
 10
12.000000
 20
77.300000
 30
0.000000
  8
1
 62
7
  6
L000000000000000000
  0
VERTEX
 10
12.000000
 20
76.800000
 30
0.000000
  8
1
 62
7
  6
L000000000000000000
  0
SEQEND
  0
POLYLINE
  8
1
 62
7
  6
L000000000000000000
 70
1
 66
1
  0
VERTEX
 10
12.500000
 20
76.000000
 30
0.000000
  8
1
 62
7
  6
L000000000000000000
  0
VERTEX
 10
12.500000
 20
76.500000
 30
0.000000
  8
1
 62
7
  6
L000000000000000000
  0
VERTEX
 10
12.000000
 20
76.500000
 30
0.000000
  8
1
 62
7
  6
L000000000000000000
  0
VERTEX
 10
12.000000
 20
76.000000
 30
0.000000
  8
1
 62
7
  6
L000000000000000000
  0
SEQEND
  0
POLYLINE
  8
1
 62
7
  6
L000000000000000000
 70
1
 66
1
  0
VERTEX
 10
13.300000
 20
76.000000
 30
0.000000
  8
1
 62
7
  6
L000000000000000000
  0
VERTEX
 10
13.300000
 20
76.500000
 30
0.000000
  8
1
 62
7
  6
L000000000000000000
  0
VERTEX
 10
12.800000
 20
76.500000
 30
0.000000
  8
1
 62
7
  6
L000000000000000000
  0
VERTEX
 10
12.800000
 20
76.000000
 30
0.000000
  8
1
 62
7
  6
L000000000000000000
  0
SEQEND
  0
POLYLINE
  8
1
 62
7
  6
L000000000000000000
 70
1
 66
1
  0
VERTEX
 10
14.100000
 20
76.000000
 30
0.000000
  8
1
 62
7
  6
L000000000000000000
  0
VERTEX
 10
14.100000
 20
76.500000
 30
0.000000
  8
1
 62
7
  6
L000000000000000000
  0
VERTEX
 10
13.600000
 20
76.500000
 30
0.000000
  8
1
 62
7
  6
L000000000000000000
  0
VERTEX
 10
13.600000
 20
76.000000
 30
0.000000
  8
1
 62
7
  6
L000000000000000000
  0
SEQEND
  0
POLYLINE
  8
1
 62
7
  6
L000000000000000000
 70
1
 66
1
  0
VERTEX
 10
14.900000
 20
80.800000
 30
0.000000
  8
1
 62
7
  6
L000000000000000000
  0
VERTEX
 10
14.900000
 20
81.300000
 30
0.000000
  8
1
 62
7
  6
L000000000000000000
  0
VERTEX
 10
14.400000
 20
81.300000
 30
0.000000
  8
1
 62
7
  6
L000000000000000000
  0
VERTEX
 10
14.400000
 20
80.800000
 30
0.000000
  8
1
 62
7
  6
L000000000000000000
  0
SEQEND
  0
POLYLINE
  8
1
 62
7
  6
L000000000000000000
 70
1
 66
1
  0
VERTEX
 10
16.500000
 20
80.800000
 30
0.000000
  8
1
 62
7
  6
L000000000000000000
  0
VERTEX
 10
16.500000
 20
81.300000
 30
0.000000
  8
1
 62
7
  6
L000000000000000000
  0
VERTEX
 10
16.000000
 20
81.300000
 30
0.000000
  8
1
 62
7
  6
L000000000000000000
  0
VERTEX
 10
16.000000
 20
80.800000
 30
0.000000
  8
1
 62
7
  6
L000000000000000000
  0
SEQEND
  0
POLYLINE
  8
1
 62
7
  6
L000000000000000000
 70
1
 66
1
  0
VERTEX
 10
16.500000
 20
80.000000
 30
0.000000
  8
1
 62
7
  6
L000000000000000000
  0
VERTEX
 10
16.500000
 20
80.500000
 30
0.000000
  8
1
 62
7
  6
L000000000000000000
  0
VERTEX
 10
16.000000
 20
80.500000
 30
0.000000
  8
1
 62
7
  6
L000000000000000000
  0
VERTEX
 10
16.000000
 20
80.000000
 30
0.000000
  8
1
 62
7
  6
L000000000000000000
  0
SEQEND
  0
POLYLINE
  8
1
 62
7
  6
L000000000000000000
 70
1
 66
1
  0
VERTEX
 10
15.700000
 20
80.800000
 30
0.000000
  8
1
 62
7
  6
L000000000000000000
  0
VERTEX
 10
15.700000
 20
81.300000
 30
0.000000
  8
1
 62
7
  6
L000000000000000000
  0
VERTEX
 10
15.200000
 20
81.300000
 30
0.000000
  8
1
 62
7
  6
L000000000000000000
  0
VERTEX
 10
15.200000
 20
80.800000
 30
0.000000
  8
1
 62
7
  6
L000000000000000000
  0
SEQEND
  0
POLYLINE
  8
1
 62
7
  6
L000000000000000000
 70
1
 66
1
  0
VERTEX
 10
14.900000
 20
80.000000
 30
0.000000
  8
1
 62
7
  6
L000000000000000000
  0
VERTEX
 10
14.900000
 20
80.500000
 30
0.000000
  8
1
 62
7
  6
L000000000000000000
  0
VERTEX
 10
14.400000
 20
80.500000
 30
0.000000
  8
1
 62
7
  6
L000000000000000000
  0
VERTEX
 10
14.400000
 20
80.000000
 30
0.000000
  8
1
 62
7
  6
L000000000000000000
  0
SEQEND
  0
POLYLINE
  8
1
 62
7
  6
L000000000000000000
 70
1
 66
1
  0
VERTEX
 10
15.700000
 20
80.000000
 30
0.000000
  8
1
 62
7
  6
L000000000000000000
  0
VERTEX
 10
15.700000
 20
80.500000
 30
0.000000
  8
1
 62
7
  6
L000000000000000000
  0
VERTEX
 10
15.200000
 20
80.500000
 30
0.000000
  8
1
 62
7
  6
L000000000000000000
  0
VERTEX
 10
15.200000
 20
80.000000
 30
0.000000
  8
1
 62
7
  6
L000000000000000000
  0
SEQEND
  0
POLYLINE
  8
1
 62
7
  6
L000000000000000000
 70
1
 66
1
  0
VERTEX
 10
14.900000
 20
79.200000
 30
0.000000
  8
1
 62
7
  6
L000000000000000000
  0
VERTEX
 10
14.900000
 20
79.700000
 30
0.000000
  8
1
 62
7
  6
L000000000000000000
  0
VERTEX
 10
14.400000
 20
79.700000
 30
0.000000
  8
1
 62
7
  6
L000000000000000000
  0
VERTEX
 10
14.400000
 20
79.200000
 30
0.000000
  8
1
 62
7
  6
L000000000000000000
  0
SEQEND
  0
POLYLINE
  8
1
 62
7
  6
L000000000000000000
 70
1
 66
1
  0
VERTEX
 10
15.700000
 20
79.200000
 30
0.000000
  8
1
 62
7
  6
L000000000000000000
  0
VERTEX
 10
15.700000
 20
79.700000
 30
0.000000
  8
1
 62
7
  6
L000000000000000000
  0
VERTEX
 10
15.200000
 20
79.700000
 30
0.000000
  8
1
 62
7
  6
L000000000000000000
  0
VERTEX
 10
15.200000
 20
79.200000
 30
0.000000
  8
1
 62
7
  6
L000000000000000000
  0
SEQEND
  0
POLYLINE
  8
1
 62
7
  6
L000000000000000000
 70
1
 66
1
  0
VERTEX
 10
16.500000
 20
79.200000
 30
0.000000
  8
1
 62
7
  6
L000000000000000000
  0
VERTEX
 10
16.500000
 20
79.700000
 30
0.000000
  8
1
 62
7
  6
L000000000000000000
  0
VERTEX
 10
16.000000
 20
79.700000
 30
0.000000
  8
1
 62
7
  6
L000000000000000000
  0
VERTEX
 10
16.000000
 20
79.200000
 30
0.000000
  8
1
 62
7
  6
L000000000000000000
  0
SEQEND
  0
POLYLINE
  8
1
 62
7
  6
L000000000000000000
 70
1
 66
1
  0
VERTEX
 10
16.500000
 20
78.400000
 30
0.000000
  8
1
 62
7
  6
L000000000000000000
  0
VERTEX
 10
16.500000
 20
78.900000
 30
0.000000
  8
1
 62
7
  6
L000000000000000000
  0
VERTEX
 10
16.000000
 20
78.900000
 30
0.000000
  8
1
 62
7
  6
L000000000000000000
  0
VERTEX
 10
16.000000
 20
78.400000
 30
0.000000
  8
1
 62
7
  6
L000000000000000000
  0
SEQEND
  0
POLYLINE
  8
1
 62
7
  6
L000000000000000000
 70
1
 66
1
  0
VERTEX
 10
15.700000
 20
77.600000
 30
0.000000
  8
1
 62
7
  6
L000000000000000000
  0
VERTEX
 10
15.700000
 20
78.100000
 30
0.000000
  8
1
 62
7
  6
L000000000000000000
  0
VERTEX
 10
15.200000
 20
78.100000
 30
0.000000
  8
1
 62
7
  6
L000000000000000000
  0
VERTEX
 10
15.200000
 20
77.600000
 30
0.000000
  8
1
 62
7
  6
L000000000000000000
  0
SEQEND
  0
POLYLINE
  8
1
 62
7
  6
L000000000000000000
 70
1
 66
1
  0
VERTEX
 10
15.700000
 20
76.800000
 30
0.000000
  8
1
 62
7
  6
L000000000000000000
  0
VERTEX
 10
15.700000
 20
77.300000
 30
0.000000
  8
1
 62
7
  6
L000000000000000000
  0
VERTEX
 10
15.200000
 20
77.300000
 30
0.000000
  8
1
 62
7
  6
L000000000000000000
  0
VERTEX
 10
15.200000
 20
76.800000
 30
0.000000
  8
1
 62
7
  6
L000000000000000000
  0
SEQEND
  0
POLYLINE
  8
1
 62
7
  6
L000000000000000000
 70
1
 66
1
  0
VERTEX
 10
16.500000
 20
76.800000
 30
0.000000
  8
1
 62
7
  6
L000000000000000000
  0
VERTEX
 10
16.500000
 20
77.300000
 30
0.000000
  8
1
 62
7
  6
L000000000000000000
  0
VERTEX
 10
16.000000
 20
77.300000
 30
0.000000
  8
1
 62
7
  6
L000000000000000000
  0
VERTEX
 10
16.000000
 20
76.800000
 30
0.000000
  8
1
 62
7
  6
L000000000000000000
  0
SEQEND
  0
POLYLINE
  8
1
 62
7
  6
L000000000000000000
 70
1
 66
1
  0
VERTEX
 10
16.500000
 20
77.600000
 30
0.000000
  8
1
 62
7
  6
L000000000000000000
  0
VERTEX
 10
16.500000
 20
78.100000
 30
0.000000
  8
1
 62
7
  6
L000000000000000000
  0
VERTEX
 10
16.000000
 20
78.100000
 30
0.000000
  8
1
 62
7
  6
L000000000000000000
  0
VERTEX
 10
16.000000
 20
77.600000
 30
0.000000
  8
1
 62
7
  6
L000000000000000000
  0
SEQEND
  0
POLYLINE
  8
1
 62
7
  6
L000000000000000000
 70
1
 66
1
  0
VERTEX
 10
15.700000
 20
78.400000
 30
0.000000
  8
1
 62
7
  6
L000000000000000000
  0
VERTEX
 10
15.700000
 20
78.900000
 30
0.000000
  8
1
 62
7
  6
L000000000000000000
  0
VERTEX
 10
15.200000
 20
78.900000
 30
0.000000
  8
1
 62
7
  6
L000000000000000000
  0
VERTEX
 10
15.200000
 20
78.400000
 30
0.000000
  8
1
 62
7
  6
L000000000000000000
  0
SEQEND
  0
POLYLINE
  8
1
 62
7
  6
L000000000000000000
 70
1
 66
1
  0
VERTEX
 10
14.900000
 20
78.400000
 30
0.000000
  8
1
 62
7
  6
L000000000000000000
  0
VERTEX
 10
14.900000
 20
78.900000
 30
0.000000
  8
1
 62
7
  6
L000000000000000000
  0
VERTEX
 10
14.400000
 20
78.900000
 30
0.000000
  8
1
 62
7
  6
L000000000000000000
  0
VERTEX
 10
14.400000
 20
78.400000
 30
0.000000
  8
1
 62
7
  6
L000000000000000000
  0
SEQEND
  0
POLYLINE
  8
1
 62
7
  6
L000000000000000000
 70
1
 66
1
  0
VERTEX
 10
14.900000
 20
77.600000
 30
0.000000
  8
1
 62
7
  6
L000000000000000000
  0
VERTEX
 10
14.900000
 20
78.100000
 30
0.000000
  8
1
 62
7
  6
L000000000000000000
  0
VERTEX
 10
14.400000
 20
78.100000
 30
0.000000
  8
1
 62
7
  6
L000000000000000000
  0
VERTEX
 10
14.400000
 20
77.600000
 30
0.000000
  8
1
 62
7
  6
L000000000000000000
  0
SEQEND
  0
POLYLINE
  8
1
 62
7
  6
L000000000000000000
 70
1
 66
1
  0
VERTEX
 10
14.900000
 20
76.800000
 30
0.000000
  8
1
 62
7
  6
L000000000000000000
  0
VERTEX
 10
14.900000
 20
77.300000
 30
0.000000
  8
1
 62
7
  6
L000000000000000000
  0
VERTEX
 10
14.400000
 20
77.300000
 30
0.000000
  8
1
 62
7
  6
L000000000000000000
  0
VERTEX
 10
14.400000
 20
76.800000
 30
0.000000
  8
1
 62
7
  6
L000000000000000000
  0
SEQEND
  0
POLYLINE
  8
1
 62
7
  6
L000000000000000000
 70
1
 66
1
  0
VERTEX
 10
14.900000
 20
76.000000
 30
0.000000
  8
1
 62
7
  6
L000000000000000000
  0
VERTEX
 10
14.900000
 20
76.500000
 30
0.000000
  8
1
 62
7
  6
L000000000000000000
  0
VERTEX
 10
14.400000
 20
76.500000
 30
0.000000
  8
1
 62
7
  6
L000000000000000000
  0
VERTEX
 10
14.400000
 20
76.000000
 30
0.000000
  8
1
 62
7
  6
L000000000000000000
  0
SEQEND
  0
POLYLINE
  8
1
 62
7
  6
L000000000000000000
 70
1
 66
1
  0
VERTEX
 10
15.700000
 20
76.000000
 30
0.000000
  8
1
 62
7
  6
L000000000000000000
  0
VERTEX
 10
15.700000
 20
76.500000
 30
0.000000
  8
1
 62
7
  6
L000000000000000000
  0
VERTEX
 10
15.200000
 20
76.500000
 30
0.000000
  8
1
 62
7
  6
L000000000000000000
  0
VERTEX
 10
15.200000
 20
76.000000
 30
0.000000
  8
1
 62
7
  6
L000000000000000000
  0
SEQEND
  0
POLYLINE
  8
1
 62
7
  6
L000000000000000000
 70
1
 66
1
  0
VERTEX
 10
16.500000
 20
76.000000
 30
0.000000
  8
1
 62
7
  6
L000000000000000000
  0
VERTEX
 10
16.500000
 20
76.500000
 30
0.000000
  8
1
 62
7
  6
L000000000000000000
  0
VERTEX
 10
16.000000
 20
76.500000
 30
0.000000
  8
1
 62
7
  6
L000000000000000000
  0
VERTEX
 10
16.000000
 20
76.000000
 30
0.000000
  8
1
 62
7
  6
L000000000000000000
  0
SEQEND
  0
POLYLINE
  8
1
 62
7
  6
L000000000000000000
 70
1
 66
1
  0
VERTEX
 10
17.300000
 20
80.800000
 30
0.000000
  8
1
 62
7
  6
L000000000000000000
  0
VERTEX
 10
17.300000
 20
81.300000
 30
0.000000
  8
1
 62
7
  6
L000000000000000000
  0
VERTEX
 10
16.800000
 20
81.300000
 30
0.000000
  8
1
 62
7
  6
L000000000000000000
  0
VERTEX
 10
16.800000
 20
80.800000
 30
0.000000
  8
1
 62
7
  6
L000000000000000000
  0
SEQEND
  0
POLYLINE
  8
1
 62
7
  6
L000000000000000000
 70
1
 66
1
  0
VERTEX
 10
18.900000
 20
80.800000
 30
0.000000
  8
1
 62
7
  6
L000000000000000000
  0
VERTEX
 10
18.900000
 20
81.300000
 30
0.000000
  8
1
 62
7
  6
L000000000000000000
  0
VERTEX
 10
18.400000
 20
81.300000
 30
0.000000
  8
1
 62
7
  6
L000000000000000000
  0
VERTEX
 10
18.400000
 20
80.800000
 30
0.000000
  8
1
 62
7
  6
L000000000000000000
  0
SEQEND
  0
POLYLINE
  8
1
 62
7
  6
L000000000000000000
 70
1
 66
1
  0
VERTEX
 10
18.900000
 20
80.000000
 30
0.000000
  8
1
 62
7
  6
L000000000000000000
  0
VERTEX
 10
18.900000
 20
80.500000
 30
0.000000
  8
1
 62
7
  6
L000000000000000000
  0
VERTEX
 10
18.400000
 20
80.500000
 30
0.000000
  8
1
 62
7
  6
L000000000000000000
  0
VERTEX
 10
18.400000
 20
80.000000
 30
0.000000
  8
1
 62
7
  6
L000000000000000000
  0
SEQEND
  0
POLYLINE
  8
1
 62
7
  6
L000000000000000000
 70
1
 66
1
  0
VERTEX
 10
18.100000
 20
80.800000
 30
0.000000
  8
1
 62
7
  6
L000000000000000000
  0
VERTEX
 10
18.100000
 20
81.300000
 30
0.000000
  8
1
 62
7
  6
L000000000000000000
  0
VERTEX
 10
17.600000
 20
81.300000
 30
0.000000
  8
1
 62
7
  6
L000000000000000000
  0
VERTEX
 10
17.600000
 20
80.800000
 30
0.000000
  8
1
 62
7
  6
L000000000000000000
  0
SEQEND
  0
POLYLINE
  8
1
 62
7
  6
L000000000000000000
 70
1
 66
1
  0
VERTEX
 10
17.300000
 20
80.000000
 30
0.000000
  8
1
 62
7
  6
L000000000000000000
  0
VERTEX
 10
17.300000
 20
80.500000
 30
0.000000
  8
1
 62
7
  6
L000000000000000000
  0
VERTEX
 10
16.800000
 20
80.500000
 30
0.000000
  8
1
 62
7
  6
L000000000000000000
  0
VERTEX
 10
16.800000
 20
80.000000
 30
0.000000
  8
1
 62
7
  6
L000000000000000000
  0
SEQEND
  0
POLYLINE
  8
1
 62
7
  6
L000000000000000000
 70
1
 66
1
  0
VERTEX
 10
18.100000
 20
80.000000
 30
0.000000
  8
1
 62
7
  6
L000000000000000000
  0
VERTEX
 10
18.100000
 20
80.500000
 30
0.000000
  8
1
 62
7
  6
L000000000000000000
  0
VERTEX
 10
17.600000
 20
80.500000
 30
0.000000
  8
1
 62
7
  6
L000000000000000000
  0
VERTEX
 10
17.600000
 20
80.000000
 30
0.000000
  8
1
 62
7
  6
L000000000000000000
  0
SEQEND
  0
POLYLINE
  8
1
 62
7
  6
L000000000000000000
 70
1
 66
1
  0
VERTEX
 10
17.300000
 20
79.200000
 30
0.000000
  8
1
 62
7
  6
L000000000000000000
  0
VERTEX
 10
17.300000
 20
79.700000
 30
0.000000
  8
1
 62
7
  6
L000000000000000000
  0
VERTEX
 10
16.800000
 20
79.700000
 30
0.000000
  8
1
 62
7
  6
L000000000000000000
  0
VERTEX
 10
16.800000
 20
79.200000
 30
0.000000
  8
1
 62
7
  6
L000000000000000000
  0
SEQEND
  0
POLYLINE
  8
1
 62
7
  6
L000000000000000000
 70
1
 66
1
  0
VERTEX
 10
18.100000
 20
79.200000
 30
0.000000
  8
1
 62
7
  6
L000000000000000000
  0
VERTEX
 10
18.100000
 20
79.700000
 30
0.000000
  8
1
 62
7
  6
L000000000000000000
  0
VERTEX
 10
17.600000
 20
79.700000
 30
0.000000
  8
1
 62
7
  6
L000000000000000000
  0
VERTEX
 10
17.600000
 20
79.200000
 30
0.000000
  8
1
 62
7
  6
L000000000000000000
  0
SEQEND
  0
POLYLINE
  8
1
 62
7
  6
L000000000000000000
 70
1
 66
1
  0
VERTEX
 10
18.900000
 20
79.200000
 30
0.000000
  8
1
 62
7
  6
L000000000000000000
  0
VERTEX
 10
18.900000
 20
79.700000
 30
0.000000
  8
1
 62
7
  6
L000000000000000000
  0
VERTEX
 10
18.400000
 20
79.700000
 30
0.000000
  8
1
 62
7
  6
L000000000000000000
  0
VERTEX
 10
18.400000
 20
79.200000
 30
0.000000
  8
1
 62
7
  6
L000000000000000000
  0
SEQEND
  0
POLYLINE
  8
1
 62
7
  6
L000000000000000000
 70
1
 66
1
  0
VERTEX
 10
18.900000
 20
78.400000
 30
0.000000
  8
1
 62
7
  6
L000000000000000000
  0
VERTEX
 10
18.900000
 20
78.900000
 30
0.000000
  8
1
 62
7
  6
L000000000000000000
  0
VERTEX
 10
18.400000
 20
78.900000
 30
0.000000
  8
1
 62
7
  6
L000000000000000000
  0
VERTEX
 10
18.400000
 20
78.400000
 30
0.000000
  8
1
 62
7
  6
L000000000000000000
  0
SEQEND
  0
POLYLINE
  8
1
 62
7
  6
L000000000000000000
 70
1
 66
1
  0
VERTEX
 10
18.100000
 20
77.600000
 30
0.000000
  8
1
 62
7
  6
L000000000000000000
  0
VERTEX
 10
18.100000
 20
78.100000
 30
0.000000
  8
1
 62
7
  6
L000000000000000000
  0
VERTEX
 10
17.600000
 20
78.100000
 30
0.000000
  8
1
 62
7
  6
L000000000000000000
  0
VERTEX
 10
17.600000
 20
77.600000
 30
0.000000
  8
1
 62
7
  6
L000000000000000000
  0
SEQEND
  0
POLYLINE
  8
1
 62
7
  6
L000000000000000000
 70
1
 66
1
  0
VERTEX
 10
18.100000
 20
76.800000
 30
0.000000
  8
1
 62
7
  6
L000000000000000000
  0
VERTEX
 10
18.100000
 20
77.300000
 30
0.000000
  8
1
 62
7
  6
L000000000000000000
  0
VERTEX
 10
17.600000
 20
77.300000
 30
0.000000
  8
1
 62
7
  6
L000000000000000000
  0
VERTEX
 10
17.600000
 20
76.800000
 30
0.000000
  8
1
 62
7
  6
L000000000000000000
  0
SEQEND
  0
POLYLINE
  8
1
 62
7
  6
L000000000000000000
 70
1
 66
1
  0
VERTEX
 10
18.900000
 20
76.800000
 30
0.000000
  8
1
 62
7
  6
L000000000000000000
  0
VERTEX
 10
18.900000
 20
77.300000
 30
0.000000
  8
1
 62
7
  6
L000000000000000000
  0
VERTEX
 10
18.400000
 20
77.300000
 30
0.000000
  8
1
 62
7
  6
L000000000000000000
  0
VERTEX
 10
18.400000
 20
76.800000
 30
0.000000
  8
1
 62
7
  6
L000000000000000000
  0
SEQEND
  0
POLYLINE
  8
1
 62
7
  6
L000000000000000000
 70
1
 66
1
  0
VERTEX
 10
18.900000
 20
77.600000
 30
0.000000
  8
1
 62
7
  6
L000000000000000000
  0
VERTEX
 10
18.900000
 20
78.100000
 30
0.000000
  8
1
 62
7
  6
L000000000000000000
  0
VERTEX
 10
18.400000
 20
78.100000
 30
0.000000
  8
1
 62
7
  6
L000000000000000000
  0
VERTEX
 10
18.400000
 20
77.600000
 30
0.000000
  8
1
 62
7
  6
L000000000000000000
  0
SEQEND
  0
POLYLINE
  8
1
 62
7
  6
L000000000000000000
 70
1
 66
1
  0
VERTEX
 10
18.100000
 20
78.400000
 30
0.000000
  8
1
 62
7
  6
L000000000000000000
  0
VERTEX
 10
18.100000
 20
78.900000
 30
0.000000
  8
1
 62
7
  6
L000000000000000000
  0
VERTEX
 10
17.600000
 20
78.900000
 30
0.000000
  8
1
 62
7
  6
L000000000000000000
  0
VERTEX
 10
17.600000
 20
78.400000
 30
0.000000
  8
1
 62
7
  6
L000000000000000000
  0
SEQEND
  0
POLYLINE
  8
1
 62
7
  6
L000000000000000000
 70
1
 66
1
  0
VERTEX
 10
17.300000
 20
78.400000
 30
0.000000
  8
1
 62
7
  6
L000000000000000000
  0
VERTEX
 10
17.300000
 20
78.900000
 30
0.000000
  8
1
 62
7
  6
L000000000000000000
  0
VERTEX
 10
16.800000
 20
78.900000
 30
0.000000
  8
1
 62
7
  6
L000000000000000000
  0
VERTEX
 10
16.800000
 20
78.400000
 30
0.000000
  8
1
 62
7
  6
L000000000000000000
  0
SEQEND
  0
POLYLINE
  8
1
 62
7
  6
L000000000000000000
 70
1
 66
1
  0
VERTEX
 10
17.300000
 20
77.600000
 30
0.000000
  8
1
 62
7
  6
L000000000000000000
  0
VERTEX
 10
17.300000
 20
78.100000
 30
0.000000
  8
1
 62
7
  6
L000000000000000000
  0
VERTEX
 10
16.800000
 20
78.100000
 30
0.000000
  8
1
 62
7
  6
L000000000000000000
  0
VERTEX
 10
16.800000
 20
77.600000
 30
0.000000
  8
1
 62
7
  6
L000000000000000000
  0
SEQEND
  0
POLYLINE
  8
1
 62
7
  6
L000000000000000000
 70
1
 66
1
  0
VERTEX
 10
17.300000
 20
76.800000
 30
0.000000
  8
1
 62
7
  6
L000000000000000000
  0
VERTEX
 10
17.300000
 20
77.300000
 30
0.000000
  8
1
 62
7
  6
L000000000000000000
  0
VERTEX
 10
16.800000
 20
77.300000
 30
0.000000
  8
1
 62
7
  6
L000000000000000000
  0
VERTEX
 10
16.800000
 20
76.800000
 30
0.000000
  8
1
 62
7
  6
L000000000000000000
  0
SEQEND
  0
POLYLINE
  8
1
 62
7
  6
L000000000000000000
 70
1
 66
1
  0
VERTEX
 10
17.300000
 20
76.000000
 30
0.000000
  8
1
 62
7
  6
L000000000000000000
  0
VERTEX
 10
17.300000
 20
76.500000
 30
0.000000
  8
1
 62
7
  6
L000000000000000000
  0
VERTEX
 10
16.800000
 20
76.500000
 30
0.000000
  8
1
 62
7
  6
L000000000000000000
  0
VERTEX
 10
16.800000
 20
76.000000
 30
0.000000
  8
1
 62
7
  6
L000000000000000000
  0
SEQEND
  0
POLYLINE
  8
1
 62
7
  6
L000000000000000000
 70
1
 66
1
  0
VERTEX
 10
18.100000
 20
76.000000
 30
0.000000
  8
1
 62
7
  6
L000000000000000000
  0
VERTEX
 10
18.100000
 20
76.500000
 30
0.000000
  8
1
 62
7
  6
L000000000000000000
  0
VERTEX
 10
17.600000
 20
76.500000
 30
0.000000
  8
1
 62
7
  6
L000000000000000000
  0
VERTEX
 10
17.600000
 20
76.000000
 30
0.000000
  8
1
 62
7
  6
L000000000000000000
  0
SEQEND
  0
POLYLINE
  8
1
 62
7
  6
L000000000000000000
 70
1
 66
1
  0
VERTEX
 10
18.900000
 20
76.000000
 30
0.000000
  8
1
 62
7
  6
L000000000000000000
  0
VERTEX
 10
18.900000
 20
76.500000
 30
0.000000
  8
1
 62
7
  6
L000000000000000000
  0
VERTEX
 10
18.400000
 20
76.500000
 30
0.000000
  8
1
 62
7
  6
L000000000000000000
  0
VERTEX
 10
18.400000
 20
76.000000
 30
0.000000
  8
1
 62
7
  6
L000000000000000000
  0
SEQEND
  0
POLYLINE
  8
1
 62
7
  6
L000000000000000000
 70
1
 66
1
  0
VERTEX
 10
19.700000
 20
80.800000
 30
0.000000
  8
1
 62
7
  6
L000000000000000000
  0
VERTEX
 10
19.700000
 20
81.300000
 30
0.000000
  8
1
 62
7
  6
L000000000000000000
  0
VERTEX
 10
19.200000
 20
81.300000
 30
0.000000
  8
1
 62
7
  6
L000000000000000000
  0
VERTEX
 10
19.200000
 20
80.800000
 30
0.000000
  8
1
 62
7
  6
L000000000000000000
  0
SEQEND
  0
POLYLINE
  8
1
 62
7
  6
L000000000000000000
 70
1
 66
1
  0
VERTEX
 10
21.300000
 20
80.800000
 30
0.000000
  8
1
 62
7
  6
L000000000000000000
  0
VERTEX
 10
21.300000
 20
81.300000
 30
0.000000
  8
1
 62
7
  6
L000000000000000000
  0
VERTEX
 10
20.800000
 20
81.300000
 30
0.000000
  8
1
 62
7
  6
L000000000000000000
  0
VERTEX
 10
20.800000
 20
80.800000
 30
0.000000
  8
1
 62
7
  6
L000000000000000000
  0
SEQEND
  0
POLYLINE
  8
1
 62
7
  6
L000000000000000000
 70
1
 66
1
  0
VERTEX
 10
21.300000
 20
80.000000
 30
0.000000
  8
1
 62
7
  6
L000000000000000000
  0
VERTEX
 10
21.300000
 20
80.500000
 30
0.000000
  8
1
 62
7
  6
L000000000000000000
  0
VERTEX
 10
20.800000
 20
80.500000
 30
0.000000
  8
1
 62
7
  6
L000000000000000000
  0
VERTEX
 10
20.800000
 20
80.000000
 30
0.000000
  8
1
 62
7
  6
L000000000000000000
  0
SEQEND
  0
POLYLINE
  8
1
 62
7
  6
L000000000000000000
 70
1
 66
1
  0
VERTEX
 10
20.500000
 20
80.800000
 30
0.000000
  8
1
 62
7
  6
L000000000000000000
  0
VERTEX
 10
20.500000
 20
81.300000
 30
0.000000
  8
1
 62
7
  6
L000000000000000000
  0
VERTEX
 10
20.000000
 20
81.300000
 30
0.000000
  8
1
 62
7
  6
L000000000000000000
  0
VERTEX
 10
20.000000
 20
80.800000
 30
0.000000
  8
1
 62
7
  6
L000000000000000000
  0
SEQEND
  0
POLYLINE
  8
1
 62
7
  6
L000000000000000000
 70
1
 66
1
  0
VERTEX
 10
19.700000
 20
80.000000
 30
0.000000
  8
1
 62
7
  6
L000000000000000000
  0
VERTEX
 10
19.700000
 20
80.500000
 30
0.000000
  8
1
 62
7
  6
L000000000000000000
  0
VERTEX
 10
19.200000
 20
80.500000
 30
0.000000
  8
1
 62
7
  6
L000000000000000000
  0
VERTEX
 10
19.200000
 20
80.000000
 30
0.000000
  8
1
 62
7
  6
L000000000000000000
  0
SEQEND
  0
POLYLINE
  8
1
 62
7
  6
L000000000000000000
 70
1
 66
1
  0
VERTEX
 10
20.500000
 20
80.000000
 30
0.000000
  8
1
 62
7
  6
L000000000000000000
  0
VERTEX
 10
20.500000
 20
80.500000
 30
0.000000
  8
1
 62
7
  6
L000000000000000000
  0
VERTEX
 10
20.000000
 20
80.500000
 30
0.000000
  8
1
 62
7
  6
L000000000000000000
  0
VERTEX
 10
20.000000
 20
80.000000
 30
0.000000
  8
1
 62
7
  6
L000000000000000000
  0
SEQEND
  0
POLYLINE
  8
1
 62
7
  6
L000000000000000000
 70
1
 66
1
  0
VERTEX
 10
19.700000
 20
79.200000
 30
0.000000
  8
1
 62
7
  6
L000000000000000000
  0
VERTEX
 10
19.700000
 20
79.700000
 30
0.000000
  8
1
 62
7
  6
L000000000000000000
  0
VERTEX
 10
19.200000
 20
79.700000
 30
0.000000
  8
1
 62
7
  6
L000000000000000000
  0
VERTEX
 10
19.200000
 20
79.200000
 30
0.000000
  8
1
 62
7
  6
L000000000000000000
  0
SEQEND
  0
POLYLINE
  8
1
 62
7
  6
L000000000000000000
 70
1
 66
1
  0
VERTEX
 10
20.500000
 20
79.200000
 30
0.000000
  8
1
 62
7
  6
L000000000000000000
  0
VERTEX
 10
20.500000
 20
79.700000
 30
0.000000
  8
1
 62
7
  6
L000000000000000000
  0
VERTEX
 10
20.000000
 20
79.700000
 30
0.000000
  8
1
 62
7
  6
L000000000000000000
  0
VERTEX
 10
20.000000
 20
79.200000
 30
0.000000
  8
1
 62
7
  6
L000000000000000000
  0
SEQEND
  0
POLYLINE
  8
1
 62
7
  6
L000000000000000000
 70
1
 66
1
  0
VERTEX
 10
21.300000
 20
79.200000
 30
0.000000
  8
1
 62
7
  6
L000000000000000000
  0
VERTEX
 10
21.300000
 20
79.700000
 30
0.000000
  8
1
 62
7
  6
L000000000000000000
  0
VERTEX
 10
20.800000
 20
79.700000
 30
0.000000
  8
1
 62
7
  6
L000000000000000000
  0
VERTEX
 10
20.800000
 20
79.200000
 30
0.000000
  8
1
 62
7
  6
L000000000000000000
  0
SEQEND
  0
POLYLINE
  8
1
 62
7
  6
L000000000000000000
 70
1
 66
1
  0
VERTEX
 10
21.300000
 20
78.400000
 30
0.000000
  8
1
 62
7
  6
L000000000000000000
  0
VERTEX
 10
21.300000
 20
78.900000
 30
0.000000
  8
1
 62
7
  6
L000000000000000000
  0
VERTEX
 10
20.800000
 20
78.900000
 30
0.000000
  8
1
 62
7
  6
L000000000000000000
  0
VERTEX
 10
20.800000
 20
78.400000
 30
0.000000
  8
1
 62
7
  6
L000000000000000000
  0
SEQEND
  0
POLYLINE
  8
1
 62
7
  6
L000000000000000000
 70
1
 66
1
  0
VERTEX
 10
20.500000
 20
77.600000
 30
0.000000
  8
1
 62
7
  6
L000000000000000000
  0
VERTEX
 10
20.500000
 20
78.100000
 30
0.000000
  8
1
 62
7
  6
L000000000000000000
  0
VERTEX
 10
20.000000
 20
78.100000
 30
0.000000
  8
1
 62
7
  6
L000000000000000000
  0
VERTEX
 10
20.000000
 20
77.600000
 30
0.000000
  8
1
 62
7
  6
L000000000000000000
  0
SEQEND
  0
POLYLINE
  8
1
 62
7
  6
L000000000000000000
 70
1
 66
1
  0
VERTEX
 10
20.500000
 20
76.800000
 30
0.000000
  8
1
 62
7
  6
L000000000000000000
  0
VERTEX
 10
20.500000
 20
77.300000
 30
0.000000
  8
1
 62
7
  6
L000000000000000000
  0
VERTEX
 10
20.000000
 20
77.300000
 30
0.000000
  8
1
 62
7
  6
L000000000000000000
  0
VERTEX
 10
20.000000
 20
76.800000
 30
0.000000
  8
1
 62
7
  6
L000000000000000000
  0
SEQEND
  0
POLYLINE
  8
1
 62
7
  6
L000000000000000000
 70
1
 66
1
  0
VERTEX
 10
21.300000
 20
76.800000
 30
0.000000
  8
1
 62
7
  6
L000000000000000000
  0
VERTEX
 10
21.300000
 20
77.300000
 30
0.000000
  8
1
 62
7
  6
L000000000000000000
  0
VERTEX
 10
20.800000
 20
77.300000
 30
0.000000
  8
1
 62
7
  6
L000000000000000000
  0
VERTEX
 10
20.800000
 20
76.800000
 30
0.000000
  8
1
 62
7
  6
L000000000000000000
  0
SEQEND
  0
POLYLINE
  8
1
 62
7
  6
L000000000000000000
 70
1
 66
1
  0
VERTEX
 10
21.300000
 20
77.600000
 30
0.000000
  8
1
 62
7
  6
L000000000000000000
  0
VERTEX
 10
21.300000
 20
78.100000
 30
0.000000
  8
1
 62
7
  6
L000000000000000000
  0
VERTEX
 10
20.800000
 20
78.100000
 30
0.000000
  8
1
 62
7
  6
L000000000000000000
  0
VERTEX
 10
20.800000
 20
77.600000
 30
0.000000
  8
1
 62
7
  6
L000000000000000000
  0
SEQEND
  0
POLYLINE
  8
1
 62
7
  6
L000000000000000000
 70
1
 66
1
  0
VERTEX
 10
20.500000
 20
78.400000
 30
0.000000
  8
1
 62
7
  6
L000000000000000000
  0
VERTEX
 10
20.500000
 20
78.900000
 30
0.000000
  8
1
 62
7
  6
L000000000000000000
  0
VERTEX
 10
20.000000
 20
78.900000
 30
0.000000
  8
1
 62
7
  6
L000000000000000000
  0
VERTEX
 10
20.000000
 20
78.400000
 30
0.000000
  8
1
 62
7
  6
L000000000000000000
  0
SEQEND
  0
POLYLINE
  8
1
 62
7
  6
L000000000000000000
 70
1
 66
1
  0
VERTEX
 10
19.700000
 20
78.400000
 30
0.000000
  8
1
 62
7
  6
L000000000000000000
  0
VERTEX
 10
19.700000
 20
78.900000
 30
0.000000
  8
1
 62
7
  6
L000000000000000000
  0
VERTEX
 10
19.200000
 20
78.900000
 30
0.000000
  8
1
 62
7
  6
L000000000000000000
  0
VERTEX
 10
19.200000
 20
78.400000
 30
0.000000
  8
1
 62
7
  6
L000000000000000000
  0
SEQEND
  0
POLYLINE
  8
1
 62
7
  6
L000000000000000000
 70
1
 66
1
  0
VERTEX
 10
19.700000
 20
77.600000
 30
0.000000
  8
1
 62
7
  6
L000000000000000000
  0
VERTEX
 10
19.700000
 20
78.100000
 30
0.000000
  8
1
 62
7
  6
L000000000000000000
  0
VERTEX
 10
19.200000
 20
78.100000
 30
0.000000
  8
1
 62
7
  6
L000000000000000000
  0
VERTEX
 10
19.200000
 20
77.600000
 30
0.000000
  8
1
 62
7
  6
L000000000000000000
  0
SEQEND
  0
POLYLINE
  8
1
 62
7
  6
L000000000000000000
 70
1
 66
1
  0
VERTEX
 10
19.700000
 20
76.800000
 30
0.000000
  8
1
 62
7
  6
L000000000000000000
  0
VERTEX
 10
19.700000
 20
77.300000
 30
0.000000
  8
1
 62
7
  6
L000000000000000000
  0
VERTEX
 10
19.200000
 20
77.300000
 30
0.000000
  8
1
 62
7
  6
L000000000000000000
  0
VERTEX
 10
19.200000
 20
76.800000
 30
0.000000
  8
1
 62
7
  6
L000000000000000000
  0
SEQEND
  0
POLYLINE
  8
1
 62
7
  6
L000000000000000000
 70
1
 66
1
  0
VERTEX
 10
19.700000
 20
76.000000
 30
0.000000
  8
1
 62
7
  6
L000000000000000000
  0
VERTEX
 10
19.700000
 20
76.500000
 30
0.000000
  8
1
 62
7
  6
L000000000000000000
  0
VERTEX
 10
19.200000
 20
76.500000
 30
0.000000
  8
1
 62
7
  6
L000000000000000000
  0
VERTEX
 10
19.200000
 20
76.000000
 30
0.000000
  8
1
 62
7
  6
L000000000000000000
  0
SEQEND
  0
POLYLINE
  8
1
 62
7
  6
L000000000000000000
 70
1
 66
1
  0
VERTEX
 10
20.500000
 20
76.000000
 30
0.000000
  8
1
 62
7
  6
L000000000000000000
  0
VERTEX
 10
20.500000
 20
76.500000
 30
0.000000
  8
1
 62
7
  6
L000000000000000000
  0
VERTEX
 10
20.000000
 20
76.500000
 30
0.000000
  8
1
 62
7
  6
L000000000000000000
  0
VERTEX
 10
20.000000
 20
76.000000
 30
0.000000
  8
1
 62
7
  6
L000000000000000000
  0
SEQEND
  0
POLYLINE
  8
1
 62
7
  6
L000000000000000000
 70
1
 66
1
  0
VERTEX
 10
21.300000
 20
76.000000
 30
0.000000
  8
1
 62
7
  6
L000000000000000000
  0
VERTEX
 10
21.300000
 20
76.500000
 30
0.000000
  8
1
 62
7
  6
L000000000000000000
  0
VERTEX
 10
20.800000
 20
76.500000
 30
0.000000
  8
1
 62
7
  6
L000000000000000000
  0
VERTEX
 10
20.800000
 20
76.000000
 30
0.000000
  8
1
 62
7
  6
L000000000000000000
  0
SEQEND
  0
POLYLINE
  8
1
 62
7
  6
L000000000000000000
 70
1
 66
1
  0
VERTEX
 10
22.100000
 20
80.800000
 30
0.000000
  8
1
 62
7
  6
L000000000000000000
  0
VERTEX
 10
22.100000
 20
81.300000
 30
0.000000
  8
1
 62
7
  6
L000000000000000000
  0
VERTEX
 10
21.600000
 20
81.300000
 30
0.000000
  8
1
 62
7
  6
L000000000000000000
  0
VERTEX
 10
21.600000
 20
80.800000
 30
0.000000
  8
1
 62
7
  6
L000000000000000000
  0
SEQEND
  0
POLYLINE
  8
1
 62
7
  6
L000000000000000000
 70
1
 66
1
  0
VERTEX
 10
23.700000
 20
80.800000
 30
0.000000
  8
1
 62
7
  6
L000000000000000000
  0
VERTEX
 10
23.700000
 20
81.300000
 30
0.000000
  8
1
 62
7
  6
L000000000000000000
  0
VERTEX
 10
23.200000
 20
81.300000
 30
0.000000
  8
1
 62
7
  6
L000000000000000000
  0
VERTEX
 10
23.200000
 20
80.800000
 30
0.000000
  8
1
 62
7
  6
L000000000000000000
  0
SEQEND
  0
POLYLINE
  8
1
 62
7
  6
L000000000000000000
 70
1
 66
1
  0
VERTEX
 10
23.700000
 20
80.000000
 30
0.000000
  8
1
 62
7
  6
L000000000000000000
  0
VERTEX
 10
23.700000
 20
80.500000
 30
0.000000
  8
1
 62
7
  6
L000000000000000000
  0
VERTEX
 10
23.200000
 20
80.500000
 30
0.000000
  8
1
 62
7
  6
L000000000000000000
  0
VERTEX
 10
23.200000
 20
80.000000
 30
0.000000
  8
1
 62
7
  6
L000000000000000000
  0
SEQEND
  0
POLYLINE
  8
1
 62
7
  6
L000000000000000000
 70
1
 66
1
  0
VERTEX
 10
22.900000
 20
80.800000
 30
0.000000
  8
1
 62
7
  6
L000000000000000000
  0
VERTEX
 10
22.900000
 20
81.300000
 30
0.000000
  8
1
 62
7
  6
L000000000000000000
  0
VERTEX
 10
22.400000
 20
81.300000
 30
0.000000
  8
1
 62
7
  6
L000000000000000000
  0
VERTEX
 10
22.400000
 20
80.800000
 30
0.000000
  8
1
 62
7
  6
L000000000000000000
  0
SEQEND
  0
POLYLINE
  8
1
 62
7
  6
L000000000000000000
 70
1
 66
1
  0
VERTEX
 10
22.100000
 20
80.000000
 30
0.000000
  8
1
 62
7
  6
L000000000000000000
  0
VERTEX
 10
22.100000
 20
80.500000
 30
0.000000
  8
1
 62
7
  6
L000000000000000000
  0
VERTEX
 10
21.600000
 20
80.500000
 30
0.000000
  8
1
 62
7
  6
L000000000000000000
  0
VERTEX
 10
21.600000
 20
80.000000
 30
0.000000
  8
1
 62
7
  6
L000000000000000000
  0
SEQEND
  0
POLYLINE
  8
1
 62
7
  6
L000000000000000000
 70
1
 66
1
  0
VERTEX
 10
22.900000
 20
80.000000
 30
0.000000
  8
1
 62
7
  6
L000000000000000000
  0
VERTEX
 10
22.900000
 20
80.500000
 30
0.000000
  8
1
 62
7
  6
L000000000000000000
  0
VERTEX
 10
22.400000
 20
80.500000
 30
0.000000
  8
1
 62
7
  6
L000000000000000000
  0
VERTEX
 10
22.400000
 20
80.000000
 30
0.000000
  8
1
 62
7
  6
L000000000000000000
  0
SEQEND
  0
POLYLINE
  8
1
 62
7
  6
L000000000000000000
 70
1
 66
1
  0
VERTEX
 10
22.100000
 20
79.200000
 30
0.000000
  8
1
 62
7
  6
L000000000000000000
  0
VERTEX
 10
22.100000
 20
79.700000
 30
0.000000
  8
1
 62
7
  6
L000000000000000000
  0
VERTEX
 10
21.600000
 20
79.700000
 30
0.000000
  8
1
 62
7
  6
L000000000000000000
  0
VERTEX
 10
21.600000
 20
79.200000
 30
0.000000
  8
1
 62
7
  6
L000000000000000000
  0
SEQEND
  0
POLYLINE
  8
1
 62
7
  6
L000000000000000000
 70
1
 66
1
  0
VERTEX
 10
22.900000
 20
79.200000
 30
0.000000
  8
1
 62
7
  6
L000000000000000000
  0
VERTEX
 10
22.900000
 20
79.700000
 30
0.000000
  8
1
 62
7
  6
L000000000000000000
  0
VERTEX
 10
22.400000
 20
79.700000
 30
0.000000
  8
1
 62
7
  6
L000000000000000000
  0
VERTEX
 10
22.400000
 20
79.200000
 30
0.000000
  8
1
 62
7
  6
L000000000000000000
  0
SEQEND
  0
POLYLINE
  8
1
 62
7
  6
L000000000000000000
 70
1
 66
1
  0
VERTEX
 10
23.700000
 20
79.200000
 30
0.000000
  8
1
 62
7
  6
L000000000000000000
  0
VERTEX
 10
23.700000
 20
79.700000
 30
0.000000
  8
1
 62
7
  6
L000000000000000000
  0
VERTEX
 10
23.200000
 20
79.700000
 30
0.000000
  8
1
 62
7
  6
L000000000000000000
  0
VERTEX
 10
23.200000
 20
79.200000
 30
0.000000
  8
1
 62
7
  6
L000000000000000000
  0
SEQEND
  0
POLYLINE
  8
1
 62
7
  6
L000000000000000000
 70
1
 66
1
  0
VERTEX
 10
23.700000
 20
78.400000
 30
0.000000
  8
1
 62
7
  6
L000000000000000000
  0
VERTEX
 10
23.700000
 20
78.900000
 30
0.000000
  8
1
 62
7
  6
L000000000000000000
  0
VERTEX
 10
23.200000
 20
78.900000
 30
0.000000
  8
1
 62
7
  6
L000000000000000000
  0
VERTEX
 10
23.200000
 20
78.400000
 30
0.000000
  8
1
 62
7
  6
L000000000000000000
  0
SEQEND
  0
POLYLINE
  8
1
 62
7
  6
L000000000000000000
 70
1
 66
1
  0
VERTEX
 10
22.900000
 20
77.600000
 30
0.000000
  8
1
 62
7
  6
L000000000000000000
  0
VERTEX
 10
22.900000
 20
78.100000
 30
0.000000
  8
1
 62
7
  6
L000000000000000000
  0
VERTEX
 10
22.400000
 20
78.100000
 30
0.000000
  8
1
 62
7
  6
L000000000000000000
  0
VERTEX
 10
22.400000
 20
77.600000
 30
0.000000
  8
1
 62
7
  6
L000000000000000000
  0
SEQEND
  0
POLYLINE
  8
1
 62
7
  6
L000000000000000000
 70
1
 66
1
  0
VERTEX
 10
22.900000
 20
76.800000
 30
0.000000
  8
1
 62
7
  6
L000000000000000000
  0
VERTEX
 10
22.900000
 20
77.300000
 30
0.000000
  8
1
 62
7
  6
L000000000000000000
  0
VERTEX
 10
22.400000
 20
77.300000
 30
0.000000
  8
1
 62
7
  6
L000000000000000000
  0
VERTEX
 10
22.400000
 20
76.800000
 30
0.000000
  8
1
 62
7
  6
L000000000000000000
  0
SEQEND
  0
POLYLINE
  8
1
 62
7
  6
L000000000000000000
 70
1
 66
1
  0
VERTEX
 10
23.700000
 20
76.800000
 30
0.000000
  8
1
 62
7
  6
L000000000000000000
  0
VERTEX
 10
23.700000
 20
77.300000
 30
0.000000
  8
1
 62
7
  6
L000000000000000000
  0
VERTEX
 10
23.200000
 20
77.300000
 30
0.000000
  8
1
 62
7
  6
L000000000000000000
  0
VERTEX
 10
23.200000
 20
76.800000
 30
0.000000
  8
1
 62
7
  6
L000000000000000000
  0
SEQEND
  0
POLYLINE
  8
1
 62
7
  6
L000000000000000000
 70
1
 66
1
  0
VERTEX
 10
23.700000
 20
77.600000
 30
0.000000
  8
1
 62
7
  6
L000000000000000000
  0
VERTEX
 10
23.700000
 20
78.100000
 30
0.000000
  8
1
 62
7
  6
L000000000000000000
  0
VERTEX
 10
23.200000
 20
78.100000
 30
0.000000
  8
1
 62
7
  6
L000000000000000000
  0
VERTEX
 10
23.200000
 20
77.600000
 30
0.000000
  8
1
 62
7
  6
L000000000000000000
  0
SEQEND
  0
POLYLINE
  8
1
 62
7
  6
L000000000000000000
 70
1
 66
1
  0
VERTEX
 10
22.900000
 20
78.400000
 30
0.000000
  8
1
 62
7
  6
L000000000000000000
  0
VERTEX
 10
22.900000
 20
78.900000
 30
0.000000
  8
1
 62
7
  6
L000000000000000000
  0
VERTEX
 10
22.400000
 20
78.900000
 30
0.000000
  8
1
 62
7
  6
L000000000000000000
  0
VERTEX
 10
22.400000
 20
78.400000
 30
0.000000
  8
1
 62
7
  6
L000000000000000000
  0
SEQEND
  0
POLYLINE
  8
1
 62
7
  6
L000000000000000000
 70
1
 66
1
  0
VERTEX
 10
22.100000
 20
78.400000
 30
0.000000
  8
1
 62
7
  6
L000000000000000000
  0
VERTEX
 10
22.100000
 20
78.900000
 30
0.000000
  8
1
 62
7
  6
L000000000000000000
  0
VERTEX
 10
21.600000
 20
78.900000
 30
0.000000
  8
1
 62
7
  6
L000000000000000000
  0
VERTEX
 10
21.600000
 20
78.400000
 30
0.000000
  8
1
 62
7
  6
L000000000000000000
  0
SEQEND
  0
POLYLINE
  8
1
 62
7
  6
L000000000000000000
 70
1
 66
1
  0
VERTEX
 10
22.100000
 20
77.600000
 30
0.000000
  8
1
 62
7
  6
L000000000000000000
  0
VERTEX
 10
22.100000
 20
78.100000
 30
0.000000
  8
1
 62
7
  6
L000000000000000000
  0
VERTEX
 10
21.600000
 20
78.100000
 30
0.000000
  8
1
 62
7
  6
L000000000000000000
  0
VERTEX
 10
21.600000
 20
77.600000
 30
0.000000
  8
1
 62
7
  6
L000000000000000000
  0
SEQEND
  0
POLYLINE
  8
1
 62
7
  6
L000000000000000000
 70
1
 66
1
  0
VERTEX
 10
22.100000
 20
76.800000
 30
0.000000
  8
1
 62
7
  6
L000000000000000000
  0
VERTEX
 10
22.100000
 20
77.300000
 30
0.000000
  8
1
 62
7
  6
L000000000000000000
  0
VERTEX
 10
21.600000
 20
77.300000
 30
0.000000
  8
1
 62
7
  6
L000000000000000000
  0
VERTEX
 10
21.600000
 20
76.800000
 30
0.000000
  8
1
 62
7
  6
L000000000000000000
  0
SEQEND
  0
POLYLINE
  8
1
 62
7
  6
L000000000000000000
 70
1
 66
1
  0
VERTEX
 10
22.100000
 20
76.000000
 30
0.000000
  8
1
 62
7
  6
L000000000000000000
  0
VERTEX
 10
22.100000
 20
76.500000
 30
0.000000
  8
1
 62
7
  6
L000000000000000000
  0
VERTEX
 10
21.600000
 20
76.500000
 30
0.000000
  8
1
 62
7
  6
L000000000000000000
  0
VERTEX
 10
21.600000
 20
76.000000
 30
0.000000
  8
1
 62
7
  6
L000000000000000000
  0
SEQEND
  0
POLYLINE
  8
1
 62
7
  6
L000000000000000000
 70
1
 66
1
  0
VERTEX
 10
22.900000
 20
76.000000
 30
0.000000
  8
1
 62
7
  6
L000000000000000000
  0
VERTEX
 10
22.900000
 20
76.500000
 30
0.000000
  8
1
 62
7
  6
L000000000000000000
  0
VERTEX
 10
22.400000
 20
76.500000
 30
0.000000
  8
1
 62
7
  6
L000000000000000000
  0
VERTEX
 10
22.400000
 20
76.000000
 30
0.000000
  8
1
 62
7
  6
L000000000000000000
  0
SEQEND
  0
POLYLINE
  8
1
 62
7
  6
L000000000000000000
 70
1
 66
1
  0
VERTEX
 10
23.700000
 20
76.000000
 30
0.000000
  8
1
 62
7
  6
L000000000000000000
  0
VERTEX
 10
23.700000
 20
76.500000
 30
0.000000
  8
1
 62
7
  6
L000000000000000000
  0
VERTEX
 10
23.200000
 20
76.500000
 30
0.000000
  8
1
 62
7
  6
L000000000000000000
  0
VERTEX
 10
23.200000
 20
76.000000
 30
0.000000
  8
1
 62
7
  6
L000000000000000000
  0
SEQEND
  0
POLYLINE
  8
1
 62
7
  6
L000000000000000000
 70
1
 66
1
  0
VERTEX
 10
24.500000
 20
80.800000
 30
0.000000
  8
1
 62
7
  6
L000000000000000000
  0
VERTEX
 10
24.500000
 20
81.300000
 30
0.000000
  8
1
 62
7
  6
L000000000000000000
  0
VERTEX
 10
24.000000
 20
81.300000
 30
0.000000
  8
1
 62
7
  6
L000000000000000000
  0
VERTEX
 10
24.000000
 20
80.800000
 30
0.000000
  8
1
 62
7
  6
L000000000000000000
  0
SEQEND
  0
POLYLINE
  8
1
 62
7
  6
L000000000000000000
 70
1
 66
1
  0
VERTEX
 10
26.100000
 20
80.800000
 30
0.000000
  8
1
 62
7
  6
L000000000000000000
  0
VERTEX
 10
26.100000
 20
81.300000
 30
0.000000
  8
1
 62
7
  6
L000000000000000000
  0
VERTEX
 10
25.600000
 20
81.300000
 30
0.000000
  8
1
 62
7
  6
L000000000000000000
  0
VERTEX
 10
25.600000
 20
80.800000
 30
0.000000
  8
1
 62
7
  6
L000000000000000000
  0
SEQEND
  0
POLYLINE
  8
1
 62
7
  6
L000000000000000000
 70
1
 66
1
  0
VERTEX
 10
26.100000
 20
80.000000
 30
0.000000
  8
1
 62
7
  6
L000000000000000000
  0
VERTEX
 10
26.100000
 20
80.500000
 30
0.000000
  8
1
 62
7
  6
L000000000000000000
  0
VERTEX
 10
25.600000
 20
80.500000
 30
0.000000
  8
1
 62
7
  6
L000000000000000000
  0
VERTEX
 10
25.600000
 20
80.000000
 30
0.000000
  8
1
 62
7
  6
L000000000000000000
  0
SEQEND
  0
POLYLINE
  8
1
 62
7
  6
L000000000000000000
 70
1
 66
1
  0
VERTEX
 10
25.300000
 20
80.800000
 30
0.000000
  8
1
 62
7
  6
L000000000000000000
  0
VERTEX
 10
25.300000
 20
81.300000
 30
0.000000
  8
1
 62
7
  6
L000000000000000000
  0
VERTEX
 10
24.800000
 20
81.300000
 30
0.000000
  8
1
 62
7
  6
L000000000000000000
  0
VERTEX
 10
24.800000
 20
80.800000
 30
0.000000
  8
1
 62
7
  6
L000000000000000000
  0
SEQEND
  0
POLYLINE
  8
1
 62
7
  6
L000000000000000000
 70
1
 66
1
  0
VERTEX
 10
24.500000
 20
80.000000
 30
0.000000
  8
1
 62
7
  6
L000000000000000000
  0
VERTEX
 10
24.500000
 20
80.500000
 30
0.000000
  8
1
 62
7
  6
L000000000000000000
  0
VERTEX
 10
24.000000
 20
80.500000
 30
0.000000
  8
1
 62
7
  6
L000000000000000000
  0
VERTEX
 10
24.000000
 20
80.000000
 30
0.000000
  8
1
 62
7
  6
L000000000000000000
  0
SEQEND
  0
POLYLINE
  8
1
 62
7
  6
L000000000000000000
 70
1
 66
1
  0
VERTEX
 10
25.300000
 20
80.000000
 30
0.000000
  8
1
 62
7
  6
L000000000000000000
  0
VERTEX
 10
25.300000
 20
80.500000
 30
0.000000
  8
1
 62
7
  6
L000000000000000000
  0
VERTEX
 10
24.800000
 20
80.500000
 30
0.000000
  8
1
 62
7
  6
L000000000000000000
  0
VERTEX
 10
24.800000
 20
80.000000
 30
0.000000
  8
1
 62
7
  6
L000000000000000000
  0
SEQEND
  0
POLYLINE
  8
1
 62
7
  6
L000000000000000000
 70
1
 66
1
  0
VERTEX
 10
24.500000
 20
79.200000
 30
0.000000
  8
1
 62
7
  6
L000000000000000000
  0
VERTEX
 10
24.500000
 20
79.700000
 30
0.000000
  8
1
 62
7
  6
L000000000000000000
  0
VERTEX
 10
24.000000
 20
79.700000
 30
0.000000
  8
1
 62
7
  6
L000000000000000000
  0
VERTEX
 10
24.000000
 20
79.200000
 30
0.000000
  8
1
 62
7
  6
L000000000000000000
  0
SEQEND
  0
POLYLINE
  8
1
 62
7
  6
L000000000000000000
 70
1
 66
1
  0
VERTEX
 10
25.300000
 20
79.200000
 30
0.000000
  8
1
 62
7
  6
L000000000000000000
  0
VERTEX
 10
25.300000
 20
79.700000
 30
0.000000
  8
1
 62
7
  6
L000000000000000000
  0
VERTEX
 10
24.800000
 20
79.700000
 30
0.000000
  8
1
 62
7
  6
L000000000000000000
  0
VERTEX
 10
24.800000
 20
79.200000
 30
0.000000
  8
1
 62
7
  6
L000000000000000000
  0
SEQEND
  0
POLYLINE
  8
1
 62
7
  6
L000000000000000000
 70
1
 66
1
  0
VERTEX
 10
26.100000
 20
79.200000
 30
0.000000
  8
1
 62
7
  6
L000000000000000000
  0
VERTEX
 10
26.100000
 20
79.700000
 30
0.000000
  8
1
 62
7
  6
L000000000000000000
  0
VERTEX
 10
25.600000
 20
79.700000
 30
0.000000
  8
1
 62
7
  6
L000000000000000000
  0
VERTEX
 10
25.600000
 20
79.200000
 30
0.000000
  8
1
 62
7
  6
L000000000000000000
  0
SEQEND
  0
POLYLINE
  8
1
 62
7
  6
L000000000000000000
 70
1
 66
1
  0
VERTEX
 10
26.100000
 20
78.400000
 30
0.000000
  8
1
 62
7
  6
L000000000000000000
  0
VERTEX
 10
26.100000
 20
78.900000
 30
0.000000
  8
1
 62
7
  6
L000000000000000000
  0
VERTEX
 10
25.600000
 20
78.900000
 30
0.000000
  8
1
 62
7
  6
L000000000000000000
  0
VERTEX
 10
25.600000
 20
78.400000
 30
0.000000
  8
1
 62
7
  6
L000000000000000000
  0
SEQEND
  0
POLYLINE
  8
1
 62
7
  6
L000000000000000000
 70
1
 66
1
  0
VERTEX
 10
25.300000
 20
77.600000
 30
0.000000
  8
1
 62
7
  6
L000000000000000000
  0
VERTEX
 10
25.300000
 20
78.100000
 30
0.000000
  8
1
 62
7
  6
L000000000000000000
  0
VERTEX
 10
24.800000
 20
78.100000
 30
0.000000
  8
1
 62
7
  6
L000000000000000000
  0
VERTEX
 10
24.800000
 20
77.600000
 30
0.000000
  8
1
 62
7
  6
L000000000000000000
  0
SEQEND
  0
POLYLINE
  8
1
 62
7
  6
L000000000000000000
 70
1
 66
1
  0
VERTEX
 10
25.300000
 20
76.800000
 30
0.000000
  8
1
 62
7
  6
L000000000000000000
  0
VERTEX
 10
25.300000
 20
77.300000
 30
0.000000
  8
1
 62
7
  6
L000000000000000000
  0
VERTEX
 10
24.800000
 20
77.300000
 30
0.000000
  8
1
 62
7
  6
L000000000000000000
  0
VERTEX
 10
24.800000
 20
76.800000
 30
0.000000
  8
1
 62
7
  6
L000000000000000000
  0
SEQEND
  0
POLYLINE
  8
1
 62
7
  6
L000000000000000000
 70
1
 66
1
  0
VERTEX
 10
26.100000
 20
76.800000
 30
0.000000
  8
1
 62
7
  6
L000000000000000000
  0
VERTEX
 10
26.100000
 20
77.300000
 30
0.000000
  8
1
 62
7
  6
L000000000000000000
  0
VERTEX
 10
25.600000
 20
77.300000
 30
0.000000
  8
1
 62
7
  6
L000000000000000000
  0
VERTEX
 10
25.600000
 20
76.800000
 30
0.000000
  8
1
 62
7
  6
L000000000000000000
  0
SEQEND
  0
POLYLINE
  8
1
 62
7
  6
L000000000000000000
 70
1
 66
1
  0
VERTEX
 10
26.100000
 20
77.600000
 30
0.000000
  8
1
 62
7
  6
L000000000000000000
  0
VERTEX
 10
26.100000
 20
78.100000
 30
0.000000
  8
1
 62
7
  6
L000000000000000000
  0
VERTEX
 10
25.600000
 20
78.100000
 30
0.000000
  8
1
 62
7
  6
L000000000000000000
  0
VERTEX
 10
25.600000
 20
77.600000
 30
0.000000
  8
1
 62
7
  6
L000000000000000000
  0
SEQEND
  0
POLYLINE
  8
1
 62
7
  6
L000000000000000000
 70
1
 66
1
  0
VERTEX
 10
25.300000
 20
78.400000
 30
0.000000
  8
1
 62
7
  6
L000000000000000000
  0
VERTEX
 10
25.300000
 20
78.900000
 30
0.000000
  8
1
 62
7
  6
L000000000000000000
  0
VERTEX
 10
24.800000
 20
78.900000
 30
0.000000
  8
1
 62
7
  6
L000000000000000000
  0
VERTEX
 10
24.800000
 20
78.400000
 30
0.000000
  8
1
 62
7
  6
L000000000000000000
  0
SEQEND
  0
POLYLINE
  8
1
 62
7
  6
L000000000000000000
 70
1
 66
1
  0
VERTEX
 10
24.500000
 20
78.400000
 30
0.000000
  8
1
 62
7
  6
L000000000000000000
  0
VERTEX
 10
24.500000
 20
78.900000
 30
0.000000
  8
1
 62
7
  6
L000000000000000000
  0
VERTEX
 10
24.000000
 20
78.900000
 30
0.000000
  8
1
 62
7
  6
L000000000000000000
  0
VERTEX
 10
24.000000
 20
78.400000
 30
0.000000
  8
1
 62
7
  6
L000000000000000000
  0
SEQEND
  0
POLYLINE
  8
1
 62
7
  6
L000000000000000000
 70
1
 66
1
  0
VERTEX
 10
24.500000
 20
77.600000
 30
0.000000
  8
1
 62
7
  6
L000000000000000000
  0
VERTEX
 10
24.500000
 20
78.100000
 30
0.000000
  8
1
 62
7
  6
L000000000000000000
  0
VERTEX
 10
24.000000
 20
78.100000
 30
0.000000
  8
1
 62
7
  6
L000000000000000000
  0
VERTEX
 10
24.000000
 20
77.600000
 30
0.000000
  8
1
 62
7
  6
L000000000000000000
  0
SEQEND
  0
POLYLINE
  8
1
 62
7
  6
L000000000000000000
 70
1
 66
1
  0
VERTEX
 10
24.500000
 20
76.800000
 30
0.000000
  8
1
 62
7
  6
L000000000000000000
  0
VERTEX
 10
24.500000
 20
77.300000
 30
0.000000
  8
1
 62
7
  6
L000000000000000000
  0
VERTEX
 10
24.000000
 20
77.300000
 30
0.000000
  8
1
 62
7
  6
L000000000000000000
  0
VERTEX
 10
24.000000
 20
76.800000
 30
0.000000
  8
1
 62
7
  6
L000000000000000000
  0
SEQEND
  0
POLYLINE
  8
1
 62
7
  6
L000000000000000000
 70
1
 66
1
  0
VERTEX
 10
24.500000
 20
76.000000
 30
0.000000
  8
1
 62
7
  6
L000000000000000000
  0
VERTEX
 10
24.500000
 20
76.500000
 30
0.000000
  8
1
 62
7
  6
L000000000000000000
  0
VERTEX
 10
24.000000
 20
76.500000
 30
0.000000
  8
1
 62
7
  6
L000000000000000000
  0
VERTEX
 10
24.000000
 20
76.000000
 30
0.000000
  8
1
 62
7
  6
L000000000000000000
  0
SEQEND
  0
POLYLINE
  8
1
 62
7
  6
L000000000000000000
 70
1
 66
1
  0
VERTEX
 10
25.300000
 20
76.000000
 30
0.000000
  8
1
 62
7
  6
L000000000000000000
  0
VERTEX
 10
25.300000
 20
76.500000
 30
0.000000
  8
1
 62
7
  6
L000000000000000000
  0
VERTEX
 10
24.800000
 20
76.500000
 30
0.000000
  8
1
 62
7
  6
L000000000000000000
  0
VERTEX
 10
24.800000
 20
76.000000
 30
0.000000
  8
1
 62
7
  6
L000000000000000000
  0
SEQEND
  0
POLYLINE
  8
1
 62
7
  6
L000000000000000000
 70
1
 66
1
  0
VERTEX
 10
26.100000
 20
76.000000
 30
0.000000
  8
1
 62
7
  6
L000000000000000000
  0
VERTEX
 10
26.100000
 20
76.500000
 30
0.000000
  8
1
 62
7
  6
L000000000000000000
  0
VERTEX
 10
25.600000
 20
76.500000
 30
0.000000
  8
1
 62
7
  6
L000000000000000000
  0
VERTEX
 10
25.600000
 20
76.000000
 30
0.000000
  8
1
 62
7
  6
L000000000000000000
  0
SEQEND
  0
POLYLINE
  8
1
 62
7
  6
L000000000000000000
 70
1
 66
1
  0
VERTEX
 10
26.900000
 20
80.800000
 30
0.000000
  8
1
 62
7
  6
L000000000000000000
  0
VERTEX
 10
26.900000
 20
81.300000
 30
0.000000
  8
1
 62
7
  6
L000000000000000000
  0
VERTEX
 10
26.400000
 20
81.300000
 30
0.000000
  8
1
 62
7
  6
L000000000000000000
  0
VERTEX
 10
26.400000
 20
80.800000
 30
0.000000
  8
1
 62
7
  6
L000000000000000000
  0
SEQEND
  0
POLYLINE
  8
1
 62
7
  6
L000000000000000000
 70
1
 66
1
  0
VERTEX
 10
28.500000
 20
80.800000
 30
0.000000
  8
1
 62
7
  6
L000000000000000000
  0
VERTEX
 10
28.500000
 20
81.300000
 30
0.000000
  8
1
 62
7
  6
L000000000000000000
  0
VERTEX
 10
28.000000
 20
81.300000
 30
0.000000
  8
1
 62
7
  6
L000000000000000000
  0
VERTEX
 10
28.000000
 20
80.800000
 30
0.000000
  8
1
 62
7
  6
L000000000000000000
  0
SEQEND
  0
POLYLINE
  8
1
 62
7
  6
L000000000000000000
 70
1
 66
1
  0
VERTEX
 10
28.500000
 20
80.000000
 30
0.000000
  8
1
 62
7
  6
L000000000000000000
  0
VERTEX
 10
28.500000
 20
80.500000
 30
0.000000
  8
1
 62
7
  6
L000000000000000000
  0
VERTEX
 10
28.000000
 20
80.500000
 30
0.000000
  8
1
 62
7
  6
L000000000000000000
  0
VERTEX
 10
28.000000
 20
80.000000
 30
0.000000
  8
1
 62
7
  6
L000000000000000000
  0
SEQEND
  0
POLYLINE
  8
1
 62
7
  6
L000000000000000000
 70
1
 66
1
  0
VERTEX
 10
27.700000
 20
80.800000
 30
0.000000
  8
1
 62
7
  6
L000000000000000000
  0
VERTEX
 10
27.700000
 20
81.300000
 30
0.000000
  8
1
 62
7
  6
L000000000000000000
  0
VERTEX
 10
27.200000
 20
81.300000
 30
0.000000
  8
1
 62
7
  6
L000000000000000000
  0
VERTEX
 10
27.200000
 20
80.800000
 30
0.000000
  8
1
 62
7
  6
L000000000000000000
  0
SEQEND
  0
POLYLINE
  8
1
 62
7
  6
L000000000000000000
 70
1
 66
1
  0
VERTEX
 10
26.900000
 20
80.000000
 30
0.000000
  8
1
 62
7
  6
L000000000000000000
  0
VERTEX
 10
26.900000
 20
80.500000
 30
0.000000
  8
1
 62
7
  6
L000000000000000000
  0
VERTEX
 10
26.400000
 20
80.500000
 30
0.000000
  8
1
 62
7
  6
L000000000000000000
  0
VERTEX
 10
26.400000
 20
80.000000
 30
0.000000
  8
1
 62
7
  6
L000000000000000000
  0
SEQEND
  0
POLYLINE
  8
1
 62
7
  6
L000000000000000000
 70
1
 66
1
  0
VERTEX
 10
27.700000
 20
80.000000
 30
0.000000
  8
1
 62
7
  6
L000000000000000000
  0
VERTEX
 10
27.700000
 20
80.500000
 30
0.000000
  8
1
 62
7
  6
L000000000000000000
  0
VERTEX
 10
27.200000
 20
80.500000
 30
0.000000
  8
1
 62
7
  6
L000000000000000000
  0
VERTEX
 10
27.200000
 20
80.000000
 30
0.000000
  8
1
 62
7
  6
L000000000000000000
  0
SEQEND
  0
POLYLINE
  8
1
 62
7
  6
L000000000000000000
 70
1
 66
1
  0
VERTEX
 10
26.900000
 20
79.200000
 30
0.000000
  8
1
 62
7
  6
L000000000000000000
  0
VERTEX
 10
26.900000
 20
79.700000
 30
0.000000
  8
1
 62
7
  6
L000000000000000000
  0
VERTEX
 10
26.400000
 20
79.700000
 30
0.000000
  8
1
 62
7
  6
L000000000000000000
  0
VERTEX
 10
26.400000
 20
79.200000
 30
0.000000
  8
1
 62
7
  6
L000000000000000000
  0
SEQEND
  0
POLYLINE
  8
1
 62
7
  6
L000000000000000000
 70
1
 66
1
  0
VERTEX
 10
27.700000
 20
79.200000
 30
0.000000
  8
1
 62
7
  6
L000000000000000000
  0
VERTEX
 10
27.700000
 20
79.700000
 30
0.000000
  8
1
 62
7
  6
L000000000000000000
  0
VERTEX
 10
27.200000
 20
79.700000
 30
0.000000
  8
1
 62
7
  6
L000000000000000000
  0
VERTEX
 10
27.200000
 20
79.200000
 30
0.000000
  8
1
 62
7
  6
L000000000000000000
  0
SEQEND
  0
POLYLINE
  8
1
 62
7
  6
L000000000000000000
 70
1
 66
1
  0
VERTEX
 10
28.500000
 20
79.200000
 30
0.000000
  8
1
 62
7
  6
L000000000000000000
  0
VERTEX
 10
28.500000
 20
79.700000
 30
0.000000
  8
1
 62
7
  6
L000000000000000000
  0
VERTEX
 10
28.000000
 20
79.700000
 30
0.000000
  8
1
 62
7
  6
L000000000000000000
  0
VERTEX
 10
28.000000
 20
79.200000
 30
0.000000
  8
1
 62
7
  6
L000000000000000000
  0
SEQEND
  0
POLYLINE
  8
1
 62
7
  6
L000000000000000000
 70
1
 66
1
  0
VERTEX
 10
28.500000
 20
78.400000
 30
0.000000
  8
1
 62
7
  6
L000000000000000000
  0
VERTEX
 10
28.500000
 20
78.900000
 30
0.000000
  8
1
 62
7
  6
L000000000000000000
  0
VERTEX
 10
28.000000
 20
78.900000
 30
0.000000
  8
1
 62
7
  6
L000000000000000000
  0
VERTEX
 10
28.000000
 20
78.400000
 30
0.000000
  8
1
 62
7
  6
L000000000000000000
  0
SEQEND
  0
POLYLINE
  8
1
 62
7
  6
L000000000000000000
 70
1
 66
1
  0
VERTEX
 10
27.700000
 20
77.600000
 30
0.000000
  8
1
 62
7
  6
L000000000000000000
  0
VERTEX
 10
27.700000
 20
78.100000
 30
0.000000
  8
1
 62
7
  6
L000000000000000000
  0
VERTEX
 10
27.200000
 20
78.100000
 30
0.000000
  8
1
 62
7
  6
L000000000000000000
  0
VERTEX
 10
27.200000
 20
77.600000
 30
0.000000
  8
1
 62
7
  6
L000000000000000000
  0
SEQEND
  0
POLYLINE
  8
1
 62
7
  6
L000000000000000000
 70
1
 66
1
  0
VERTEX
 10
27.700000
 20
76.800000
 30
0.000000
  8
1
 62
7
  6
L000000000000000000
  0
VERTEX
 10
27.700000
 20
77.300000
 30
0.000000
  8
1
 62
7
  6
L000000000000000000
  0
VERTEX
 10
27.200000
 20
77.300000
 30
0.000000
  8
1
 62
7
  6
L000000000000000000
  0
VERTEX
 10
27.200000
 20
76.800000
 30
0.000000
  8
1
 62
7
  6
L000000000000000000
  0
SEQEND
  0
POLYLINE
  8
1
 62
7
  6
L000000000000000000
 70
1
 66
1
  0
VERTEX
 10
28.500000
 20
76.800000
 30
0.000000
  8
1
 62
7
  6
L000000000000000000
  0
VERTEX
 10
28.500000
 20
77.300000
 30
0.000000
  8
1
 62
7
  6
L000000000000000000
  0
VERTEX
 10
28.000000
 20
77.300000
 30
0.000000
  8
1
 62
7
  6
L000000000000000000
  0
VERTEX
 10
28.000000
 20
76.800000
 30
0.000000
  8
1
 62
7
  6
L000000000000000000
  0
SEQEND
  0
POLYLINE
  8
1
 62
7
  6
L000000000000000000
 70
1
 66
1
  0
VERTEX
 10
28.500000
 20
77.600000
 30
0.000000
  8
1
 62
7
  6
L000000000000000000
  0
VERTEX
 10
28.500000
 20
78.100000
 30
0.000000
  8
1
 62
7
  6
L000000000000000000
  0
VERTEX
 10
28.000000
 20
78.100000
 30
0.000000
  8
1
 62
7
  6
L000000000000000000
  0
VERTEX
 10
28.000000
 20
77.600000
 30
0.000000
  8
1
 62
7
  6
L000000000000000000
  0
SEQEND
  0
POLYLINE
  8
1
 62
7
  6
L000000000000000000
 70
1
 66
1
  0
VERTEX
 10
27.700000
 20
78.400000
 30
0.000000
  8
1
 62
7
  6
L000000000000000000
  0
VERTEX
 10
27.700000
 20
78.900000
 30
0.000000
  8
1
 62
7
  6
L000000000000000000
  0
VERTEX
 10
27.200000
 20
78.900000
 30
0.000000
  8
1
 62
7
  6
L000000000000000000
  0
VERTEX
 10
27.200000
 20
78.400000
 30
0.000000
  8
1
 62
7
  6
L000000000000000000
  0
SEQEND
  0
POLYLINE
  8
1
 62
7
  6
L000000000000000000
 70
1
 66
1
  0
VERTEX
 10
26.900000
 20
78.400000
 30
0.000000
  8
1
 62
7
  6
L000000000000000000
  0
VERTEX
 10
26.900000
 20
78.900000
 30
0.000000
  8
1
 62
7
  6
L000000000000000000
  0
VERTEX
 10
26.400000
 20
78.900000
 30
0.000000
  8
1
 62
7
  6
L000000000000000000
  0
VERTEX
 10
26.400000
 20
78.400000
 30
0.000000
  8
1
 62
7
  6
L000000000000000000
  0
SEQEND
  0
POLYLINE
  8
1
 62
7
  6
L000000000000000000
 70
1
 66
1
  0
VERTEX
 10
26.900000
 20
77.600000
 30
0.000000
  8
1
 62
7
  6
L000000000000000000
  0
VERTEX
 10
26.900000
 20
78.100000
 30
0.000000
  8
1
 62
7
  6
L000000000000000000
  0
VERTEX
 10
26.400000
 20
78.100000
 30
0.000000
  8
1
 62
7
  6
L000000000000000000
  0
VERTEX
 10
26.400000
 20
77.600000
 30
0.000000
  8
1
 62
7
  6
L000000000000000000
  0
SEQEND
  0
POLYLINE
  8
1
 62
7
  6
L000000000000000000
 70
1
 66
1
  0
VERTEX
 10
26.900000
 20
76.800000
 30
0.000000
  8
1
 62
7
  6
L000000000000000000
  0
VERTEX
 10
26.900000
 20
77.300000
 30
0.000000
  8
1
 62
7
  6
L000000000000000000
  0
VERTEX
 10
26.400000
 20
77.300000
 30
0.000000
  8
1
 62
7
  6
L000000000000000000
  0
VERTEX
 10
26.400000
 20
76.800000
 30
0.000000
  8
1
 62
7
  6
L000000000000000000
  0
SEQEND
  0
POLYLINE
  8
1
 62
7
  6
L000000000000000000
 70
1
 66
1
  0
VERTEX
 10
26.900000
 20
76.000000
 30
0.000000
  8
1
 62
7
  6
L000000000000000000
  0
VERTEX
 10
26.900000
 20
76.500000
 30
0.000000
  8
1
 62
7
  6
L000000000000000000
  0
VERTEX
 10
26.400000
 20
76.500000
 30
0.000000
  8
1
 62
7
  6
L000000000000000000
  0
VERTEX
 10
26.400000
 20
76.000000
 30
0.000000
  8
1
 62
7
  6
L000000000000000000
  0
SEQEND
  0
POLYLINE
  8
1
 62
7
  6
L000000000000000000
 70
1
 66
1
  0
VERTEX
 10
27.700000
 20
76.000000
 30
0.000000
  8
1
 62
7
  6
L000000000000000000
  0
VERTEX
 10
27.700000
 20
76.500000
 30
0.000000
  8
1
 62
7
  6
L000000000000000000
  0
VERTEX
 10
27.200000
 20
76.500000
 30
0.000000
  8
1
 62
7
  6
L000000000000000000
  0
VERTEX
 10
27.200000
 20
76.000000
 30
0.000000
  8
1
 62
7
  6
L000000000000000000
  0
SEQEND
  0
POLYLINE
  8
1
 62
7
  6
L000000000000000000
 70
1
 66
1
  0
VERTEX
 10
28.500000
 20
76.000000
 30
0.000000
  8
1
 62
7
  6
L000000000000000000
  0
VERTEX
 10
28.500000
 20
76.500000
 30
0.000000
  8
1
 62
7
  6
L000000000000000000
  0
VERTEX
 10
28.000000
 20
76.500000
 30
0.000000
  8
1
 62
7
  6
L000000000000000000
  0
VERTEX
 10
28.000000
 20
76.000000
 30
0.000000
  8
1
 62
7
  6
L000000000000000000
  0
SEQEND
  0
POLYLINE
  8
1
 62
7
  6
L000000000000000000
 70
1
 66
1
  0
VERTEX
 10
29.300000
 20
80.800000
 30
0.000000
  8
1
 62
7
  6
L000000000000000000
  0
VERTEX
 10
29.300000
 20
81.300000
 30
0.000000
  8
1
 62
7
  6
L000000000000000000
  0
VERTEX
 10
28.800000
 20
81.300000
 30
0.000000
  8
1
 62
7
  6
L000000000000000000
  0
VERTEX
 10
28.800000
 20
80.800000
 30
0.000000
  8
1
 62
7
  6
L000000000000000000
  0
SEQEND
  0
POLYLINE
  8
1
 62
7
  6
L000000000000000000
 70
1
 66
1
  0
VERTEX
 10
30.900000
 20
80.800000
 30
0.000000
  8
1
 62
7
  6
L000000000000000000
  0
VERTEX
 10
30.900000
 20
81.300000
 30
0.000000
  8
1
 62
7
  6
L000000000000000000
  0
VERTEX
 10
30.400000
 20
81.300000
 30
0.000000
  8
1
 62
7
  6
L000000000000000000
  0
VERTEX
 10
30.400000
 20
80.800000
 30
0.000000
  8
1
 62
7
  6
L000000000000000000
  0
SEQEND
  0
POLYLINE
  8
1
 62
7
  6
L000000000000000000
 70
1
 66
1
  0
VERTEX
 10
30.900000
 20
80.000000
 30
0.000000
  8
1
 62
7
  6
L000000000000000000
  0
VERTEX
 10
30.900000
 20
80.500000
 30
0.000000
  8
1
 62
7
  6
L000000000000000000
  0
VERTEX
 10
30.400000
 20
80.500000
 30
0.000000
  8
1
 62
7
  6
L000000000000000000
  0
VERTEX
 10
30.400000
 20
80.000000
 30
0.000000
  8
1
 62
7
  6
L000000000000000000
  0
SEQEND
  0
POLYLINE
  8
1
 62
7
  6
L000000000000000000
 70
1
 66
1
  0
VERTEX
 10
30.100000
 20
80.800000
 30
0.000000
  8
1
 62
7
  6
L000000000000000000
  0
VERTEX
 10
30.100000
 20
81.300000
 30
0.000000
  8
1
 62
7
  6
L000000000000000000
  0
VERTEX
 10
29.600000
 20
81.300000
 30
0.000000
  8
1
 62
7
  6
L000000000000000000
  0
VERTEX
 10
29.600000
 20
80.800000
 30
0.000000
  8
1
 62
7
  6
L000000000000000000
  0
SEQEND
  0
POLYLINE
  8
1
 62
7
  6
L000000000000000000
 70
1
 66
1
  0
VERTEX
 10
29.300000
 20
80.000000
 30
0.000000
  8
1
 62
7
  6
L000000000000000000
  0
VERTEX
 10
29.300000
 20
80.500000
 30
0.000000
  8
1
 62
7
  6
L000000000000000000
  0
VERTEX
 10
28.800000
 20
80.500000
 30
0.000000
  8
1
 62
7
  6
L000000000000000000
  0
VERTEX
 10
28.800000
 20
80.000000
 30
0.000000
  8
1
 62
7
  6
L000000000000000000
  0
SEQEND
  0
POLYLINE
  8
1
 62
7
  6
L000000000000000000
 70
1
 66
1
  0
VERTEX
 10
30.100000
 20
80.000000
 30
0.000000
  8
1
 62
7
  6
L000000000000000000
  0
VERTEX
 10
30.100000
 20
80.500000
 30
0.000000
  8
1
 62
7
  6
L000000000000000000
  0
VERTEX
 10
29.600000
 20
80.500000
 30
0.000000
  8
1
 62
7
  6
L000000000000000000
  0
VERTEX
 10
29.600000
 20
80.000000
 30
0.000000
  8
1
 62
7
  6
L000000000000000000
  0
SEQEND
  0
POLYLINE
  8
1
 62
7
  6
L000000000000000000
 70
1
 66
1
  0
VERTEX
 10
29.300000
 20
79.200000
 30
0.000000
  8
1
 62
7
  6
L000000000000000000
  0
VERTEX
 10
29.300000
 20
79.700000
 30
0.000000
  8
1
 62
7
  6
L000000000000000000
  0
VERTEX
 10
28.800000
 20
79.700000
 30
0.000000
  8
1
 62
7
  6
L000000000000000000
  0
VERTEX
 10
28.800000
 20
79.200000
 30
0.000000
  8
1
 62
7
  6
L000000000000000000
  0
SEQEND
  0
POLYLINE
  8
1
 62
7
  6
L000000000000000000
 70
1
 66
1
  0
VERTEX
 10
30.100000
 20
79.200000
 30
0.000000
  8
1
 62
7
  6
L000000000000000000
  0
VERTEX
 10
30.100000
 20
79.700000
 30
0.000000
  8
1
 62
7
  6
L000000000000000000
  0
VERTEX
 10
29.600000
 20
79.700000
 30
0.000000
  8
1
 62
7
  6
L000000000000000000
  0
VERTEX
 10
29.600000
 20
79.200000
 30
0.000000
  8
1
 62
7
  6
L000000000000000000
  0
SEQEND
  0
POLYLINE
  8
1
 62
7
  6
L000000000000000000
 70
1
 66
1
  0
VERTEX
 10
30.900000
 20
79.200000
 30
0.000000
  8
1
 62
7
  6
L000000000000000000
  0
VERTEX
 10
30.900000
 20
79.700000
 30
0.000000
  8
1
 62
7
  6
L000000000000000000
  0
VERTEX
 10
30.400000
 20
79.700000
 30
0.000000
  8
1
 62
7
  6
L000000000000000000
  0
VERTEX
 10
30.400000
 20
79.200000
 30
0.000000
  8
1
 62
7
  6
L000000000000000000
  0
SEQEND
  0
POLYLINE
  8
1
 62
7
  6
L000000000000000000
 70
1
 66
1
  0
VERTEX
 10
30.900000
 20
78.400000
 30
0.000000
  8
1
 62
7
  6
L000000000000000000
  0
VERTEX
 10
30.900000
 20
78.900000
 30
0.000000
  8
1
 62
7
  6
L000000000000000000
  0
VERTEX
 10
30.400000
 20
78.900000
 30
0.000000
  8
1
 62
7
  6
L000000000000000000
  0
VERTEX
 10
30.400000
 20
78.400000
 30
0.000000
  8
1
 62
7
  6
L000000000000000000
  0
SEQEND
  0
POLYLINE
  8
1
 62
7
  6
L000000000000000000
 70
1
 66
1
  0
VERTEX
 10
30.100000
 20
77.600000
 30
0.000000
  8
1
 62
7
  6
L000000000000000000
  0
VERTEX
 10
30.100000
 20
78.100000
 30
0.000000
  8
1
 62
7
  6
L000000000000000000
  0
VERTEX
 10
29.600000
 20
78.100000
 30
0.000000
  8
1
 62
7
  6
L000000000000000000
  0
VERTEX
 10
29.600000
 20
77.600000
 30
0.000000
  8
1
 62
7
  6
L000000000000000000
  0
SEQEND
  0
POLYLINE
  8
1
 62
7
  6
L000000000000000000
 70
1
 66
1
  0
VERTEX
 10
30.100000
 20
76.800000
 30
0.000000
  8
1
 62
7
  6
L000000000000000000
  0
VERTEX
 10
30.100000
 20
77.300000
 30
0.000000
  8
1
 62
7
  6
L000000000000000000
  0
VERTEX
 10
29.600000
 20
77.300000
 30
0.000000
  8
1
 62
7
  6
L000000000000000000
  0
VERTEX
 10
29.600000
 20
76.800000
 30
0.000000
  8
1
 62
7
  6
L000000000000000000
  0
SEQEND
  0
POLYLINE
  8
1
 62
7
  6
L000000000000000000
 70
1
 66
1
  0
VERTEX
 10
30.900000
 20
76.800000
 30
0.000000
  8
1
 62
7
  6
L000000000000000000
  0
VERTEX
 10
30.900000
 20
77.300000
 30
0.000000
  8
1
 62
7
  6
L000000000000000000
  0
VERTEX
 10
30.400000
 20
77.300000
 30
0.000000
  8
1
 62
7
  6
L000000000000000000
  0
VERTEX
 10
30.400000
 20
76.800000
 30
0.000000
  8
1
 62
7
  6
L000000000000000000
  0
SEQEND
  0
POLYLINE
  8
1
 62
7
  6
L000000000000000000
 70
1
 66
1
  0
VERTEX
 10
30.900000
 20
77.600000
 30
0.000000
  8
1
 62
7
  6
L000000000000000000
  0
VERTEX
 10
30.900000
 20
78.100000
 30
0.000000
  8
1
 62
7
  6
L000000000000000000
  0
VERTEX
 10
30.400000
 20
78.100000
 30
0.000000
  8
1
 62
7
  6
L000000000000000000
  0
VERTEX
 10
30.400000
 20
77.600000
 30
0.000000
  8
1
 62
7
  6
L000000000000000000
  0
SEQEND
  0
POLYLINE
  8
1
 62
7
  6
L000000000000000000
 70
1
 66
1
  0
VERTEX
 10
30.100000
 20
78.400000
 30
0.000000
  8
1
 62
7
  6
L000000000000000000
  0
VERTEX
 10
30.100000
 20
78.900000
 30
0.000000
  8
1
 62
7
  6
L000000000000000000
  0
VERTEX
 10
29.600000
 20
78.900000
 30
0.000000
  8
1
 62
7
  6
L000000000000000000
  0
VERTEX
 10
29.600000
 20
78.400000
 30
0.000000
  8
1
 62
7
  6
L000000000000000000
  0
SEQEND
  0
POLYLINE
  8
1
 62
7
  6
L000000000000000000
 70
1
 66
1
  0
VERTEX
 10
29.300000
 20
78.400000
 30
0.000000
  8
1
 62
7
  6
L000000000000000000
  0
VERTEX
 10
29.300000
 20
78.900000
 30
0.000000
  8
1
 62
7
  6
L000000000000000000
  0
VERTEX
 10
28.800000
 20
78.900000
 30
0.000000
  8
1
 62
7
  6
L000000000000000000
  0
VERTEX
 10
28.800000
 20
78.400000
 30
0.000000
  8
1
 62
7
  6
L000000000000000000
  0
SEQEND
  0
POLYLINE
  8
1
 62
7
  6
L000000000000000000
 70
1
 66
1
  0
VERTEX
 10
29.300000
 20
77.600000
 30
0.000000
  8
1
 62
7
  6
L000000000000000000
  0
VERTEX
 10
29.300000
 20
78.100000
 30
0.000000
  8
1
 62
7
  6
L000000000000000000
  0
VERTEX
 10
28.800000
 20
78.100000
 30
0.000000
  8
1
 62
7
  6
L000000000000000000
  0
VERTEX
 10
28.800000
 20
77.600000
 30
0.000000
  8
1
 62
7
  6
L000000000000000000
  0
SEQEND
  0
POLYLINE
  8
1
 62
7
  6
L000000000000000000
 70
1
 66
1
  0
VERTEX
 10
29.300000
 20
76.800000
 30
0.000000
  8
1
 62
7
  6
L000000000000000000
  0
VERTEX
 10
29.300000
 20
77.300000
 30
0.000000
  8
1
 62
7
  6
L000000000000000000
  0
VERTEX
 10
28.800000
 20
77.300000
 30
0.000000
  8
1
 62
7
  6
L000000000000000000
  0
VERTEX
 10
28.800000
 20
76.800000
 30
0.000000
  8
1
 62
7
  6
L000000000000000000
  0
SEQEND
  0
POLYLINE
  8
1
 62
7
  6
L000000000000000000
 70
1
 66
1
  0
VERTEX
 10
29.300000
 20
76.000000
 30
0.000000
  8
1
 62
7
  6
L000000000000000000
  0
VERTEX
 10
29.300000
 20
76.500000
 30
0.000000
  8
1
 62
7
  6
L000000000000000000
  0
VERTEX
 10
28.800000
 20
76.500000
 30
0.000000
  8
1
 62
7
  6
L000000000000000000
  0
VERTEX
 10
28.800000
 20
76.000000
 30
0.000000
  8
1
 62
7
  6
L000000000000000000
  0
SEQEND
  0
POLYLINE
  8
1
 62
7
  6
L000000000000000000
 70
1
 66
1
  0
VERTEX
 10
30.100000
 20
76.000000
 30
0.000000
  8
1
 62
7
  6
L000000000000000000
  0
VERTEX
 10
30.100000
 20
76.500000
 30
0.000000
  8
1
 62
7
  6
L000000000000000000
  0
VERTEX
 10
29.600000
 20
76.500000
 30
0.000000
  8
1
 62
7
  6
L000000000000000000
  0
VERTEX
 10
29.600000
 20
76.000000
 30
0.000000
  8
1
 62
7
  6
L000000000000000000
  0
SEQEND
  0
POLYLINE
  8
1
 62
7
  6
L000000000000000000
 70
1
 66
1
  0
VERTEX
 10
30.900000
 20
76.000000
 30
0.000000
  8
1
 62
7
  6
L000000000000000000
  0
VERTEX
 10
30.900000
 20
76.500000
 30
0.000000
  8
1
 62
7
  6
L000000000000000000
  0
VERTEX
 10
30.400000
 20
76.500000
 30
0.000000
  8
1
 62
7
  6
L000000000000000000
  0
VERTEX
 10
30.400000
 20
76.000000
 30
0.000000
  8
1
 62
7
  6
L000000000000000000
  0
SEQEND
  0
POLYLINE
  8
1
 62
7
  6
L000000000000000000
 70
1
 66
1
  0
VERTEX
 10
31.700000
 20
79.200000
 30
0.000000
  8
1
 62
7
  6
L000000000000000000
  0
VERTEX
 10
31.700000
 20
79.700000
 30
0.000000
  8
1
 62
7
  6
L000000000000000000
  0
VERTEX
 10
31.200000
 20
79.700000
 30
0.000000
  8
1
 62
7
  6
L000000000000000000
  0
VERTEX
 10
31.200000
 20
79.200000
 30
0.000000
  8
1
 62
7
  6
L000000000000000000
  0
SEQEND
  0
POLYLINE
  8
1
 62
7
  6
L000000000000000000
 70
1
 66
1
  0
VERTEX
 10
31.700000
 20
77.600000
 30
0.000000
  8
1
 62
7
  6
L000000000000000000
  0
VERTEX
 10
31.700000
 20
78.100000
 30
0.000000
  8
1
 62
7
  6
L000000000000000000
  0
VERTEX
 10
31.200000
 20
78.100000
 30
0.000000
  8
1
 62
7
  6
L000000000000000000
  0
VERTEX
 10
31.200000
 20
77.600000
 30
0.000000
  8
1
 62
7
  6
L000000000000000000
  0
SEQEND
  0
POLYLINE
  8
1
 62
7
  6
L000000000000000000
 70
1
 66
1
  0
VERTEX
 10
31.700000
 20
76.800000
 30
0.000000
  8
1
 62
7
  6
L000000000000000000
  0
VERTEX
 10
31.700000
 20
77.300000
 30
0.000000
  8
1
 62
7
  6
L000000000000000000
  0
VERTEX
 10
31.200000
 20
77.300000
 30
0.000000
  8
1
 62
7
  6
L000000000000000000
  0
VERTEX
 10
31.200000
 20
76.800000
 30
0.000000
  8
1
 62
7
  6
L000000000000000000
  0
SEQEND
  0
POLYLINE
  8
1
 62
7
  6
L000000000000000000
 70
1
 66
1
  0
VERTEX
 10
31.700000
 20
76.000000
 30
0.000000
  8
1
 62
7
  6
L000000000000000000
  0
VERTEX
 10
31.700000
 20
76.500000
 30
0.000000
  8
1
 62
7
  6
L000000000000000000
  0
VERTEX
 10
31.200000
 20
76.500000
 30
0.000000
  8
1
 62
7
  6
L000000000000000000
  0
VERTEX
 10
31.200000
 20
76.000000
 30
0.000000
  8
1
 62
7
  6
L000000000000000000
  0
SEQEND
  0
POLYLINE
  8
1
 62
7
  6
L000000000000000000
 70
1
 66
1
  0
VERTEX
 10
31.700000
 20
78.400000
 30
0.000000
  8
1
 62
7
  6
L000000000000000000
  0
VERTEX
 10
31.700000
 20
78.900000
 30
0.000000
  8
1
 62
7
  6
L000000000000000000
  0
VERTEX
 10
31.200000
 20
78.900000
 30
0.000000
  8
1
 62
7
  6
L000000000000000000
  0
VERTEX
 10
31.200000
 20
78.400000
 30
0.000000
  8
1
 62
7
  6
L000000000000000000
  0
SEQEND
  0
POLYLINE
  8
1
 62
7
  6
L000000000000000000
 70
1
 66
1
  0
VERTEX
 10
2.900000
 20
6.300000
 30
0.000000
  8
1
 62
7
  6
L000000000000000000
  0
VERTEX
 10
2.900000
 20
6.800000
 30
0.000000
  8
1
 62
7
  6
L000000000000000000
  0
VERTEX
 10
2.400000
 20
6.800000
 30
0.000000
  8
1
 62
7
  6
L000000000000000000
  0
VERTEX
 10
2.400000
 20
6.300000
 30
0.000000
  8
1
 62
7
  6
L000000000000000000
  0
SEQEND
  0
POLYLINE
  8
1
 62
7
  6
L000000000000000000
 70
1
 66
1
  0
VERTEX
 10
2.900000
 20
5.500000
 30
0.000000
  8
1
 62
7
  6
L000000000000000000
  0
VERTEX
 10
2.900000
 20
6.000000
 30
0.000000
  8
1
 62
7
  6
L000000000000000000
  0
VERTEX
 10
2.400000
 20
6.000000
 30
0.000000
  8
1
 62
7
  6
L000000000000000000
  0
VERTEX
 10
2.400000
 20
5.500000
 30
0.000000
  8
1
 62
7
  6
L000000000000000000
  0
SEQEND
  0
POLYLINE
  8
1
 62
7
  6
L000000000000000000
 70
1
 66
1
  0
VERTEX
 10
2.900000
 20
4.700000
 30
0.000000
  8
1
 62
7
  6
L000000000000000000
  0
VERTEX
 10
2.900000
 20
5.200000
 30
0.000000
  8
1
 62
7
  6
L000000000000000000
  0
VERTEX
 10
2.400000
 20
5.200000
 30
0.000000
  8
1
 62
7
  6
L000000000000000000
  0
VERTEX
 10
2.400000
 20
4.700000
 30
0.000000
  8
1
 62
7
  6
L000000000000000000
  0
SEQEND
  0
POLYLINE
  8
1
 62
7
  6
L000000000000000000
 70
1
 66
1
  0
VERTEX
 10
2.900000
 20
3.900000
 30
0.000000
  8
1
 62
7
  6
L000000000000000000
  0
VERTEX
 10
2.900000
 20
4.400000
 30
0.000000
  8
1
 62
7
  6
L000000000000000000
  0
VERTEX
 10
2.400000
 20
4.400000
 30
0.000000
  8
1
 62
7
  6
L000000000000000000
  0
VERTEX
 10
2.400000
 20
3.900000
 30
0.000000
  8
1
 62
7
  6
L000000000000000000
  0
SEQEND
  0
POLYLINE
  8
1
 62
7
  6
L000000000000000000
 70
1
 66
1
  0
VERTEX
 10
2.900000
 20
3.100000
 30
0.000000
  8
1
 62
7
  6
L000000000000000000
  0
VERTEX
 10
2.900000
 20
3.600000
 30
0.000000
  8
1
 62
7
  6
L000000000000000000
  0
VERTEX
 10
2.400000
 20
3.600000
 30
0.000000
  8
1
 62
7
  6
L000000000000000000
  0
VERTEX
 10
2.400000
 20
3.100000
 30
0.000000
  8
1
 62
7
  6
L000000000000000000
  0
SEQEND
  0
POLYLINE
  8
1
 62
7
  6
L000000000000000000
 70
1
 66
1
  0
VERTEX
 10
3.700000
 20
6.300000
 30
0.000000
  8
1
 62
7
  6
L000000000000000000
  0
VERTEX
 10
3.700000
 20
6.800000
 30
0.000000
  8
1
 62
7
  6
L000000000000000000
  0
VERTEX
 10
3.200000
 20
6.800000
 30
0.000000
  8
1
 62
7
  6
L000000000000000000
  0
VERTEX
 10
3.200000
 20
6.300000
 30
0.000000
  8
1
 62
7
  6
L000000000000000000
  0
SEQEND
  0
POLYLINE
  8
1
 62
7
  6
L000000000000000000
 70
1
 66
1
  0
VERTEX
 10
3.700000
 20
4.700000
 30
0.000000
  8
1
 62
7
  6
L000000000000000000
  0
VERTEX
 10
3.700000
 20
5.200000
 30
0.000000
  8
1
 62
7
  6
L000000000000000000
  0
VERTEX
 10
3.200000
 20
5.200000
 30
0.000000
  8
1
 62
7
  6
L000000000000000000
  0
VERTEX
 10
3.200000
 20
4.700000
 30
0.000000
  8
1
 62
7
  6
L000000000000000000
  0
SEQEND
  0
POLYLINE
  8
1
 62
7
  6
L000000000000000000
 70
1
 66
1
  0
VERTEX
 10
3.700000
 20
3.100000
 30
0.000000
  8
1
 62
7
  6
L000000000000000000
  0
VERTEX
 10
3.700000
 20
3.600000
 30
0.000000
  8
1
 62
7
  6
L000000000000000000
  0
VERTEX
 10
3.200000
 20
3.600000
 30
0.000000
  8
1
 62
7
  6
L000000000000000000
  0
VERTEX
 10
3.200000
 20
3.100000
 30
0.000000
  8
1
 62
7
  6
L000000000000000000
  0
SEQEND
  0
POLYLINE
  8
1
 62
7
  6
L000000000000000000
 70
1
 66
1
  0
VERTEX
 10
3.700000
 20
2.300000
 30
0.000000
  8
1
 62
7
  6
L000000000000000000
  0
VERTEX
 10
3.700000
 20
2.800000
 30
0.000000
  8
1
 62
7
  6
L000000000000000000
  0
VERTEX
 10
3.200000
 20
2.800000
 30
0.000000
  8
1
 62
7
  6
L000000000000000000
  0
VERTEX
 10
3.200000
 20
2.300000
 30
0.000000
  8
1
 62
7
  6
L000000000000000000
  0
SEQEND
  0
POLYLINE
  8
1
 62
7
  6
L000000000000000000
 70
1
 66
1
  0
VERTEX
 10
3.700000
 20
1.500000
 30
0.000000
  8
1
 62
7
  6
L000000000000000000
  0
VERTEX
 10
3.700000
 20
2.000000
 30
0.000000
  8
1
 62
7
  6
L000000000000000000
  0
VERTEX
 10
3.200000
 20
2.000000
 30
0.000000
  8
1
 62
7
  6
L000000000000000000
  0
VERTEX
 10
3.200000
 20
1.500000
 30
0.000000
  8
1
 62
7
  6
L000000000000000000
  0
SEQEND
  0
POLYLINE
  8
1
 62
7
  6
L000000000000000000
 70
1
 66
1
  0
VERTEX
 10
3.700000
 20
3.900000
 30
0.000000
  8
1
 62
7
  6
L000000000000000000
  0
VERTEX
 10
3.700000
 20
4.400000
 30
0.000000
  8
1
 62
7
  6
L000000000000000000
  0
VERTEX
 10
3.200000
 20
4.400000
 30
0.000000
  8
1
 62
7
  6
L000000000000000000
  0
VERTEX
 10
3.200000
 20
3.900000
 30
0.000000
  8
1
 62
7
  6
L000000000000000000
  0
SEQEND
  0
POLYLINE
  8
1
 62
7
  6
L000000000000000000
 70
1
 66
1
  0
VERTEX
 10
3.700000
 20
5.500000
 30
0.000000
  8
1
 62
7
  6
L000000000000000000
  0
VERTEX
 10
3.700000
 20
6.000000
 30
0.000000
  8
1
 62
7
  6
L000000000000000000
  0
VERTEX
 10
3.200000
 20
6.000000
 30
0.000000
  8
1
 62
7
  6
L000000000000000000
  0
VERTEX
 10
3.200000
 20
5.500000
 30
0.000000
  8
1
 62
7
  6
L000000000000000000
  0
SEQEND
  0
POLYLINE
  8
1
 62
7
  6
L000000000000000000
 70
1
 66
1
  0
VERTEX
 10
4.500000
 20
6.300000
 30
0.000000
  8
1
 62
7
  6
L000000000000000000
  0
VERTEX
 10
4.500000
 20
6.800000
 30
0.000000
  8
1
 62
7
  6
L000000000000000000
  0
VERTEX
 10
4.000000
 20
6.800000
 30
0.000000
  8
1
 62
7
  6
L000000000000000000
  0
VERTEX
 10
4.000000
 20
6.300000
 30
0.000000
  8
1
 62
7
  6
L000000000000000000
  0
SEQEND
  0
POLYLINE
  8
1
 62
7
  6
L000000000000000000
 70
1
 66
1
  0
VERTEX
 10
4.500000
 20
4.700000
 30
0.000000
  8
1
 62
7
  6
L000000000000000000
  0
VERTEX
 10
4.500000
 20
5.200000
 30
0.000000
  8
1
 62
7
  6
L000000000000000000
  0
VERTEX
 10
4.000000
 20
5.200000
 30
0.000000
  8
1
 62
7
  6
L000000000000000000
  0
VERTEX
 10
4.000000
 20
4.700000
 30
0.000000
  8
1
 62
7
  6
L000000000000000000
  0
SEQEND
  0
POLYLINE
  8
1
 62
7
  6
L000000000000000000
 70
1
 66
1
  0
VERTEX
 10
4.500000
 20
3.100000
 30
0.000000
  8
1
 62
7
  6
L000000000000000000
  0
VERTEX
 10
4.500000
 20
3.600000
 30
0.000000
  8
1
 62
7
  6
L000000000000000000
  0
VERTEX
 10
4.000000
 20
3.600000
 30
0.000000
  8
1
 62
7
  6
L000000000000000000
  0
VERTEX
 10
4.000000
 20
3.100000
 30
0.000000
  8
1
 62
7
  6
L000000000000000000
  0
SEQEND
  0
POLYLINE
  8
1
 62
7
  6
L000000000000000000
 70
1
 66
1
  0
VERTEX
 10
4.500000
 20
2.300000
 30
0.000000
  8
1
 62
7
  6
L000000000000000000
  0
VERTEX
 10
4.500000
 20
2.800000
 30
0.000000
  8
1
 62
7
  6
L000000000000000000
  0
VERTEX
 10
4.000000
 20
2.800000
 30
0.000000
  8
1
 62
7
  6
L000000000000000000
  0
VERTEX
 10
4.000000
 20
2.300000
 30
0.000000
  8
1
 62
7
  6
L000000000000000000
  0
SEQEND
  0
POLYLINE
  8
1
 62
7
  6
L000000000000000000
 70
1
 66
1
  0
VERTEX
 10
4.500000
 20
1.500000
 30
0.000000
  8
1
 62
7
  6
L000000000000000000
  0
VERTEX
 10
4.500000
 20
2.000000
 30
0.000000
  8
1
 62
7
  6
L000000000000000000
  0
VERTEX
 10
4.000000
 20
2.000000
 30
0.000000
  8
1
 62
7
  6
L000000000000000000
  0
VERTEX
 10
4.000000
 20
1.500000
 30
0.000000
  8
1
 62
7
  6
L000000000000000000
  0
SEQEND
  0
POLYLINE
  8
1
 62
7
  6
L000000000000000000
 70
1
 66
1
  0
VERTEX
 10
4.500000
 20
3.900000
 30
0.000000
  8
1
 62
7
  6
L000000000000000000
  0
VERTEX
 10
4.500000
 20
4.400000
 30
0.000000
  8
1
 62
7
  6
L000000000000000000
  0
VERTEX
 10
4.000000
 20
4.400000
 30
0.000000
  8
1
 62
7
  6
L000000000000000000
  0
VERTEX
 10
4.000000
 20
3.900000
 30
0.000000
  8
1
 62
7
  6
L000000000000000000
  0
SEQEND
  0
POLYLINE
  8
1
 62
7
  6
L000000000000000000
 70
1
 66
1
  0
VERTEX
 10
4.500000
 20
5.500000
 30
0.000000
  8
1
 62
7
  6
L000000000000000000
  0
VERTEX
 10
4.500000
 20
6.000000
 30
0.000000
  8
1
 62
7
  6
L000000000000000000
  0
VERTEX
 10
4.000000
 20
6.000000
 30
0.000000
  8
1
 62
7
  6
L000000000000000000
  0
VERTEX
 10
4.000000
 20
5.500000
 30
0.000000
  8
1
 62
7
  6
L000000000000000000
  0
SEQEND
  0
POLYLINE
  8
1
 62
7
  6
L000000000000000000
 70
1
 66
1
  0
VERTEX
 10
5.300000
 20
6.300000
 30
0.000000
  8
1
 62
7
  6
L000000000000000000
  0
VERTEX
 10
5.300000
 20
6.800000
 30
0.000000
  8
1
 62
7
  6
L000000000000000000
  0
VERTEX
 10
4.800000
 20
6.800000
 30
0.000000
  8
1
 62
7
  6
L000000000000000000
  0
VERTEX
 10
4.800000
 20
6.300000
 30
0.000000
  8
1
 62
7
  6
L000000000000000000
  0
SEQEND
  0
POLYLINE
  8
1
 62
7
  6
L000000000000000000
 70
1
 66
1
  0
VERTEX
 10
6.900000
 20
6.300000
 30
0.000000
  8
1
 62
7
  6
L000000000000000000
  0
VERTEX
 10
6.900000
 20
6.800000
 30
0.000000
  8
1
 62
7
  6
L000000000000000000
  0
VERTEX
 10
6.400000
 20
6.800000
 30
0.000000
  8
1
 62
7
  6
L000000000000000000
  0
VERTEX
 10
6.400000
 20
6.300000
 30
0.000000
  8
1
 62
7
  6
L000000000000000000
  0
SEQEND
  0
POLYLINE
  8
1
 62
7
  6
L000000000000000000
 70
1
 66
1
  0
VERTEX
 10
6.900000
 20
5.500000
 30
0.000000
  8
1
 62
7
  6
L000000000000000000
  0
VERTEX
 10
6.900000
 20
6.000000
 30
0.000000
  8
1
 62
7
  6
L000000000000000000
  0
VERTEX
 10
6.400000
 20
6.000000
 30
0.000000
  8
1
 62
7
  6
L000000000000000000
  0
VERTEX
 10
6.400000
 20
5.500000
 30
0.000000
  8
1
 62
7
  6
L000000000000000000
  0
SEQEND
  0
POLYLINE
  8
1
 62
7
  6
L000000000000000000
 70
1
 66
1
  0
VERTEX
 10
6.100000
 20
6.300000
 30
0.000000
  8
1
 62
7
  6
L000000000000000000
  0
VERTEX
 10
6.100000
 20
6.800000
 30
0.000000
  8
1
 62
7
  6
L000000000000000000
  0
VERTEX
 10
5.600000
 20
6.800000
 30
0.000000
  8
1
 62
7
  6
L000000000000000000
  0
VERTEX
 10
5.600000
 20
6.300000
 30
0.000000
  8
1
 62
7
  6
L000000000000000000
  0
SEQEND
  0
POLYLINE
  8
1
 62
7
  6
L000000000000000000
 70
1
 66
1
  0
VERTEX
 10
5.300000
 20
5.500000
 30
0.000000
  8
1
 62
7
  6
L000000000000000000
  0
VERTEX
 10
5.300000
 20
6.000000
 30
0.000000
  8
1
 62
7
  6
L000000000000000000
  0
VERTEX
 10
4.800000
 20
6.000000
 30
0.000000
  8
1
 62
7
  6
L000000000000000000
  0
VERTEX
 10
4.800000
 20
5.500000
 30
0.000000
  8
1
 62
7
  6
L000000000000000000
  0
SEQEND
  0
POLYLINE
  8
1
 62
7
  6
L000000000000000000
 70
1
 66
1
  0
VERTEX
 10
6.100000
 20
5.500000
 30
0.000000
  8
1
 62
7
  6
L000000000000000000
  0
VERTEX
 10
6.100000
 20
6.000000
 30
0.000000
  8
1
 62
7
  6
L000000000000000000
  0
VERTEX
 10
5.600000
 20
6.000000
 30
0.000000
  8
1
 62
7
  6
L000000000000000000
  0
VERTEX
 10
5.600000
 20
5.500000
 30
0.000000
  8
1
 62
7
  6
L000000000000000000
  0
SEQEND
  0
POLYLINE
  8
1
 62
7
  6
L000000000000000000
 70
1
 66
1
  0
VERTEX
 10
5.300000
 20
4.700000
 30
0.000000
  8
1
 62
7
  6
L000000000000000000
  0
VERTEX
 10
5.300000
 20
5.200000
 30
0.000000
  8
1
 62
7
  6
L000000000000000000
  0
VERTEX
 10
4.800000
 20
5.200000
 30
0.000000
  8
1
 62
7
  6
L000000000000000000
  0
VERTEX
 10
4.800000
 20
4.700000
 30
0.000000
  8
1
 62
7
  6
L000000000000000000
  0
SEQEND
  0
POLYLINE
  8
1
 62
7
  6
L000000000000000000
 70
1
 66
1
  0
VERTEX
 10
6.100000
 20
4.700000
 30
0.000000
  8
1
 62
7
  6
L000000000000000000
  0
VERTEX
 10
6.100000
 20
5.200000
 30
0.000000
  8
1
 62
7
  6
L000000000000000000
  0
VERTEX
 10
5.600000
 20
5.200000
 30
0.000000
  8
1
 62
7
  6
L000000000000000000
  0
VERTEX
 10
5.600000
 20
4.700000
 30
0.000000
  8
1
 62
7
  6
L000000000000000000
  0
SEQEND
  0
POLYLINE
  8
1
 62
7
  6
L000000000000000000
 70
1
 66
1
  0
VERTEX
 10
6.900000
 20
4.700000
 30
0.000000
  8
1
 62
7
  6
L000000000000000000
  0
VERTEX
 10
6.900000
 20
5.200000
 30
0.000000
  8
1
 62
7
  6
L000000000000000000
  0
VERTEX
 10
6.400000
 20
5.200000
 30
0.000000
  8
1
 62
7
  6
L000000000000000000
  0
VERTEX
 10
6.400000
 20
4.700000
 30
0.000000
  8
1
 62
7
  6
L000000000000000000
  0
SEQEND
  0
POLYLINE
  8
1
 62
7
  6
L000000000000000000
 70
1
 66
1
  0
VERTEX
 10
6.900000
 20
3.900000
 30
0.000000
  8
1
 62
7
  6
L000000000000000000
  0
VERTEX
 10
6.900000
 20
4.400000
 30
0.000000
  8
1
 62
7
  6
L000000000000000000
  0
VERTEX
 10
6.400000
 20
4.400000
 30
0.000000
  8
1
 62
7
  6
L000000000000000000
  0
VERTEX
 10
6.400000
 20
3.900000
 30
0.000000
  8
1
 62
7
  6
L000000000000000000
  0
SEQEND
  0
POLYLINE
  8
1
 62
7
  6
L000000000000000000
 70
1
 66
1
  0
VERTEX
 10
6.100000
 20
3.100000
 30
0.000000
  8
1
 62
7
  6
L000000000000000000
  0
VERTEX
 10
6.100000
 20
3.600000
 30
0.000000
  8
1
 62
7
  6
L000000000000000000
  0
VERTEX
 10
5.600000
 20
3.600000
 30
0.000000
  8
1
 62
7
  6
L000000000000000000
  0
VERTEX
 10
5.600000
 20
3.100000
 30
0.000000
  8
1
 62
7
  6
L000000000000000000
  0
SEQEND
  0
POLYLINE
  8
1
 62
7
  6
L000000000000000000
 70
1
 66
1
  0
VERTEX
 10
6.100000
 20
2.300000
 30
0.000000
  8
1
 62
7
  6
L000000000000000000
  0
VERTEX
 10
6.100000
 20
2.800000
 30
0.000000
  8
1
 62
7
  6
L000000000000000000
  0
VERTEX
 10
5.600000
 20
2.800000
 30
0.000000
  8
1
 62
7
  6
L000000000000000000
  0
VERTEX
 10
5.600000
 20
2.300000
 30
0.000000
  8
1
 62
7
  6
L000000000000000000
  0
SEQEND
  0
POLYLINE
  8
1
 62
7
  6
L000000000000000000
 70
1
 66
1
  0
VERTEX
 10
6.900000
 20
2.300000
 30
0.000000
  8
1
 62
7
  6
L000000000000000000
  0
VERTEX
 10
6.900000
 20
2.800000
 30
0.000000
  8
1
 62
7
  6
L000000000000000000
  0
VERTEX
 10
6.400000
 20
2.800000
 30
0.000000
  8
1
 62
7
  6
L000000000000000000
  0
VERTEX
 10
6.400000
 20
2.300000
 30
0.000000
  8
1
 62
7
  6
L000000000000000000
  0
SEQEND
  0
POLYLINE
  8
1
 62
7
  6
L000000000000000000
 70
1
 66
1
  0
VERTEX
 10
6.900000
 20
3.100000
 30
0.000000
  8
1
 62
7
  6
L000000000000000000
  0
VERTEX
 10
6.900000
 20
3.600000
 30
0.000000
  8
1
 62
7
  6
L000000000000000000
  0
VERTEX
 10
6.400000
 20
3.600000
 30
0.000000
  8
1
 62
7
  6
L000000000000000000
  0
VERTEX
 10
6.400000
 20
3.100000
 30
0.000000
  8
1
 62
7
  6
L000000000000000000
  0
SEQEND
  0
POLYLINE
  8
1
 62
7
  6
L000000000000000000
 70
1
 66
1
  0
VERTEX
 10
6.100000
 20
3.900000
 30
0.000000
  8
1
 62
7
  6
L000000000000000000
  0
VERTEX
 10
6.100000
 20
4.400000
 30
0.000000
  8
1
 62
7
  6
L000000000000000000
  0
VERTEX
 10
5.600000
 20
4.400000
 30
0.000000
  8
1
 62
7
  6
L000000000000000000
  0
VERTEX
 10
5.600000
 20
3.900000
 30
0.000000
  8
1
 62
7
  6
L000000000000000000
  0
SEQEND
  0
POLYLINE
  8
1
 62
7
  6
L000000000000000000
 70
1
 66
1
  0
VERTEX
 10
5.300000
 20
3.900000
 30
0.000000
  8
1
 62
7
  6
L000000000000000000
  0
VERTEX
 10
5.300000
 20
4.400000
 30
0.000000
  8
1
 62
7
  6
L000000000000000000
  0
VERTEX
 10
4.800000
 20
4.400000
 30
0.000000
  8
1
 62
7
  6
L000000000000000000
  0
VERTEX
 10
4.800000
 20
3.900000
 30
0.000000
  8
1
 62
7
  6
L000000000000000000
  0
SEQEND
  0
POLYLINE
  8
1
 62
7
  6
L000000000000000000
 70
1
 66
1
  0
VERTEX
 10
5.300000
 20
3.100000
 30
0.000000
  8
1
 62
7
  6
L000000000000000000
  0
VERTEX
 10
5.300000
 20
3.600000
 30
0.000000
  8
1
 62
7
  6
L000000000000000000
  0
VERTEX
 10
4.800000
 20
3.600000
 30
0.000000
  8
1
 62
7
  6
L000000000000000000
  0
VERTEX
 10
4.800000
 20
3.100000
 30
0.000000
  8
1
 62
7
  6
L000000000000000000
  0
SEQEND
  0
POLYLINE
  8
1
 62
7
  6
L000000000000000000
 70
1
 66
1
  0
VERTEX
 10
5.300000
 20
2.300000
 30
0.000000
  8
1
 62
7
  6
L000000000000000000
  0
VERTEX
 10
5.300000
 20
2.800000
 30
0.000000
  8
1
 62
7
  6
L000000000000000000
  0
VERTEX
 10
4.800000
 20
2.800000
 30
0.000000
  8
1
 62
7
  6
L000000000000000000
  0
VERTEX
 10
4.800000
 20
2.300000
 30
0.000000
  8
1
 62
7
  6
L000000000000000000
  0
SEQEND
  0
POLYLINE
  8
1
 62
7
  6
L000000000000000000
 70
1
 66
1
  0
VERTEX
 10
5.300000
 20
1.500000
 30
0.000000
  8
1
 62
7
  6
L000000000000000000
  0
VERTEX
 10
5.300000
 20
2.000000
 30
0.000000
  8
1
 62
7
  6
L000000000000000000
  0
VERTEX
 10
4.800000
 20
2.000000
 30
0.000000
  8
1
 62
7
  6
L000000000000000000
  0
VERTEX
 10
4.800000
 20
1.500000
 30
0.000000
  8
1
 62
7
  6
L000000000000000000
  0
SEQEND
  0
POLYLINE
  8
1
 62
7
  6
L000000000000000000
 70
1
 66
1
  0
VERTEX
 10
6.100000
 20
1.500000
 30
0.000000
  8
1
 62
7
  6
L000000000000000000
  0
VERTEX
 10
6.100000
 20
2.000000
 30
0.000000
  8
1
 62
7
  6
L000000000000000000
  0
VERTEX
 10
5.600000
 20
2.000000
 30
0.000000
  8
1
 62
7
  6
L000000000000000000
  0
VERTEX
 10
5.600000
 20
1.500000
 30
0.000000
  8
1
 62
7
  6
L000000000000000000
  0
SEQEND
  0
POLYLINE
  8
1
 62
7
  6
L000000000000000000
 70
1
 66
1
  0
VERTEX
 10
6.900000
 20
1.500000
 30
0.000000
  8
1
 62
7
  6
L000000000000000000
  0
VERTEX
 10
6.900000
 20
2.000000
 30
0.000000
  8
1
 62
7
  6
L000000000000000000
  0
VERTEX
 10
6.400000
 20
2.000000
 30
0.000000
  8
1
 62
7
  6
L000000000000000000
  0
VERTEX
 10
6.400000
 20
1.500000
 30
0.000000
  8
1
 62
7
  6
L000000000000000000
  0
SEQEND
  0
POLYLINE
  8
1
 62
7
  6
L000000000000000000
 70
1
 66
1
  0
VERTEX
 10
7.700000
 20
6.300000
 30
0.000000
  8
1
 62
7
  6
L000000000000000000
  0
VERTEX
 10
7.700000
 20
6.800000
 30
0.000000
  8
1
 62
7
  6
L000000000000000000
  0
VERTEX
 10
7.200000
 20
6.800000
 30
0.000000
  8
1
 62
7
  6
L000000000000000000
  0
VERTEX
 10
7.200000
 20
6.300000
 30
0.000000
  8
1
 62
7
  6
L000000000000000000
  0
SEQEND
  0
POLYLINE
  8
1
 62
7
  6
L000000000000000000
 70
1
 66
1
  0
VERTEX
 10
9.300000
 20
6.300000
 30
0.000000
  8
1
 62
7
  6
L000000000000000000
  0
VERTEX
 10
9.300000
 20
6.800000
 30
0.000000
  8
1
 62
7
  6
L000000000000000000
  0
VERTEX
 10
8.800000
 20
6.800000
 30
0.000000
  8
1
 62
7
  6
L000000000000000000
  0
VERTEX
 10
8.800000
 20
6.300000
 30
0.000000
  8
1
 62
7
  6
L000000000000000000
  0
SEQEND
  0
POLYLINE
  8
1
 62
7
  6
L000000000000000000
 70
1
 66
1
  0
VERTEX
 10
9.300000
 20
5.500000
 30
0.000000
  8
1
 62
7
  6
L000000000000000000
  0
VERTEX
 10
9.300000
 20
6.000000
 30
0.000000
  8
1
 62
7
  6
L000000000000000000
  0
VERTEX
 10
8.800000
 20
6.000000
 30
0.000000
  8
1
 62
7
  6
L000000000000000000
  0
VERTEX
 10
8.800000
 20
5.500000
 30
0.000000
  8
1
 62
7
  6
L000000000000000000
  0
SEQEND
  0
POLYLINE
  8
1
 62
7
  6
L000000000000000000
 70
1
 66
1
  0
VERTEX
 10
8.500000
 20
6.300000
 30
0.000000
  8
1
 62
7
  6
L000000000000000000
  0
VERTEX
 10
8.500000
 20
6.800000
 30
0.000000
  8
1
 62
7
  6
L000000000000000000
  0
VERTEX
 10
8.000000
 20
6.800000
 30
0.000000
  8
1
 62
7
  6
L000000000000000000
  0
VERTEX
 10
8.000000
 20
6.300000
 30
0.000000
  8
1
 62
7
  6
L000000000000000000
  0
SEQEND
  0
POLYLINE
  8
1
 62
7
  6
L000000000000000000
 70
1
 66
1
  0
VERTEX
 10
7.700000
 20
5.500000
 30
0.000000
  8
1
 62
7
  6
L000000000000000000
  0
VERTEX
 10
7.700000
 20
6.000000
 30
0.000000
  8
1
 62
7
  6
L000000000000000000
  0
VERTEX
 10
7.200000
 20
6.000000
 30
0.000000
  8
1
 62
7
  6
L000000000000000000
  0
VERTEX
 10
7.200000
 20
5.500000
 30
0.000000
  8
1
 62
7
  6
L000000000000000000
  0
SEQEND
  0
POLYLINE
  8
1
 62
7
  6
L000000000000000000
 70
1
 66
1
  0
VERTEX
 10
8.500000
 20
5.500000
 30
0.000000
  8
1
 62
7
  6
L000000000000000000
  0
VERTEX
 10
8.500000
 20
6.000000
 30
0.000000
  8
1
 62
7
  6
L000000000000000000
  0
VERTEX
 10
8.000000
 20
6.000000
 30
0.000000
  8
1
 62
7
  6
L000000000000000000
  0
VERTEX
 10
8.000000
 20
5.500000
 30
0.000000
  8
1
 62
7
  6
L000000000000000000
  0
SEQEND
  0
POLYLINE
  8
1
 62
7
  6
L000000000000000000
 70
1
 66
1
  0
VERTEX
 10
7.700000
 20
4.700000
 30
0.000000
  8
1
 62
7
  6
L000000000000000000
  0
VERTEX
 10
7.700000
 20
5.200000
 30
0.000000
  8
1
 62
7
  6
L000000000000000000
  0
VERTEX
 10
7.200000
 20
5.200000
 30
0.000000
  8
1
 62
7
  6
L000000000000000000
  0
VERTEX
 10
7.200000
 20
4.700000
 30
0.000000
  8
1
 62
7
  6
L000000000000000000
  0
SEQEND
  0
POLYLINE
  8
1
 62
7
  6
L000000000000000000
 70
1
 66
1
  0
VERTEX
 10
8.500000
 20
4.700000
 30
0.000000
  8
1
 62
7
  6
L000000000000000000
  0
VERTEX
 10
8.500000
 20
5.200000
 30
0.000000
  8
1
 62
7
  6
L000000000000000000
  0
VERTEX
 10
8.000000
 20
5.200000
 30
0.000000
  8
1
 62
7
  6
L000000000000000000
  0
VERTEX
 10
8.000000
 20
4.700000
 30
0.000000
  8
1
 62
7
  6
L000000000000000000
  0
SEQEND
  0
POLYLINE
  8
1
 62
7
  6
L000000000000000000
 70
1
 66
1
  0
VERTEX
 10
9.300000
 20
4.700000
 30
0.000000
  8
1
 62
7
  6
L000000000000000000
  0
VERTEX
 10
9.300000
 20
5.200000
 30
0.000000
  8
1
 62
7
  6
L000000000000000000
  0
VERTEX
 10
8.800000
 20
5.200000
 30
0.000000
  8
1
 62
7
  6
L000000000000000000
  0
VERTEX
 10
8.800000
 20
4.700000
 30
0.000000
  8
1
 62
7
  6
L000000000000000000
  0
SEQEND
  0
POLYLINE
  8
1
 62
7
  6
L000000000000000000
 70
1
 66
1
  0
VERTEX
 10
9.300000
 20
3.900000
 30
0.000000
  8
1
 62
7
  6
L000000000000000000
  0
VERTEX
 10
9.300000
 20
4.400000
 30
0.000000
  8
1
 62
7
  6
L000000000000000000
  0
VERTEX
 10
8.800000
 20
4.400000
 30
0.000000
  8
1
 62
7
  6
L000000000000000000
  0
VERTEX
 10
8.800000
 20
3.900000
 30
0.000000
  8
1
 62
7
  6
L000000000000000000
  0
SEQEND
  0
POLYLINE
  8
1
 62
7
  6
L000000000000000000
 70
1
 66
1
  0
VERTEX
 10
8.500000
 20
3.100000
 30
0.000000
  8
1
 62
7
  6
L000000000000000000
  0
VERTEX
 10
8.500000
 20
3.600000
 30
0.000000
  8
1
 62
7
  6
L000000000000000000
  0
VERTEX
 10
8.000000
 20
3.600000
 30
0.000000
  8
1
 62
7
  6
L000000000000000000
  0
VERTEX
 10
8.000000
 20
3.100000
 30
0.000000
  8
1
 62
7
  6
L000000000000000000
  0
SEQEND
  0
POLYLINE
  8
1
 62
7
  6
L000000000000000000
 70
1
 66
1
  0
VERTEX
 10
8.500000
 20
2.300000
 30
0.000000
  8
1
 62
7
  6
L000000000000000000
  0
VERTEX
 10
8.500000
 20
2.800000
 30
0.000000
  8
1
 62
7
  6
L000000000000000000
  0
VERTEX
 10
8.000000
 20
2.800000
 30
0.000000
  8
1
 62
7
  6
L000000000000000000
  0
VERTEX
 10
8.000000
 20
2.300000
 30
0.000000
  8
1
 62
7
  6
L000000000000000000
  0
SEQEND
  0
POLYLINE
  8
1
 62
7
  6
L000000000000000000
 70
1
 66
1
  0
VERTEX
 10
9.300000
 20
2.300000
 30
0.000000
  8
1
 62
7
  6
L000000000000000000
  0
VERTEX
 10
9.300000
 20
2.800000
 30
0.000000
  8
1
 62
7
  6
L000000000000000000
  0
VERTEX
 10
8.800000
 20
2.800000
 30
0.000000
  8
1
 62
7
  6
L000000000000000000
  0
VERTEX
 10
8.800000
 20
2.300000
 30
0.000000
  8
1
 62
7
  6
L000000000000000000
  0
SEQEND
  0
POLYLINE
  8
1
 62
7
  6
L000000000000000000
 70
1
 66
1
  0
VERTEX
 10
9.300000
 20
3.100000
 30
0.000000
  8
1
 62
7
  6
L000000000000000000
  0
VERTEX
 10
9.300000
 20
3.600000
 30
0.000000
  8
1
 62
7
  6
L000000000000000000
  0
VERTEX
 10
8.800000
 20
3.600000
 30
0.000000
  8
1
 62
7
  6
L000000000000000000
  0
VERTEX
 10
8.800000
 20
3.100000
 30
0.000000
  8
1
 62
7
  6
L000000000000000000
  0
SEQEND
  0
POLYLINE
  8
1
 62
7
  6
L000000000000000000
 70
1
 66
1
  0
VERTEX
 10
8.500000
 20
3.900000
 30
0.000000
  8
1
 62
7
  6
L000000000000000000
  0
VERTEX
 10
8.500000
 20
4.400000
 30
0.000000
  8
1
 62
7
  6
L000000000000000000
  0
VERTEX
 10
8.000000
 20
4.400000
 30
0.000000
  8
1
 62
7
  6
L000000000000000000
  0
VERTEX
 10
8.000000
 20
3.900000
 30
0.000000
  8
1
 62
7
  6
L000000000000000000
  0
SEQEND
  0
POLYLINE
  8
1
 62
7
  6
L000000000000000000
 70
1
 66
1
  0
VERTEX
 10
7.700000
 20
3.900000
 30
0.000000
  8
1
 62
7
  6
L000000000000000000
  0
VERTEX
 10
7.700000
 20
4.400000
 30
0.000000
  8
1
 62
7
  6
L000000000000000000
  0
VERTEX
 10
7.200000
 20
4.400000
 30
0.000000
  8
1
 62
7
  6
L000000000000000000
  0
VERTEX
 10
7.200000
 20
3.900000
 30
0.000000
  8
1
 62
7
  6
L000000000000000000
  0
SEQEND
  0
POLYLINE
  8
1
 62
7
  6
L000000000000000000
 70
1
 66
1
  0
VERTEX
 10
7.700000
 20
3.100000
 30
0.000000
  8
1
 62
7
  6
L000000000000000000
  0
VERTEX
 10
7.700000
 20
3.600000
 30
0.000000
  8
1
 62
7
  6
L000000000000000000
  0
VERTEX
 10
7.200000
 20
3.600000
 30
0.000000
  8
1
 62
7
  6
L000000000000000000
  0
VERTEX
 10
7.200000
 20
3.100000
 30
0.000000
  8
1
 62
7
  6
L000000000000000000
  0
SEQEND
  0
POLYLINE
  8
1
 62
7
  6
L000000000000000000
 70
1
 66
1
  0
VERTEX
 10
7.700000
 20
2.300000
 30
0.000000
  8
1
 62
7
  6
L000000000000000000
  0
VERTEX
 10
7.700000
 20
2.800000
 30
0.000000
  8
1
 62
7
  6
L000000000000000000
  0
VERTEX
 10
7.200000
 20
2.800000
 30
0.000000
  8
1
 62
7
  6
L000000000000000000
  0
VERTEX
 10
7.200000
 20
2.300000
 30
0.000000
  8
1
 62
7
  6
L000000000000000000
  0
SEQEND
  0
POLYLINE
  8
1
 62
7
  6
L000000000000000000
 70
1
 66
1
  0
VERTEX
 10
7.700000
 20
1.500000
 30
0.000000
  8
1
 62
7
  6
L000000000000000000
  0
VERTEX
 10
7.700000
 20
2.000000
 30
0.000000
  8
1
 62
7
  6
L000000000000000000
  0
VERTEX
 10
7.200000
 20
2.000000
 30
0.000000
  8
1
 62
7
  6
L000000000000000000
  0
VERTEX
 10
7.200000
 20
1.500000
 30
0.000000
  8
1
 62
7
  6
L000000000000000000
  0
SEQEND
  0
POLYLINE
  8
1
 62
7
  6
L000000000000000000
 70
1
 66
1
  0
VERTEX
 10
8.500000
 20
1.500000
 30
0.000000
  8
1
 62
7
  6
L000000000000000000
  0
VERTEX
 10
8.500000
 20
2.000000
 30
0.000000
  8
1
 62
7
  6
L000000000000000000
  0
VERTEX
 10
8.000000
 20
2.000000
 30
0.000000
  8
1
 62
7
  6
L000000000000000000
  0
VERTEX
 10
8.000000
 20
1.500000
 30
0.000000
  8
1
 62
7
  6
L000000000000000000
  0
SEQEND
  0
POLYLINE
  8
1
 62
7
  6
L000000000000000000
 70
1
 66
1
  0
VERTEX
 10
9.300000
 20
1.500000
 30
0.000000
  8
1
 62
7
  6
L000000000000000000
  0
VERTEX
 10
9.300000
 20
2.000000
 30
0.000000
  8
1
 62
7
  6
L000000000000000000
  0
VERTEX
 10
8.800000
 20
2.000000
 30
0.000000
  8
1
 62
7
  6
L000000000000000000
  0
VERTEX
 10
8.800000
 20
1.500000
 30
0.000000
  8
1
 62
7
  6
L000000000000000000
  0
SEQEND
  0
POLYLINE
  8
1
 62
7
  6
L000000000000000000
 70
1
 66
1
  0
VERTEX
 10
10.100000
 20
6.300000
 30
0.000000
  8
1
 62
7
  6
L000000000000000000
  0
VERTEX
 10
10.100000
 20
6.800000
 30
0.000000
  8
1
 62
7
  6
L000000000000000000
  0
VERTEX
 10
9.600000
 20
6.800000
 30
0.000000
  8
1
 62
7
  6
L000000000000000000
  0
VERTEX
 10
9.600000
 20
6.300000
 30
0.000000
  8
1
 62
7
  6
L000000000000000000
  0
SEQEND
  0
POLYLINE
  8
1
 62
7
  6
L000000000000000000
 70
1
 66
1
  0
VERTEX
 10
11.700000
 20
6.300000
 30
0.000000
  8
1
 62
7
  6
L000000000000000000
  0
VERTEX
 10
11.700000
 20
6.800000
 30
0.000000
  8
1
 62
7
  6
L000000000000000000
  0
VERTEX
 10
11.200000
 20
6.800000
 30
0.000000
  8
1
 62
7
  6
L000000000000000000
  0
VERTEX
 10
11.200000
 20
6.300000
 30
0.000000
  8
1
 62
7
  6
L000000000000000000
  0
SEQEND
  0
POLYLINE
  8
1
 62
7
  6
L000000000000000000
 70
1
 66
1
  0
VERTEX
 10
11.700000
 20
5.500000
 30
0.000000
  8
1
 62
7
  6
L000000000000000000
  0
VERTEX
 10
11.700000
 20
6.000000
 30
0.000000
  8
1
 62
7
  6
L000000000000000000
  0
VERTEX
 10
11.200000
 20
6.000000
 30
0.000000
  8
1
 62
7
  6
L000000000000000000
  0
VERTEX
 10
11.200000
 20
5.500000
 30
0.000000
  8
1
 62
7
  6
L000000000000000000
  0
SEQEND
  0
POLYLINE
  8
1
 62
7
  6
L000000000000000000
 70
1
 66
1
  0
VERTEX
 10
10.900000
 20
6.300000
 30
0.000000
  8
1
 62
7
  6
L000000000000000000
  0
VERTEX
 10
10.900000
 20
6.800000
 30
0.000000
  8
1
 62
7
  6
L000000000000000000
  0
VERTEX
 10
10.400000
 20
6.800000
 30
0.000000
  8
1
 62
7
  6
L000000000000000000
  0
VERTEX
 10
10.400000
 20
6.300000
 30
0.000000
  8
1
 62
7
  6
L000000000000000000
  0
SEQEND
  0
POLYLINE
  8
1
 62
7
  6
L000000000000000000
 70
1
 66
1
  0
VERTEX
 10
10.100000
 20
5.500000
 30
0.000000
  8
1
 62
7
  6
L000000000000000000
  0
VERTEX
 10
10.100000
 20
6.000000
 30
0.000000
  8
1
 62
7
  6
L000000000000000000
  0
VERTEX
 10
9.600000
 20
6.000000
 30
0.000000
  8
1
 62
7
  6
L000000000000000000
  0
VERTEX
 10
9.600000
 20
5.500000
 30
0.000000
  8
1
 62
7
  6
L000000000000000000
  0
SEQEND
  0
POLYLINE
  8
1
 62
7
  6
L000000000000000000
 70
1
 66
1
  0
VERTEX
 10
10.900000
 20
5.500000
 30
0.000000
  8
1
 62
7
  6
L000000000000000000
  0
VERTEX
 10
10.900000
 20
6.000000
 30
0.000000
  8
1
 62
7
  6
L000000000000000000
  0
VERTEX
 10
10.400000
 20
6.000000
 30
0.000000
  8
1
 62
7
  6
L000000000000000000
  0
VERTEX
 10
10.400000
 20
5.500000
 30
0.000000
  8
1
 62
7
  6
L000000000000000000
  0
SEQEND
  0
POLYLINE
  8
1
 62
7
  6
L000000000000000000
 70
1
 66
1
  0
VERTEX
 10
10.100000
 20
4.700000
 30
0.000000
  8
1
 62
7
  6
L000000000000000000
  0
VERTEX
 10
10.100000
 20
5.200000
 30
0.000000
  8
1
 62
7
  6
L000000000000000000
  0
VERTEX
 10
9.600000
 20
5.200000
 30
0.000000
  8
1
 62
7
  6
L000000000000000000
  0
VERTEX
 10
9.600000
 20
4.700000
 30
0.000000
  8
1
 62
7
  6
L000000000000000000
  0
SEQEND
  0
POLYLINE
  8
1
 62
7
  6
L000000000000000000
 70
1
 66
1
  0
VERTEX
 10
10.900000
 20
4.700000
 30
0.000000
  8
1
 62
7
  6
L000000000000000000
  0
VERTEX
 10
10.900000
 20
5.200000
 30
0.000000
  8
1
 62
7
  6
L000000000000000000
  0
VERTEX
 10
10.400000
 20
5.200000
 30
0.000000
  8
1
 62
7
  6
L000000000000000000
  0
VERTEX
 10
10.400000
 20
4.700000
 30
0.000000
  8
1
 62
7
  6
L000000000000000000
  0
SEQEND
  0
POLYLINE
  8
1
 62
7
  6
L000000000000000000
 70
1
 66
1
  0
VERTEX
 10
11.700000
 20
4.700000
 30
0.000000
  8
1
 62
7
  6
L000000000000000000
  0
VERTEX
 10
11.700000
 20
5.200000
 30
0.000000
  8
1
 62
7
  6
L000000000000000000
  0
VERTEX
 10
11.200000
 20
5.200000
 30
0.000000
  8
1
 62
7
  6
L000000000000000000
  0
VERTEX
 10
11.200000
 20
4.700000
 30
0.000000
  8
1
 62
7
  6
L000000000000000000
  0
SEQEND
  0
POLYLINE
  8
1
 62
7
  6
L000000000000000000
 70
1
 66
1
  0
VERTEX
 10
11.700000
 20
3.900000
 30
0.000000
  8
1
 62
7
  6
L000000000000000000
  0
VERTEX
 10
11.700000
 20
4.400000
 30
0.000000
  8
1
 62
7
  6
L000000000000000000
  0
VERTEX
 10
11.200000
 20
4.400000
 30
0.000000
  8
1
 62
7
  6
L000000000000000000
  0
VERTEX
 10
11.200000
 20
3.900000
 30
0.000000
  8
1
 62
7
  6
L000000000000000000
  0
SEQEND
  0
POLYLINE
  8
1
 62
7
  6
L000000000000000000
 70
1
 66
1
  0
VERTEX
 10
10.900000
 20
3.100000
 30
0.000000
  8
1
 62
7
  6
L000000000000000000
  0
VERTEX
 10
10.900000
 20
3.600000
 30
0.000000
  8
1
 62
7
  6
L000000000000000000
  0
VERTEX
 10
10.400000
 20
3.600000
 30
0.000000
  8
1
 62
7
  6
L000000000000000000
  0
VERTEX
 10
10.400000
 20
3.100000
 30
0.000000
  8
1
 62
7
  6
L000000000000000000
  0
SEQEND
  0
POLYLINE
  8
1
 62
7
  6
L000000000000000000
 70
1
 66
1
  0
VERTEX
 10
10.900000
 20
2.300000
 30
0.000000
  8
1
 62
7
  6
L000000000000000000
  0
VERTEX
 10
10.900000
 20
2.800000
 30
0.000000
  8
1
 62
7
  6
L000000000000000000
  0
VERTEX
 10
10.400000
 20
2.800000
 30
0.000000
  8
1
 62
7
  6
L000000000000000000
  0
VERTEX
 10
10.400000
 20
2.300000
 30
0.000000
  8
1
 62
7
  6
L000000000000000000
  0
SEQEND
  0
POLYLINE
  8
1
 62
7
  6
L000000000000000000
 70
1
 66
1
  0
VERTEX
 10
11.700000
 20
2.300000
 30
0.000000
  8
1
 62
7
  6
L000000000000000000
  0
VERTEX
 10
11.700000
 20
2.800000
 30
0.000000
  8
1
 62
7
  6
L000000000000000000
  0
VERTEX
 10
11.200000
 20
2.800000
 30
0.000000
  8
1
 62
7
  6
L000000000000000000
  0
VERTEX
 10
11.200000
 20
2.300000
 30
0.000000
  8
1
 62
7
  6
L000000000000000000
  0
SEQEND
  0
POLYLINE
  8
1
 62
7
  6
L000000000000000000
 70
1
 66
1
  0
VERTEX
 10
11.700000
 20
3.100000
 30
0.000000
  8
1
 62
7
  6
L000000000000000000
  0
VERTEX
 10
11.700000
 20
3.600000
 30
0.000000
  8
1
 62
7
  6
L000000000000000000
  0
VERTEX
 10
11.200000
 20
3.600000
 30
0.000000
  8
1
 62
7
  6
L000000000000000000
  0
VERTEX
 10
11.200000
 20
3.100000
 30
0.000000
  8
1
 62
7
  6
L000000000000000000
  0
SEQEND
  0
POLYLINE
  8
1
 62
7
  6
L000000000000000000
 70
1
 66
1
  0
VERTEX
 10
10.900000
 20
3.900000
 30
0.000000
  8
1
 62
7
  6
L000000000000000000
  0
VERTEX
 10
10.900000
 20
4.400000
 30
0.000000
  8
1
 62
7
  6
L000000000000000000
  0
VERTEX
 10
10.400000
 20
4.400000
 30
0.000000
  8
1
 62
7
  6
L000000000000000000
  0
VERTEX
 10
10.400000
 20
3.900000
 30
0.000000
  8
1
 62
7
  6
L000000000000000000
  0
SEQEND
  0
POLYLINE
  8
1
 62
7
  6
L000000000000000000
 70
1
 66
1
  0
VERTEX
 10
10.100000
 20
3.900000
 30
0.000000
  8
1
 62
7
  6
L000000000000000000
  0
VERTEX
 10
10.100000
 20
4.400000
 30
0.000000
  8
1
 62
7
  6
L000000000000000000
  0
VERTEX
 10
9.600000
 20
4.400000
 30
0.000000
  8
1
 62
7
  6
L000000000000000000
  0
VERTEX
 10
9.600000
 20
3.900000
 30
0.000000
  8
1
 62
7
  6
L000000000000000000
  0
SEQEND
  0
POLYLINE
  8
1
 62
7
  6
L000000000000000000
 70
1
 66
1
  0
VERTEX
 10
10.100000
 20
3.100000
 30
0.000000
  8
1
 62
7
  6
L000000000000000000
  0
VERTEX
 10
10.100000
 20
3.600000
 30
0.000000
  8
1
 62
7
  6
L000000000000000000
  0
VERTEX
 10
9.600000
 20
3.600000
 30
0.000000
  8
1
 62
7
  6
L000000000000000000
  0
VERTEX
 10
9.600000
 20
3.100000
 30
0.000000
  8
1
 62
7
  6
L000000000000000000
  0
SEQEND
  0
POLYLINE
  8
1
 62
7
  6
L000000000000000000
 70
1
 66
1
  0
VERTEX
 10
10.100000
 20
2.300000
 30
0.000000
  8
1
 62
7
  6
L000000000000000000
  0
VERTEX
 10
10.100000
 20
2.800000
 30
0.000000
  8
1
 62
7
  6
L000000000000000000
  0
VERTEX
 10
9.600000
 20
2.800000
 30
0.000000
  8
1
 62
7
  6
L000000000000000000
  0
VERTEX
 10
9.600000
 20
2.300000
 30
0.000000
  8
1
 62
7
  6
L000000000000000000
  0
SEQEND
  0
POLYLINE
  8
1
 62
7
  6
L000000000000000000
 70
1
 66
1
  0
VERTEX
 10
10.100000
 20
1.500000
 30
0.000000
  8
1
 62
7
  6
L000000000000000000
  0
VERTEX
 10
10.100000
 20
2.000000
 30
0.000000
  8
1
 62
7
  6
L000000000000000000
  0
VERTEX
 10
9.600000
 20
2.000000
 30
0.000000
  8
1
 62
7
  6
L000000000000000000
  0
VERTEX
 10
9.600000
 20
1.500000
 30
0.000000
  8
1
 62
7
  6
L000000000000000000
  0
SEQEND
  0
POLYLINE
  8
1
 62
7
  6
L000000000000000000
 70
1
 66
1
  0
VERTEX
 10
10.900000
 20
1.500000
 30
0.000000
  8
1
 62
7
  6
L000000000000000000
  0
VERTEX
 10
10.900000
 20
2.000000
 30
0.000000
  8
1
 62
7
  6
L000000000000000000
  0
VERTEX
 10
10.400000
 20
2.000000
 30
0.000000
  8
1
 62
7
  6
L000000000000000000
  0
VERTEX
 10
10.400000
 20
1.500000
 30
0.000000
  8
1
 62
7
  6
L000000000000000000
  0
SEQEND
  0
POLYLINE
  8
1
 62
7
  6
L000000000000000000
 70
1
 66
1
  0
VERTEX
 10
11.700000
 20
1.500000
 30
0.000000
  8
1
 62
7
  6
L000000000000000000
  0
VERTEX
 10
11.700000
 20
2.000000
 30
0.000000
  8
1
 62
7
  6
L000000000000000000
  0
VERTEX
 10
11.200000
 20
2.000000
 30
0.000000
  8
1
 62
7
  6
L000000000000000000
  0
VERTEX
 10
11.200000
 20
1.500000
 30
0.000000
  8
1
 62
7
  6
L000000000000000000
  0
SEQEND
  0
POLYLINE
  8
1
 62
7
  6
L000000000000000000
 70
1
 66
1
  0
VERTEX
 10
12.500000
 20
6.300000
 30
0.000000
  8
1
 62
7
  6
L000000000000000000
  0
VERTEX
 10
12.500000
 20
6.800000
 30
0.000000
  8
1
 62
7
  6
L000000000000000000
  0
VERTEX
 10
12.000000
 20
6.800000
 30
0.000000
  8
1
 62
7
  6
L000000000000000000
  0
VERTEX
 10
12.000000
 20
6.300000
 30
0.000000
  8
1
 62
7
  6
L000000000000000000
  0
SEQEND
  0
POLYLINE
  8
1
 62
7
  6
L000000000000000000
 70
1
 66
1
  0
VERTEX
 10
14.100000
 20
6.300000
 30
0.000000
  8
1
 62
7
  6
L000000000000000000
  0
VERTEX
 10
14.100000
 20
6.800000
 30
0.000000
  8
1
 62
7
  6
L000000000000000000
  0
VERTEX
 10
13.600000
 20
6.800000
 30
0.000000
  8
1
 62
7
  6
L000000000000000000
  0
VERTEX
 10
13.600000
 20
6.300000
 30
0.000000
  8
1
 62
7
  6
L000000000000000000
  0
SEQEND
  0
POLYLINE
  8
1
 62
7
  6
L000000000000000000
 70
1
 66
1
  0
VERTEX
 10
14.100000
 20
5.500000
 30
0.000000
  8
1
 62
7
  6
L000000000000000000
  0
VERTEX
 10
14.100000
 20
6.000000
 30
0.000000
  8
1
 62
7
  6
L000000000000000000
  0
VERTEX
 10
13.600000
 20
6.000000
 30
0.000000
  8
1
 62
7
  6
L000000000000000000
  0
VERTEX
 10
13.600000
 20
5.500000
 30
0.000000
  8
1
 62
7
  6
L000000000000000000
  0
SEQEND
  0
POLYLINE
  8
1
 62
7
  6
L000000000000000000
 70
1
 66
1
  0
VERTEX
 10
13.300000
 20
6.300000
 30
0.000000
  8
1
 62
7
  6
L000000000000000000
  0
VERTEX
 10
13.300000
 20
6.800000
 30
0.000000
  8
1
 62
7
  6
L000000000000000000
  0
VERTEX
 10
12.800000
 20
6.800000
 30
0.000000
  8
1
 62
7
  6
L000000000000000000
  0
VERTEX
 10
12.800000
 20
6.300000
 30
0.000000
  8
1
 62
7
  6
L000000000000000000
  0
SEQEND
  0
POLYLINE
  8
1
 62
7
  6
L000000000000000000
 70
1
 66
1
  0
VERTEX
 10
12.500000
 20
5.500000
 30
0.000000
  8
1
 62
7
  6
L000000000000000000
  0
VERTEX
 10
12.500000
 20
6.000000
 30
0.000000
  8
1
 62
7
  6
L000000000000000000
  0
VERTEX
 10
12.000000
 20
6.000000
 30
0.000000
  8
1
 62
7
  6
L000000000000000000
  0
VERTEX
 10
12.000000
 20
5.500000
 30
0.000000
  8
1
 62
7
  6
L000000000000000000
  0
SEQEND
  0
POLYLINE
  8
1
 62
7
  6
L000000000000000000
 70
1
 66
1
  0
VERTEX
 10
13.300000
 20
5.500000
 30
0.000000
  8
1
 62
7
  6
L000000000000000000
  0
VERTEX
 10
13.300000
 20
6.000000
 30
0.000000
  8
1
 62
7
  6
L000000000000000000
  0
VERTEX
 10
12.800000
 20
6.000000
 30
0.000000
  8
1
 62
7
  6
L000000000000000000
  0
VERTEX
 10
12.800000
 20
5.500000
 30
0.000000
  8
1
 62
7
  6
L000000000000000000
  0
SEQEND
  0
POLYLINE
  8
1
 62
7
  6
L000000000000000000
 70
1
 66
1
  0
VERTEX
 10
12.500000
 20
4.700000
 30
0.000000
  8
1
 62
7
  6
L000000000000000000
  0
VERTEX
 10
12.500000
 20
5.200000
 30
0.000000
  8
1
 62
7
  6
L000000000000000000
  0
VERTEX
 10
12.000000
 20
5.200000
 30
0.000000
  8
1
 62
7
  6
L000000000000000000
  0
VERTEX
 10
12.000000
 20
4.700000
 30
0.000000
  8
1
 62
7
  6
L000000000000000000
  0
SEQEND
  0
POLYLINE
  8
1
 62
7
  6
L000000000000000000
 70
1
 66
1
  0
VERTEX
 10
13.300000
 20
4.700000
 30
0.000000
  8
1
 62
7
  6
L000000000000000000
  0
VERTEX
 10
13.300000
 20
5.200000
 30
0.000000
  8
1
 62
7
  6
L000000000000000000
  0
VERTEX
 10
12.800000
 20
5.200000
 30
0.000000
  8
1
 62
7
  6
L000000000000000000
  0
VERTEX
 10
12.800000
 20
4.700000
 30
0.000000
  8
1
 62
7
  6
L000000000000000000
  0
SEQEND
  0
POLYLINE
  8
1
 62
7
  6
L000000000000000000
 70
1
 66
1
  0
VERTEX
 10
14.100000
 20
4.700000
 30
0.000000
  8
1
 62
7
  6
L000000000000000000
  0
VERTEX
 10
14.100000
 20
5.200000
 30
0.000000
  8
1
 62
7
  6
L000000000000000000
  0
VERTEX
 10
13.600000
 20
5.200000
 30
0.000000
  8
1
 62
7
  6
L000000000000000000
  0
VERTEX
 10
13.600000
 20
4.700000
 30
0.000000
  8
1
 62
7
  6
L000000000000000000
  0
SEQEND
  0
POLYLINE
  8
1
 62
7
  6
L000000000000000000
 70
1
 66
1
  0
VERTEX
 10
14.100000
 20
3.900000
 30
0.000000
  8
1
 62
7
  6
L000000000000000000
  0
VERTEX
 10
14.100000
 20
4.400000
 30
0.000000
  8
1
 62
7
  6
L000000000000000000
  0
VERTEX
 10
13.600000
 20
4.400000
 30
0.000000
  8
1
 62
7
  6
L000000000000000000
  0
VERTEX
 10
13.600000
 20
3.900000
 30
0.000000
  8
1
 62
7
  6
L000000000000000000
  0
SEQEND
  0
POLYLINE
  8
1
 62
7
  6
L000000000000000000
 70
1
 66
1
  0
VERTEX
 10
13.300000
 20
3.100000
 30
0.000000
  8
1
 62
7
  6
L000000000000000000
  0
VERTEX
 10
13.300000
 20
3.600000
 30
0.000000
  8
1
 62
7
  6
L000000000000000000
  0
VERTEX
 10
12.800000
 20
3.600000
 30
0.000000
  8
1
 62
7
  6
L000000000000000000
  0
VERTEX
 10
12.800000
 20
3.100000
 30
0.000000
  8
1
 62
7
  6
L000000000000000000
  0
SEQEND
  0
POLYLINE
  8
1
 62
7
  6
L000000000000000000
 70
1
 66
1
  0
VERTEX
 10
13.300000
 20
2.300000
 30
0.000000
  8
1
 62
7
  6
L000000000000000000
  0
VERTEX
 10
13.300000
 20
2.800000
 30
0.000000
  8
1
 62
7
  6
L000000000000000000
  0
VERTEX
 10
12.800000
 20
2.800000
 30
0.000000
  8
1
 62
7
  6
L000000000000000000
  0
VERTEX
 10
12.800000
 20
2.300000
 30
0.000000
  8
1
 62
7
  6
L000000000000000000
  0
SEQEND
  0
POLYLINE
  8
1
 62
7
  6
L000000000000000000
 70
1
 66
1
  0
VERTEX
 10
14.100000
 20
2.300000
 30
0.000000
  8
1
 62
7
  6
L000000000000000000
  0
VERTEX
 10
14.100000
 20
2.800000
 30
0.000000
  8
1
 62
7
  6
L000000000000000000
  0
VERTEX
 10
13.600000
 20
2.800000
 30
0.000000
  8
1
 62
7
  6
L000000000000000000
  0
VERTEX
 10
13.600000
 20
2.300000
 30
0.000000
  8
1
 62
7
  6
L000000000000000000
  0
SEQEND
  0
POLYLINE
  8
1
 62
7
  6
L000000000000000000
 70
1
 66
1
  0
VERTEX
 10
14.100000
 20
3.100000
 30
0.000000
  8
1
 62
7
  6
L000000000000000000
  0
VERTEX
 10
14.100000
 20
3.600000
 30
0.000000
  8
1
 62
7
  6
L000000000000000000
  0
VERTEX
 10
13.600000
 20
3.600000
 30
0.000000
  8
1
 62
7
  6
L000000000000000000
  0
VERTEX
 10
13.600000
 20
3.100000
 30
0.000000
  8
1
 62
7
  6
L000000000000000000
  0
SEQEND
  0
POLYLINE
  8
1
 62
7
  6
L000000000000000000
 70
1
 66
1
  0
VERTEX
 10
13.300000
 20
3.900000
 30
0.000000
  8
1
 62
7
  6
L000000000000000000
  0
VERTEX
 10
13.300000
 20
4.400000
 30
0.000000
  8
1
 62
7
  6
L000000000000000000
  0
VERTEX
 10
12.800000
 20
4.400000
 30
0.000000
  8
1
 62
7
  6
L000000000000000000
  0
VERTEX
 10
12.800000
 20
3.900000
 30
0.000000
  8
1
 62
7
  6
L000000000000000000
  0
SEQEND
  0
POLYLINE
  8
1
 62
7
  6
L000000000000000000
 70
1
 66
1
  0
VERTEX
 10
12.500000
 20
3.900000
 30
0.000000
  8
1
 62
7
  6
L000000000000000000
  0
VERTEX
 10
12.500000
 20
4.400000
 30
0.000000
  8
1
 62
7
  6
L000000000000000000
  0
VERTEX
 10
12.000000
 20
4.400000
 30
0.000000
  8
1
 62
7
  6
L000000000000000000
  0
VERTEX
 10
12.000000
 20
3.900000
 30
0.000000
  8
1
 62
7
  6
L000000000000000000
  0
SEQEND
  0
POLYLINE
  8
1
 62
7
  6
L000000000000000000
 70
1
 66
1
  0
VERTEX
 10
12.500000
 20
3.100000
 30
0.000000
  8
1
 62
7
  6
L000000000000000000
  0
VERTEX
 10
12.500000
 20
3.600000
 30
0.000000
  8
1
 62
7
  6
L000000000000000000
  0
VERTEX
 10
12.000000
 20
3.600000
 30
0.000000
  8
1
 62
7
  6
L000000000000000000
  0
VERTEX
 10
12.000000
 20
3.100000
 30
0.000000
  8
1
 62
7
  6
L000000000000000000
  0
SEQEND
  0
POLYLINE
  8
1
 62
7
  6
L000000000000000000
 70
1
 66
1
  0
VERTEX
 10
12.500000
 20
2.300000
 30
0.000000
  8
1
 62
7
  6
L000000000000000000
  0
VERTEX
 10
12.500000
 20
2.800000
 30
0.000000
  8
1
 62
7
  6
L000000000000000000
  0
VERTEX
 10
12.000000
 20
2.800000
 30
0.000000
  8
1
 62
7
  6
L000000000000000000
  0
VERTEX
 10
12.000000
 20
2.300000
 30
0.000000
  8
1
 62
7
  6
L000000000000000000
  0
SEQEND
  0
POLYLINE
  8
1
 62
7
  6
L000000000000000000
 70
1
 66
1
  0
VERTEX
 10
12.500000
 20
1.500000
 30
0.000000
  8
1
 62
7
  6
L000000000000000000
  0
VERTEX
 10
12.500000
 20
2.000000
 30
0.000000
  8
1
 62
7
  6
L000000000000000000
  0
VERTEX
 10
12.000000
 20
2.000000
 30
0.000000
  8
1
 62
7
  6
L000000000000000000
  0
VERTEX
 10
12.000000
 20
1.500000
 30
0.000000
  8
1
 62
7
  6
L000000000000000000
  0
SEQEND
  0
POLYLINE
  8
1
 62
7
  6
L000000000000000000
 70
1
 66
1
  0
VERTEX
 10
13.300000
 20
1.500000
 30
0.000000
  8
1
 62
7
  6
L000000000000000000
  0
VERTEX
 10
13.300000
 20
2.000000
 30
0.000000
  8
1
 62
7
  6
L000000000000000000
  0
VERTEX
 10
12.800000
 20
2.000000
 30
0.000000
  8
1
 62
7
  6
L000000000000000000
  0
VERTEX
 10
12.800000
 20
1.500000
 30
0.000000
  8
1
 62
7
  6
L000000000000000000
  0
SEQEND
  0
POLYLINE
  8
1
 62
7
  6
L000000000000000000
 70
1
 66
1
  0
VERTEX
 10
14.100000
 20
1.500000
 30
0.000000
  8
1
 62
7
  6
L000000000000000000
  0
VERTEX
 10
14.100000
 20
2.000000
 30
0.000000
  8
1
 62
7
  6
L000000000000000000
  0
VERTEX
 10
13.600000
 20
2.000000
 30
0.000000
  8
1
 62
7
  6
L000000000000000000
  0
VERTEX
 10
13.600000
 20
1.500000
 30
0.000000
  8
1
 62
7
  6
L000000000000000000
  0
SEQEND
  0
POLYLINE
  8
1
 62
7
  6
L000000000000000000
 70
1
 66
1
  0
VERTEX
 10
14.900000
 20
6.300000
 30
0.000000
  8
1
 62
7
  6
L000000000000000000
  0
VERTEX
 10
14.900000
 20
6.800000
 30
0.000000
  8
1
 62
7
  6
L000000000000000000
  0
VERTEX
 10
14.400000
 20
6.800000
 30
0.000000
  8
1
 62
7
  6
L000000000000000000
  0
VERTEX
 10
14.400000
 20
6.300000
 30
0.000000
  8
1
 62
7
  6
L000000000000000000
  0
SEQEND
  0
POLYLINE
  8
1
 62
7
  6
L000000000000000000
 70
1
 66
1
  0
VERTEX
 10
16.500000
 20
6.300000
 30
0.000000
  8
1
 62
7
  6
L000000000000000000
  0
VERTEX
 10
16.500000
 20
6.800000
 30
0.000000
  8
1
 62
7
  6
L000000000000000000
  0
VERTEX
 10
16.000000
 20
6.800000
 30
0.000000
  8
1
 62
7
  6
L000000000000000000
  0
VERTEX
 10
16.000000
 20
6.300000
 30
0.000000
  8
1
 62
7
  6
L000000000000000000
  0
SEQEND
  0
POLYLINE
  8
1
 62
7
  6
L000000000000000000
 70
1
 66
1
  0
VERTEX
 10
16.500000
 20
5.500000
 30
0.000000
  8
1
 62
7
  6
L000000000000000000
  0
VERTEX
 10
16.500000
 20
6.000000
 30
0.000000
  8
1
 62
7
  6
L000000000000000000
  0
VERTEX
 10
16.000000
 20
6.000000
 30
0.000000
  8
1
 62
7
  6
L000000000000000000
  0
VERTEX
 10
16.000000
 20
5.500000
 30
0.000000
  8
1
 62
7
  6
L000000000000000000
  0
SEQEND
  0
POLYLINE
  8
1
 62
7
  6
L000000000000000000
 70
1
 66
1
  0
VERTEX
 10
15.700000
 20
6.300000
 30
0.000000
  8
1
 62
7
  6
L000000000000000000
  0
VERTEX
 10
15.700000
 20
6.800000
 30
0.000000
  8
1
 62
7
  6
L000000000000000000
  0
VERTEX
 10
15.200000
 20
6.800000
 30
0.000000
  8
1
 62
7
  6
L000000000000000000
  0
VERTEX
 10
15.200000
 20
6.300000
 30
0.000000
  8
1
 62
7
  6
L000000000000000000
  0
SEQEND
  0
POLYLINE
  8
1
 62
7
  6
L000000000000000000
 70
1
 66
1
  0
VERTEX
 10
14.900000
 20
5.500000
 30
0.000000
  8
1
 62
7
  6
L000000000000000000
  0
VERTEX
 10
14.900000
 20
6.000000
 30
0.000000
  8
1
 62
7
  6
L000000000000000000
  0
VERTEX
 10
14.400000
 20
6.000000
 30
0.000000
  8
1
 62
7
  6
L000000000000000000
  0
VERTEX
 10
14.400000
 20
5.500000
 30
0.000000
  8
1
 62
7
  6
L000000000000000000
  0
SEQEND
  0
POLYLINE
  8
1
 62
7
  6
L000000000000000000
 70
1
 66
1
  0
VERTEX
 10
15.700000
 20
5.500000
 30
0.000000
  8
1
 62
7
  6
L000000000000000000
  0
VERTEX
 10
15.700000
 20
6.000000
 30
0.000000
  8
1
 62
7
  6
L000000000000000000
  0
VERTEX
 10
15.200000
 20
6.000000
 30
0.000000
  8
1
 62
7
  6
L000000000000000000
  0
VERTEX
 10
15.200000
 20
5.500000
 30
0.000000
  8
1
 62
7
  6
L000000000000000000
  0
SEQEND
  0
POLYLINE
  8
1
 62
7
  6
L000000000000000000
 70
1
 66
1
  0
VERTEX
 10
14.900000
 20
4.700000
 30
0.000000
  8
1
 62
7
  6
L000000000000000000
  0
VERTEX
 10
14.900000
 20
5.200000
 30
0.000000
  8
1
 62
7
  6
L000000000000000000
  0
VERTEX
 10
14.400000
 20
5.200000
 30
0.000000
  8
1
 62
7
  6
L000000000000000000
  0
VERTEX
 10
14.400000
 20
4.700000
 30
0.000000
  8
1
 62
7
  6
L000000000000000000
  0
SEQEND
  0
POLYLINE
  8
1
 62
7
  6
L000000000000000000
 70
1
 66
1
  0
VERTEX
 10
15.700000
 20
4.700000
 30
0.000000
  8
1
 62
7
  6
L000000000000000000
  0
VERTEX
 10
15.700000
 20
5.200000
 30
0.000000
  8
1
 62
7
  6
L000000000000000000
  0
VERTEX
 10
15.200000
 20
5.200000
 30
0.000000
  8
1
 62
7
  6
L000000000000000000
  0
VERTEX
 10
15.200000
 20
4.700000
 30
0.000000
  8
1
 62
7
  6
L000000000000000000
  0
SEQEND
  0
POLYLINE
  8
1
 62
7
  6
L000000000000000000
 70
1
 66
1
  0
VERTEX
 10
16.500000
 20
4.700000
 30
0.000000
  8
1
 62
7
  6
L000000000000000000
  0
VERTEX
 10
16.500000
 20
5.200000
 30
0.000000
  8
1
 62
7
  6
L000000000000000000
  0
VERTEX
 10
16.000000
 20
5.200000
 30
0.000000
  8
1
 62
7
  6
L000000000000000000
  0
VERTEX
 10
16.000000
 20
4.700000
 30
0.000000
  8
1
 62
7
  6
L000000000000000000
  0
SEQEND
  0
POLYLINE
  8
1
 62
7
  6
L000000000000000000
 70
1
 66
1
  0
VERTEX
 10
16.500000
 20
3.900000
 30
0.000000
  8
1
 62
7
  6
L000000000000000000
  0
VERTEX
 10
16.500000
 20
4.400000
 30
0.000000
  8
1
 62
7
  6
L000000000000000000
  0
VERTEX
 10
16.000000
 20
4.400000
 30
0.000000
  8
1
 62
7
  6
L000000000000000000
  0
VERTEX
 10
16.000000
 20
3.900000
 30
0.000000
  8
1
 62
7
  6
L000000000000000000
  0
SEQEND
  0
POLYLINE
  8
1
 62
7
  6
L000000000000000000
 70
1
 66
1
  0
VERTEX
 10
15.700000
 20
3.100000
 30
0.000000
  8
1
 62
7
  6
L000000000000000000
  0
VERTEX
 10
15.700000
 20
3.600000
 30
0.000000
  8
1
 62
7
  6
L000000000000000000
  0
VERTEX
 10
15.200000
 20
3.600000
 30
0.000000
  8
1
 62
7
  6
L000000000000000000
  0
VERTEX
 10
15.200000
 20
3.100000
 30
0.000000
  8
1
 62
7
  6
L000000000000000000
  0
SEQEND
  0
POLYLINE
  8
1
 62
7
  6
L000000000000000000
 70
1
 66
1
  0
VERTEX
 10
15.700000
 20
2.300000
 30
0.000000
  8
1
 62
7
  6
L000000000000000000
  0
VERTEX
 10
15.700000
 20
2.800000
 30
0.000000
  8
1
 62
7
  6
L000000000000000000
  0
VERTEX
 10
15.200000
 20
2.800000
 30
0.000000
  8
1
 62
7
  6
L000000000000000000
  0
VERTEX
 10
15.200000
 20
2.300000
 30
0.000000
  8
1
 62
7
  6
L000000000000000000
  0
SEQEND
  0
POLYLINE
  8
1
 62
7
  6
L000000000000000000
 70
1
 66
1
  0
VERTEX
 10
16.500000
 20
2.300000
 30
0.000000
  8
1
 62
7
  6
L000000000000000000
  0
VERTEX
 10
16.500000
 20
2.800000
 30
0.000000
  8
1
 62
7
  6
L000000000000000000
  0
VERTEX
 10
16.000000
 20
2.800000
 30
0.000000
  8
1
 62
7
  6
L000000000000000000
  0
VERTEX
 10
16.000000
 20
2.300000
 30
0.000000
  8
1
 62
7
  6
L000000000000000000
  0
SEQEND
  0
POLYLINE
  8
1
 62
7
  6
L000000000000000000
 70
1
 66
1
  0
VERTEX
 10
16.500000
 20
3.100000
 30
0.000000
  8
1
 62
7
  6
L000000000000000000
  0
VERTEX
 10
16.500000
 20
3.600000
 30
0.000000
  8
1
 62
7
  6
L000000000000000000
  0
VERTEX
 10
16.000000
 20
3.600000
 30
0.000000
  8
1
 62
7
  6
L000000000000000000
  0
VERTEX
 10
16.000000
 20
3.100000
 30
0.000000
  8
1
 62
7
  6
L000000000000000000
  0
SEQEND
  0
POLYLINE
  8
1
 62
7
  6
L000000000000000000
 70
1
 66
1
  0
VERTEX
 10
15.700000
 20
3.900000
 30
0.000000
  8
1
 62
7
  6
L000000000000000000
  0
VERTEX
 10
15.700000
 20
4.400000
 30
0.000000
  8
1
 62
7
  6
L000000000000000000
  0
VERTEX
 10
15.200000
 20
4.400000
 30
0.000000
  8
1
 62
7
  6
L000000000000000000
  0
VERTEX
 10
15.200000
 20
3.900000
 30
0.000000
  8
1
 62
7
  6
L000000000000000000
  0
SEQEND
  0
POLYLINE
  8
1
 62
7
  6
L000000000000000000
 70
1
 66
1
  0
VERTEX
 10
14.900000
 20
3.900000
 30
0.000000
  8
1
 62
7
  6
L000000000000000000
  0
VERTEX
 10
14.900000
 20
4.400000
 30
0.000000
  8
1
 62
7
  6
L000000000000000000
  0
VERTEX
 10
14.400000
 20
4.400000
 30
0.000000
  8
1
 62
7
  6
L000000000000000000
  0
VERTEX
 10
14.400000
 20
3.900000
 30
0.000000
  8
1
 62
7
  6
L000000000000000000
  0
SEQEND
  0
POLYLINE
  8
1
 62
7
  6
L000000000000000000
 70
1
 66
1
  0
VERTEX
 10
14.900000
 20
3.100000
 30
0.000000
  8
1
 62
7
  6
L000000000000000000
  0
VERTEX
 10
14.900000
 20
3.600000
 30
0.000000
  8
1
 62
7
  6
L000000000000000000
  0
VERTEX
 10
14.400000
 20
3.600000
 30
0.000000
  8
1
 62
7
  6
L000000000000000000
  0
VERTEX
 10
14.400000
 20
3.100000
 30
0.000000
  8
1
 62
7
  6
L000000000000000000
  0
SEQEND
  0
POLYLINE
  8
1
 62
7
  6
L000000000000000000
 70
1
 66
1
  0
VERTEX
 10
14.900000
 20
2.300000
 30
0.000000
  8
1
 62
7
  6
L000000000000000000
  0
VERTEX
 10
14.900000
 20
2.800000
 30
0.000000
  8
1
 62
7
  6
L000000000000000000
  0
VERTEX
 10
14.400000
 20
2.800000
 30
0.000000
  8
1
 62
7
  6
L000000000000000000
  0
VERTEX
 10
14.400000
 20
2.300000
 30
0.000000
  8
1
 62
7
  6
L000000000000000000
  0
SEQEND
  0
POLYLINE
  8
1
 62
7
  6
L000000000000000000
 70
1
 66
1
  0
VERTEX
 10
14.900000
 20
1.500000
 30
0.000000
  8
1
 62
7
  6
L000000000000000000
  0
VERTEX
 10
14.900000
 20
2.000000
 30
0.000000
  8
1
 62
7
  6
L000000000000000000
  0
VERTEX
 10
14.400000
 20
2.000000
 30
0.000000
  8
1
 62
7
  6
L000000000000000000
  0
VERTEX
 10
14.400000
 20
1.500000
 30
0.000000
  8
1
 62
7
  6
L000000000000000000
  0
SEQEND
  0
POLYLINE
  8
1
 62
7
  6
L000000000000000000
 70
1
 66
1
  0
VERTEX
 10
15.700000
 20
1.500000
 30
0.000000
  8
1
 62
7
  6
L000000000000000000
  0
VERTEX
 10
15.700000
 20
2.000000
 30
0.000000
  8
1
 62
7
  6
L000000000000000000
  0
VERTEX
 10
15.200000
 20
2.000000
 30
0.000000
  8
1
 62
7
  6
L000000000000000000
  0
VERTEX
 10
15.200000
 20
1.500000
 30
0.000000
  8
1
 62
7
  6
L000000000000000000
  0
SEQEND
  0
POLYLINE
  8
1
 62
7
  6
L000000000000000000
 70
1
 66
1
  0
VERTEX
 10
16.500000
 20
1.500000
 30
0.000000
  8
1
 62
7
  6
L000000000000000000
  0
VERTEX
 10
16.500000
 20
2.000000
 30
0.000000
  8
1
 62
7
  6
L000000000000000000
  0
VERTEX
 10
16.000000
 20
2.000000
 30
0.000000
  8
1
 62
7
  6
L000000000000000000
  0
VERTEX
 10
16.000000
 20
1.500000
 30
0.000000
  8
1
 62
7
  6
L000000000000000000
  0
SEQEND
  0
POLYLINE
  8
1
 62
7
  6
L000000000000000000
 70
1
 66
1
  0
VERTEX
 10
17.300000
 20
6.300000
 30
0.000000
  8
1
 62
7
  6
L000000000000000000
  0
VERTEX
 10
17.300000
 20
6.800000
 30
0.000000
  8
1
 62
7
  6
L000000000000000000
  0
VERTEX
 10
16.800000
 20
6.800000
 30
0.000000
  8
1
 62
7
  6
L000000000000000000
  0
VERTEX
 10
16.800000
 20
6.300000
 30
0.000000
  8
1
 62
7
  6
L000000000000000000
  0
SEQEND
  0
POLYLINE
  8
1
 62
7
  6
L000000000000000000
 70
1
 66
1
  0
VERTEX
 10
18.900000
 20
6.300000
 30
0.000000
  8
1
 62
7
  6
L000000000000000000
  0
VERTEX
 10
18.900000
 20
6.800000
 30
0.000000
  8
1
 62
7
  6
L000000000000000000
  0
VERTEX
 10
18.400000
 20
6.800000
 30
0.000000
  8
1
 62
7
  6
L000000000000000000
  0
VERTEX
 10
18.400000
 20
6.300000
 30
0.000000
  8
1
 62
7
  6
L000000000000000000
  0
SEQEND
  0
POLYLINE
  8
1
 62
7
  6
L000000000000000000
 70
1
 66
1
  0
VERTEX
 10
18.900000
 20
5.500000
 30
0.000000
  8
1
 62
7
  6
L000000000000000000
  0
VERTEX
 10
18.900000
 20
6.000000
 30
0.000000
  8
1
 62
7
  6
L000000000000000000
  0
VERTEX
 10
18.400000
 20
6.000000
 30
0.000000
  8
1
 62
7
  6
L000000000000000000
  0
VERTEX
 10
18.400000
 20
5.500000
 30
0.000000
  8
1
 62
7
  6
L000000000000000000
  0
SEQEND
  0
POLYLINE
  8
1
 62
7
  6
L000000000000000000
 70
1
 66
1
  0
VERTEX
 10
18.100000
 20
6.300000
 30
0.000000
  8
1
 62
7
  6
L000000000000000000
  0
VERTEX
 10
18.100000
 20
6.800000
 30
0.000000
  8
1
 62
7
  6
L000000000000000000
  0
VERTEX
 10
17.600000
 20
6.800000
 30
0.000000
  8
1
 62
7
  6
L000000000000000000
  0
VERTEX
 10
17.600000
 20
6.300000
 30
0.000000
  8
1
 62
7
  6
L000000000000000000
  0
SEQEND
  0
POLYLINE
  8
1
 62
7
  6
L000000000000000000
 70
1
 66
1
  0
VERTEX
 10
17.300000
 20
5.500000
 30
0.000000
  8
1
 62
7
  6
L000000000000000000
  0
VERTEX
 10
17.300000
 20
6.000000
 30
0.000000
  8
1
 62
7
  6
L000000000000000000
  0
VERTEX
 10
16.800000
 20
6.000000
 30
0.000000
  8
1
 62
7
  6
L000000000000000000
  0
VERTEX
 10
16.800000
 20
5.500000
 30
0.000000
  8
1
 62
7
  6
L000000000000000000
  0
SEQEND
  0
POLYLINE
  8
1
 62
7
  6
L000000000000000000
 70
1
 66
1
  0
VERTEX
 10
18.100000
 20
5.500000
 30
0.000000
  8
1
 62
7
  6
L000000000000000000
  0
VERTEX
 10
18.100000
 20
6.000000
 30
0.000000
  8
1
 62
7
  6
L000000000000000000
  0
VERTEX
 10
17.600000
 20
6.000000
 30
0.000000
  8
1
 62
7
  6
L000000000000000000
  0
VERTEX
 10
17.600000
 20
5.500000
 30
0.000000
  8
1
 62
7
  6
L000000000000000000
  0
SEQEND
  0
POLYLINE
  8
1
 62
7
  6
L000000000000000000
 70
1
 66
1
  0
VERTEX
 10
17.300000
 20
4.700000
 30
0.000000
  8
1
 62
7
  6
L000000000000000000
  0
VERTEX
 10
17.300000
 20
5.200000
 30
0.000000
  8
1
 62
7
  6
L000000000000000000
  0
VERTEX
 10
16.800000
 20
5.200000
 30
0.000000
  8
1
 62
7
  6
L000000000000000000
  0
VERTEX
 10
16.800000
 20
4.700000
 30
0.000000
  8
1
 62
7
  6
L000000000000000000
  0
SEQEND
  0
POLYLINE
  8
1
 62
7
  6
L000000000000000000
 70
1
 66
1
  0
VERTEX
 10
18.100000
 20
4.700000
 30
0.000000
  8
1
 62
7
  6
L000000000000000000
  0
VERTEX
 10
18.100000
 20
5.200000
 30
0.000000
  8
1
 62
7
  6
L000000000000000000
  0
VERTEX
 10
17.600000
 20
5.200000
 30
0.000000
  8
1
 62
7
  6
L000000000000000000
  0
VERTEX
 10
17.600000
 20
4.700000
 30
0.000000
  8
1
 62
7
  6
L000000000000000000
  0
SEQEND
  0
POLYLINE
  8
1
 62
7
  6
L000000000000000000
 70
1
 66
1
  0
VERTEX
 10
18.900000
 20
4.700000
 30
0.000000
  8
1
 62
7
  6
L000000000000000000
  0
VERTEX
 10
18.900000
 20
5.200000
 30
0.000000
  8
1
 62
7
  6
L000000000000000000
  0
VERTEX
 10
18.400000
 20
5.200000
 30
0.000000
  8
1
 62
7
  6
L000000000000000000
  0
VERTEX
 10
18.400000
 20
4.700000
 30
0.000000
  8
1
 62
7
  6
L000000000000000000
  0
SEQEND
  0
POLYLINE
  8
1
 62
7
  6
L000000000000000000
 70
1
 66
1
  0
VERTEX
 10
18.900000
 20
3.900000
 30
0.000000
  8
1
 62
7
  6
L000000000000000000
  0
VERTEX
 10
18.900000
 20
4.400000
 30
0.000000
  8
1
 62
7
  6
L000000000000000000
  0
VERTEX
 10
18.400000
 20
4.400000
 30
0.000000
  8
1
 62
7
  6
L000000000000000000
  0
VERTEX
 10
18.400000
 20
3.900000
 30
0.000000
  8
1
 62
7
  6
L000000000000000000
  0
SEQEND
  0
POLYLINE
  8
1
 62
7
  6
L000000000000000000
 70
1
 66
1
  0
VERTEX
 10
18.100000
 20
3.100000
 30
0.000000
  8
1
 62
7
  6
L000000000000000000
  0
VERTEX
 10
18.100000
 20
3.600000
 30
0.000000
  8
1
 62
7
  6
L000000000000000000
  0
VERTEX
 10
17.600000
 20
3.600000
 30
0.000000
  8
1
 62
7
  6
L000000000000000000
  0
VERTEX
 10
17.600000
 20
3.100000
 30
0.000000
  8
1
 62
7
  6
L000000000000000000
  0
SEQEND
  0
POLYLINE
  8
1
 62
7
  6
L000000000000000000
 70
1
 66
1
  0
VERTEX
 10
18.100000
 20
2.300000
 30
0.000000
  8
1
 62
7
  6
L000000000000000000
  0
VERTEX
 10
18.100000
 20
2.800000
 30
0.000000
  8
1
 62
7
  6
L000000000000000000
  0
VERTEX
 10
17.600000
 20
2.800000
 30
0.000000
  8
1
 62
7
  6
L000000000000000000
  0
VERTEX
 10
17.600000
 20
2.300000
 30
0.000000
  8
1
 62
7
  6
L000000000000000000
  0
SEQEND
  0
POLYLINE
  8
1
 62
7
  6
L000000000000000000
 70
1
 66
1
  0
VERTEX
 10
18.900000
 20
2.300000
 30
0.000000
  8
1
 62
7
  6
L000000000000000000
  0
VERTEX
 10
18.900000
 20
2.800000
 30
0.000000
  8
1
 62
7
  6
L000000000000000000
  0
VERTEX
 10
18.400000
 20
2.800000
 30
0.000000
  8
1
 62
7
  6
L000000000000000000
  0
VERTEX
 10
18.400000
 20
2.300000
 30
0.000000
  8
1
 62
7
  6
L000000000000000000
  0
SEQEND
  0
POLYLINE
  8
1
 62
7
  6
L000000000000000000
 70
1
 66
1
  0
VERTEX
 10
18.900000
 20
3.100000
 30
0.000000
  8
1
 62
7
  6
L000000000000000000
  0
VERTEX
 10
18.900000
 20
3.600000
 30
0.000000
  8
1
 62
7
  6
L000000000000000000
  0
VERTEX
 10
18.400000
 20
3.600000
 30
0.000000
  8
1
 62
7
  6
L000000000000000000
  0
VERTEX
 10
18.400000
 20
3.100000
 30
0.000000
  8
1
 62
7
  6
L000000000000000000
  0
SEQEND
  0
POLYLINE
  8
1
 62
7
  6
L000000000000000000
 70
1
 66
1
  0
VERTEX
 10
18.100000
 20
3.900000
 30
0.000000
  8
1
 62
7
  6
L000000000000000000
  0
VERTEX
 10
18.100000
 20
4.400000
 30
0.000000
  8
1
 62
7
  6
L000000000000000000
  0
VERTEX
 10
17.600000
 20
4.400000
 30
0.000000
  8
1
 62
7
  6
L000000000000000000
  0
VERTEX
 10
17.600000
 20
3.900000
 30
0.000000
  8
1
 62
7
  6
L000000000000000000
  0
SEQEND
  0
POLYLINE
  8
1
 62
7
  6
L000000000000000000
 70
1
 66
1
  0
VERTEX
 10
17.300000
 20
3.900000
 30
0.000000
  8
1
 62
7
  6
L000000000000000000
  0
VERTEX
 10
17.300000
 20
4.400000
 30
0.000000
  8
1
 62
7
  6
L000000000000000000
  0
VERTEX
 10
16.800000
 20
4.400000
 30
0.000000
  8
1
 62
7
  6
L000000000000000000
  0
VERTEX
 10
16.800000
 20
3.900000
 30
0.000000
  8
1
 62
7
  6
L000000000000000000
  0
SEQEND
  0
POLYLINE
  8
1
 62
7
  6
L000000000000000000
 70
1
 66
1
  0
VERTEX
 10
17.300000
 20
3.100000
 30
0.000000
  8
1
 62
7
  6
L000000000000000000
  0
VERTEX
 10
17.300000
 20
3.600000
 30
0.000000
  8
1
 62
7
  6
L000000000000000000
  0
VERTEX
 10
16.800000
 20
3.600000
 30
0.000000
  8
1
 62
7
  6
L000000000000000000
  0
VERTEX
 10
16.800000
 20
3.100000
 30
0.000000
  8
1
 62
7
  6
L000000000000000000
  0
SEQEND
  0
POLYLINE
  8
1
 62
7
  6
L000000000000000000
 70
1
 66
1
  0
VERTEX
 10
17.300000
 20
2.300000
 30
0.000000
  8
1
 62
7
  6
L000000000000000000
  0
VERTEX
 10
17.300000
 20
2.800000
 30
0.000000
  8
1
 62
7
  6
L000000000000000000
  0
VERTEX
 10
16.800000
 20
2.800000
 30
0.000000
  8
1
 62
7
  6
L000000000000000000
  0
VERTEX
 10
16.800000
 20
2.300000
 30
0.000000
  8
1
 62
7
  6
L000000000000000000
  0
SEQEND
  0
POLYLINE
  8
1
 62
7
  6
L000000000000000000
 70
1
 66
1
  0
VERTEX
 10
17.300000
 20
1.500000
 30
0.000000
  8
1
 62
7
  6
L000000000000000000
  0
VERTEX
 10
17.300000
 20
2.000000
 30
0.000000
  8
1
 62
7
  6
L000000000000000000
  0
VERTEX
 10
16.800000
 20
2.000000
 30
0.000000
  8
1
 62
7
  6
L000000000000000000
  0
VERTEX
 10
16.800000
 20
1.500000
 30
0.000000
  8
1
 62
7
  6
L000000000000000000
  0
SEQEND
  0
POLYLINE
  8
1
 62
7
  6
L000000000000000000
 70
1
 66
1
  0
VERTEX
 10
18.100000
 20
1.500000
 30
0.000000
  8
1
 62
7
  6
L000000000000000000
  0
VERTEX
 10
18.100000
 20
2.000000
 30
0.000000
  8
1
 62
7
  6
L000000000000000000
  0
VERTEX
 10
17.600000
 20
2.000000
 30
0.000000
  8
1
 62
7
  6
L000000000000000000
  0
VERTEX
 10
17.600000
 20
1.500000
 30
0.000000
  8
1
 62
7
  6
L000000000000000000
  0
SEQEND
  0
POLYLINE
  8
1
 62
7
  6
L000000000000000000
 70
1
 66
1
  0
VERTEX
 10
18.900000
 20
1.500000
 30
0.000000
  8
1
 62
7
  6
L000000000000000000
  0
VERTEX
 10
18.900000
 20
2.000000
 30
0.000000
  8
1
 62
7
  6
L000000000000000000
  0
VERTEX
 10
18.400000
 20
2.000000
 30
0.000000
  8
1
 62
7
  6
L000000000000000000
  0
VERTEX
 10
18.400000
 20
1.500000
 30
0.000000
  8
1
 62
7
  6
L000000000000000000
  0
SEQEND
  0
POLYLINE
  8
1
 62
7
  6
L000000000000000000
 70
1
 66
1
  0
VERTEX
 10
19.700000
 20
6.300000
 30
0.000000
  8
1
 62
7
  6
L000000000000000000
  0
VERTEX
 10
19.700000
 20
6.800000
 30
0.000000
  8
1
 62
7
  6
L000000000000000000
  0
VERTEX
 10
19.200000
 20
6.800000
 30
0.000000
  8
1
 62
7
  6
L000000000000000000
  0
VERTEX
 10
19.200000
 20
6.300000
 30
0.000000
  8
1
 62
7
  6
L000000000000000000
  0
SEQEND
  0
POLYLINE
  8
1
 62
7
  6
L000000000000000000
 70
1
 66
1
  0
VERTEX
 10
21.300000
 20
6.300000
 30
0.000000
  8
1
 62
7
  6
L000000000000000000
  0
VERTEX
 10
21.300000
 20
6.800000
 30
0.000000
  8
1
 62
7
  6
L000000000000000000
  0
VERTEX
 10
20.800000
 20
6.800000
 30
0.000000
  8
1
 62
7
  6
L000000000000000000
  0
VERTEX
 10
20.800000
 20
6.300000
 30
0.000000
  8
1
 62
7
  6
L000000000000000000
  0
SEQEND
  0
POLYLINE
  8
1
 62
7
  6
L000000000000000000
 70
1
 66
1
  0
VERTEX
 10
21.300000
 20
5.500000
 30
0.000000
  8
1
 62
7
  6
L000000000000000000
  0
VERTEX
 10
21.300000
 20
6.000000
 30
0.000000
  8
1
 62
7
  6
L000000000000000000
  0
VERTEX
 10
20.800000
 20
6.000000
 30
0.000000
  8
1
 62
7
  6
L000000000000000000
  0
VERTEX
 10
20.800000
 20
5.500000
 30
0.000000
  8
1
 62
7
  6
L000000000000000000
  0
SEQEND
  0
POLYLINE
  8
1
 62
7
  6
L000000000000000000
 70
1
 66
1
  0
VERTEX
 10
20.500000
 20
6.300000
 30
0.000000
  8
1
 62
7
  6
L000000000000000000
  0
VERTEX
 10
20.500000
 20
6.800000
 30
0.000000
  8
1
 62
7
  6
L000000000000000000
  0
VERTEX
 10
20.000000
 20
6.800000
 30
0.000000
  8
1
 62
7
  6
L000000000000000000
  0
VERTEX
 10
20.000000
 20
6.300000
 30
0.000000
  8
1
 62
7
  6
L000000000000000000
  0
SEQEND
  0
POLYLINE
  8
1
 62
7
  6
L000000000000000000
 70
1
 66
1
  0
VERTEX
 10
19.700000
 20
5.500000
 30
0.000000
  8
1
 62
7
  6
L000000000000000000
  0
VERTEX
 10
19.700000
 20
6.000000
 30
0.000000
  8
1
 62
7
  6
L000000000000000000
  0
VERTEX
 10
19.200000
 20
6.000000
 30
0.000000
  8
1
 62
7
  6
L000000000000000000
  0
VERTEX
 10
19.200000
 20
5.500000
 30
0.000000
  8
1
 62
7
  6
L000000000000000000
  0
SEQEND
  0
POLYLINE
  8
1
 62
7
  6
L000000000000000000
 70
1
 66
1
  0
VERTEX
 10
20.500000
 20
5.500000
 30
0.000000
  8
1
 62
7
  6
L000000000000000000
  0
VERTEX
 10
20.500000
 20
6.000000
 30
0.000000
  8
1
 62
7
  6
L000000000000000000
  0
VERTEX
 10
20.000000
 20
6.000000
 30
0.000000
  8
1
 62
7
  6
L000000000000000000
  0
VERTEX
 10
20.000000
 20
5.500000
 30
0.000000
  8
1
 62
7
  6
L000000000000000000
  0
SEQEND
  0
POLYLINE
  8
1
 62
7
  6
L000000000000000000
 70
1
 66
1
  0
VERTEX
 10
19.700000
 20
4.700000
 30
0.000000
  8
1
 62
7
  6
L000000000000000000
  0
VERTEX
 10
19.700000
 20
5.200000
 30
0.000000
  8
1
 62
7
  6
L000000000000000000
  0
VERTEX
 10
19.200000
 20
5.200000
 30
0.000000
  8
1
 62
7
  6
L000000000000000000
  0
VERTEX
 10
19.200000
 20
4.700000
 30
0.000000
  8
1
 62
7
  6
L000000000000000000
  0
SEQEND
  0
POLYLINE
  8
1
 62
7
  6
L000000000000000000
 70
1
 66
1
  0
VERTEX
 10
20.500000
 20
4.700000
 30
0.000000
  8
1
 62
7
  6
L000000000000000000
  0
VERTEX
 10
20.500000
 20
5.200000
 30
0.000000
  8
1
 62
7
  6
L000000000000000000
  0
VERTEX
 10
20.000000
 20
5.200000
 30
0.000000
  8
1
 62
7
  6
L000000000000000000
  0
VERTEX
 10
20.000000
 20
4.700000
 30
0.000000
  8
1
 62
7
  6
L000000000000000000
  0
SEQEND
  0
POLYLINE
  8
1
 62
7
  6
L000000000000000000
 70
1
 66
1
  0
VERTEX
 10
21.300000
 20
4.700000
 30
0.000000
  8
1
 62
7
  6
L000000000000000000
  0
VERTEX
 10
21.300000
 20
5.200000
 30
0.000000
  8
1
 62
7
  6
L000000000000000000
  0
VERTEX
 10
20.800000
 20
5.200000
 30
0.000000
  8
1
 62
7
  6
L000000000000000000
  0
VERTEX
 10
20.800000
 20
4.700000
 30
0.000000
  8
1
 62
7
  6
L000000000000000000
  0
SEQEND
  0
POLYLINE
  8
1
 62
7
  6
L000000000000000000
 70
1
 66
1
  0
VERTEX
 10
21.300000
 20
3.900000
 30
0.000000
  8
1
 62
7
  6
L000000000000000000
  0
VERTEX
 10
21.300000
 20
4.400000
 30
0.000000
  8
1
 62
7
  6
L000000000000000000
  0
VERTEX
 10
20.800000
 20
4.400000
 30
0.000000
  8
1
 62
7
  6
L000000000000000000
  0
VERTEX
 10
20.800000
 20
3.900000
 30
0.000000
  8
1
 62
7
  6
L000000000000000000
  0
SEQEND
  0
POLYLINE
  8
1
 62
7
  6
L000000000000000000
 70
1
 66
1
  0
VERTEX
 10
20.500000
 20
3.100000
 30
0.000000
  8
1
 62
7
  6
L000000000000000000
  0
VERTEX
 10
20.500000
 20
3.600000
 30
0.000000
  8
1
 62
7
  6
L000000000000000000
  0
VERTEX
 10
20.000000
 20
3.600000
 30
0.000000
  8
1
 62
7
  6
L000000000000000000
  0
VERTEX
 10
20.000000
 20
3.100000
 30
0.000000
  8
1
 62
7
  6
L000000000000000000
  0
SEQEND
  0
POLYLINE
  8
1
 62
7
  6
L000000000000000000
 70
1
 66
1
  0
VERTEX
 10
20.500000
 20
2.300000
 30
0.000000
  8
1
 62
7
  6
L000000000000000000
  0
VERTEX
 10
20.500000
 20
2.800000
 30
0.000000
  8
1
 62
7
  6
L000000000000000000
  0
VERTEX
 10
20.000000
 20
2.800000
 30
0.000000
  8
1
 62
7
  6
L000000000000000000
  0
VERTEX
 10
20.000000
 20
2.300000
 30
0.000000
  8
1
 62
7
  6
L000000000000000000
  0
SEQEND
  0
POLYLINE
  8
1
 62
7
  6
L000000000000000000
 70
1
 66
1
  0
VERTEX
 10
21.300000
 20
2.300000
 30
0.000000
  8
1
 62
7
  6
L000000000000000000
  0
VERTEX
 10
21.300000
 20
2.800000
 30
0.000000
  8
1
 62
7
  6
L000000000000000000
  0
VERTEX
 10
20.800000
 20
2.800000
 30
0.000000
  8
1
 62
7
  6
L000000000000000000
  0
VERTEX
 10
20.800000
 20
2.300000
 30
0.000000
  8
1
 62
7
  6
L000000000000000000
  0
SEQEND
  0
POLYLINE
  8
1
 62
7
  6
L000000000000000000
 70
1
 66
1
  0
VERTEX
 10
21.300000
 20
3.100000
 30
0.000000
  8
1
 62
7
  6
L000000000000000000
  0
VERTEX
 10
21.300000
 20
3.600000
 30
0.000000
  8
1
 62
7
  6
L000000000000000000
  0
VERTEX
 10
20.800000
 20
3.600000
 30
0.000000
  8
1
 62
7
  6
L000000000000000000
  0
VERTEX
 10
20.800000
 20
3.100000
 30
0.000000
  8
1
 62
7
  6
L000000000000000000
  0
SEQEND
  0
POLYLINE
  8
1
 62
7
  6
L000000000000000000
 70
1
 66
1
  0
VERTEX
 10
20.500000
 20
3.900000
 30
0.000000
  8
1
 62
7
  6
L000000000000000000
  0
VERTEX
 10
20.500000
 20
4.400000
 30
0.000000
  8
1
 62
7
  6
L000000000000000000
  0
VERTEX
 10
20.000000
 20
4.400000
 30
0.000000
  8
1
 62
7
  6
L000000000000000000
  0
VERTEX
 10
20.000000
 20
3.900000
 30
0.000000
  8
1
 62
7
  6
L000000000000000000
  0
SEQEND
  0
POLYLINE
  8
1
 62
7
  6
L000000000000000000
 70
1
 66
1
  0
VERTEX
 10
19.700000
 20
3.900000
 30
0.000000
  8
1
 62
7
  6
L000000000000000000
  0
VERTEX
 10
19.700000
 20
4.400000
 30
0.000000
  8
1
 62
7
  6
L000000000000000000
  0
VERTEX
 10
19.200000
 20
4.400000
 30
0.000000
  8
1
 62
7
  6
L000000000000000000
  0
VERTEX
 10
19.200000
 20
3.900000
 30
0.000000
  8
1
 62
7
  6
L000000000000000000
  0
SEQEND
  0
POLYLINE
  8
1
 62
7
  6
L000000000000000000
 70
1
 66
1
  0
VERTEX
 10
19.700000
 20
3.100000
 30
0.000000
  8
1
 62
7
  6
L000000000000000000
  0
VERTEX
 10
19.700000
 20
3.600000
 30
0.000000
  8
1
 62
7
  6
L000000000000000000
  0
VERTEX
 10
19.200000
 20
3.600000
 30
0.000000
  8
1
 62
7
  6
L000000000000000000
  0
VERTEX
 10
19.200000
 20
3.100000
 30
0.000000
  8
1
 62
7
  6
L000000000000000000
  0
SEQEND
  0
POLYLINE
  8
1
 62
7
  6
L000000000000000000
 70
1
 66
1
  0
VERTEX
 10
19.700000
 20
2.300000
 30
0.000000
  8
1
 62
7
  6
L000000000000000000
  0
VERTEX
 10
19.700000
 20
2.800000
 30
0.000000
  8
1
 62
7
  6
L000000000000000000
  0
VERTEX
 10
19.200000
 20
2.800000
 30
0.000000
  8
1
 62
7
  6
L000000000000000000
  0
VERTEX
 10
19.200000
 20
2.300000
 30
0.000000
  8
1
 62
7
  6
L000000000000000000
  0
SEQEND
  0
POLYLINE
  8
1
 62
7
  6
L000000000000000000
 70
1
 66
1
  0
VERTEX
 10
19.700000
 20
1.500000
 30
0.000000
  8
1
 62
7
  6
L000000000000000000
  0
VERTEX
 10
19.700000
 20
2.000000
 30
0.000000
  8
1
 62
7
  6
L000000000000000000
  0
VERTEX
 10
19.200000
 20
2.000000
 30
0.000000
  8
1
 62
7
  6
L000000000000000000
  0
VERTEX
 10
19.200000
 20
1.500000
 30
0.000000
  8
1
 62
7
  6
L000000000000000000
  0
SEQEND
  0
POLYLINE
  8
1
 62
7
  6
L000000000000000000
 70
1
 66
1
  0
VERTEX
 10
20.500000
 20
1.500000
 30
0.000000
  8
1
 62
7
  6
L000000000000000000
  0
VERTEX
 10
20.500000
 20
2.000000
 30
0.000000
  8
1
 62
7
  6
L000000000000000000
  0
VERTEX
 10
20.000000
 20
2.000000
 30
0.000000
  8
1
 62
7
  6
L000000000000000000
  0
VERTEX
 10
20.000000
 20
1.500000
 30
0.000000
  8
1
 62
7
  6
L000000000000000000
  0
SEQEND
  0
POLYLINE
  8
1
 62
7
  6
L000000000000000000
 70
1
 66
1
  0
VERTEX
 10
21.300000
 20
1.500000
 30
0.000000
  8
1
 62
7
  6
L000000000000000000
  0
VERTEX
 10
21.300000
 20
2.000000
 30
0.000000
  8
1
 62
7
  6
L000000000000000000
  0
VERTEX
 10
20.800000
 20
2.000000
 30
0.000000
  8
1
 62
7
  6
L000000000000000000
  0
VERTEX
 10
20.800000
 20
1.500000
 30
0.000000
  8
1
 62
7
  6
L000000000000000000
  0
SEQEND
  0
POLYLINE
  8
1
 62
7
  6
L000000000000000000
 70
1
 66
1
  0
VERTEX
 10
22.100000
 20
6.300000
 30
0.000000
  8
1
 62
7
  6
L000000000000000000
  0
VERTEX
 10
22.100000
 20
6.800000
 30
0.000000
  8
1
 62
7
  6
L000000000000000000
  0
VERTEX
 10
21.600000
 20
6.800000
 30
0.000000
  8
1
 62
7
  6
L000000000000000000
  0
VERTEX
 10
21.600000
 20
6.300000
 30
0.000000
  8
1
 62
7
  6
L000000000000000000
  0
SEQEND
  0
POLYLINE
  8
1
 62
7
  6
L000000000000000000
 70
1
 66
1
  0
VERTEX
 10
23.700000
 20
6.300000
 30
0.000000
  8
1
 62
7
  6
L000000000000000000
  0
VERTEX
 10
23.700000
 20
6.800000
 30
0.000000
  8
1
 62
7
  6
L000000000000000000
  0
VERTEX
 10
23.200000
 20
6.800000
 30
0.000000
  8
1
 62
7
  6
L000000000000000000
  0
VERTEX
 10
23.200000
 20
6.300000
 30
0.000000
  8
1
 62
7
  6
L000000000000000000
  0
SEQEND
  0
POLYLINE
  8
1
 62
7
  6
L000000000000000000
 70
1
 66
1
  0
VERTEX
 10
23.700000
 20
5.500000
 30
0.000000
  8
1
 62
7
  6
L000000000000000000
  0
VERTEX
 10
23.700000
 20
6.000000
 30
0.000000
  8
1
 62
7
  6
L000000000000000000
  0
VERTEX
 10
23.200000
 20
6.000000
 30
0.000000
  8
1
 62
7
  6
L000000000000000000
  0
VERTEX
 10
23.200000
 20
5.500000
 30
0.000000
  8
1
 62
7
  6
L000000000000000000
  0
SEQEND
  0
POLYLINE
  8
1
 62
7
  6
L000000000000000000
 70
1
 66
1
  0
VERTEX
 10
22.900000
 20
6.300000
 30
0.000000
  8
1
 62
7
  6
L000000000000000000
  0
VERTEX
 10
22.900000
 20
6.800000
 30
0.000000
  8
1
 62
7
  6
L000000000000000000
  0
VERTEX
 10
22.400000
 20
6.800000
 30
0.000000
  8
1
 62
7
  6
L000000000000000000
  0
VERTEX
 10
22.400000
 20
6.300000
 30
0.000000
  8
1
 62
7
  6
L000000000000000000
  0
SEQEND
  0
POLYLINE
  8
1
 62
7
  6
L000000000000000000
 70
1
 66
1
  0
VERTEX
 10
22.100000
 20
5.500000
 30
0.000000
  8
1
 62
7
  6
L000000000000000000
  0
VERTEX
 10
22.100000
 20
6.000000
 30
0.000000
  8
1
 62
7
  6
L000000000000000000
  0
VERTEX
 10
21.600000
 20
6.000000
 30
0.000000
  8
1
 62
7
  6
L000000000000000000
  0
VERTEX
 10
21.600000
 20
5.500000
 30
0.000000
  8
1
 62
7
  6
L000000000000000000
  0
SEQEND
  0
POLYLINE
  8
1
 62
7
  6
L000000000000000000
 70
1
 66
1
  0
VERTEX
 10
22.900000
 20
5.500000
 30
0.000000
  8
1
 62
7
  6
L000000000000000000
  0
VERTEX
 10
22.900000
 20
6.000000
 30
0.000000
  8
1
 62
7
  6
L000000000000000000
  0
VERTEX
 10
22.400000
 20
6.000000
 30
0.000000
  8
1
 62
7
  6
L000000000000000000
  0
VERTEX
 10
22.400000
 20
5.500000
 30
0.000000
  8
1
 62
7
  6
L000000000000000000
  0
SEQEND
  0
POLYLINE
  8
1
 62
7
  6
L000000000000000000
 70
1
 66
1
  0
VERTEX
 10
22.100000
 20
4.700000
 30
0.000000
  8
1
 62
7
  6
L000000000000000000
  0
VERTEX
 10
22.100000
 20
5.200000
 30
0.000000
  8
1
 62
7
  6
L000000000000000000
  0
VERTEX
 10
21.600000
 20
5.200000
 30
0.000000
  8
1
 62
7
  6
L000000000000000000
  0
VERTEX
 10
21.600000
 20
4.700000
 30
0.000000
  8
1
 62
7
  6
L000000000000000000
  0
SEQEND
  0
POLYLINE
  8
1
 62
7
  6
L000000000000000000
 70
1
 66
1
  0
VERTEX
 10
22.900000
 20
4.700000
 30
0.000000
  8
1
 62
7
  6
L000000000000000000
  0
VERTEX
 10
22.900000
 20
5.200000
 30
0.000000
  8
1
 62
7
  6
L000000000000000000
  0
VERTEX
 10
22.400000
 20
5.200000
 30
0.000000
  8
1
 62
7
  6
L000000000000000000
  0
VERTEX
 10
22.400000
 20
4.700000
 30
0.000000
  8
1
 62
7
  6
L000000000000000000
  0
SEQEND
  0
POLYLINE
  8
1
 62
7
  6
L000000000000000000
 70
1
 66
1
  0
VERTEX
 10
23.700000
 20
4.700000
 30
0.000000
  8
1
 62
7
  6
L000000000000000000
  0
VERTEX
 10
23.700000
 20
5.200000
 30
0.000000
  8
1
 62
7
  6
L000000000000000000
  0
VERTEX
 10
23.200000
 20
5.200000
 30
0.000000
  8
1
 62
7
  6
L000000000000000000
  0
VERTEX
 10
23.200000
 20
4.700000
 30
0.000000
  8
1
 62
7
  6
L000000000000000000
  0
SEQEND
  0
POLYLINE
  8
1
 62
7
  6
L000000000000000000
 70
1
 66
1
  0
VERTEX
 10
23.700000
 20
3.900000
 30
0.000000
  8
1
 62
7
  6
L000000000000000000
  0
VERTEX
 10
23.700000
 20
4.400000
 30
0.000000
  8
1
 62
7
  6
L000000000000000000
  0
VERTEX
 10
23.200000
 20
4.400000
 30
0.000000
  8
1
 62
7
  6
L000000000000000000
  0
VERTEX
 10
23.200000
 20
3.900000
 30
0.000000
  8
1
 62
7
  6
L000000000000000000
  0
SEQEND
  0
POLYLINE
  8
1
 62
7
  6
L000000000000000000
 70
1
 66
1
  0
VERTEX
 10
22.900000
 20
3.100000
 30
0.000000
  8
1
 62
7
  6
L000000000000000000
  0
VERTEX
 10
22.900000
 20
3.600000
 30
0.000000
  8
1
 62
7
  6
L000000000000000000
  0
VERTEX
 10
22.400000
 20
3.600000
 30
0.000000
  8
1
 62
7
  6
L000000000000000000
  0
VERTEX
 10
22.400000
 20
3.100000
 30
0.000000
  8
1
 62
7
  6
L000000000000000000
  0
SEQEND
  0
POLYLINE
  8
1
 62
7
  6
L000000000000000000
 70
1
 66
1
  0
VERTEX
 10
22.900000
 20
2.300000
 30
0.000000
  8
1
 62
7
  6
L000000000000000000
  0
VERTEX
 10
22.900000
 20
2.800000
 30
0.000000
  8
1
 62
7
  6
L000000000000000000
  0
VERTEX
 10
22.400000
 20
2.800000
 30
0.000000
  8
1
 62
7
  6
L000000000000000000
  0
VERTEX
 10
22.400000
 20
2.300000
 30
0.000000
  8
1
 62
7
  6
L000000000000000000
  0
SEQEND
  0
POLYLINE
  8
1
 62
7
  6
L000000000000000000
 70
1
 66
1
  0
VERTEX
 10
23.700000
 20
2.300000
 30
0.000000
  8
1
 62
7
  6
L000000000000000000
  0
VERTEX
 10
23.700000
 20
2.800000
 30
0.000000
  8
1
 62
7
  6
L000000000000000000
  0
VERTEX
 10
23.200000
 20
2.800000
 30
0.000000
  8
1
 62
7
  6
L000000000000000000
  0
VERTEX
 10
23.200000
 20
2.300000
 30
0.000000
  8
1
 62
7
  6
L000000000000000000
  0
SEQEND
  0
POLYLINE
  8
1
 62
7
  6
L000000000000000000
 70
1
 66
1
  0
VERTEX
 10
23.700000
 20
3.100000
 30
0.000000
  8
1
 62
7
  6
L000000000000000000
  0
VERTEX
 10
23.700000
 20
3.600000
 30
0.000000
  8
1
 62
7
  6
L000000000000000000
  0
VERTEX
 10
23.200000
 20
3.600000
 30
0.000000
  8
1
 62
7
  6
L000000000000000000
  0
VERTEX
 10
23.200000
 20
3.100000
 30
0.000000
  8
1
 62
7
  6
L000000000000000000
  0
SEQEND
  0
POLYLINE
  8
1
 62
7
  6
L000000000000000000
 70
1
 66
1
  0
VERTEX
 10
22.900000
 20
3.900000
 30
0.000000
  8
1
 62
7
  6
L000000000000000000
  0
VERTEX
 10
22.900000
 20
4.400000
 30
0.000000
  8
1
 62
7
  6
L000000000000000000
  0
VERTEX
 10
22.400000
 20
4.400000
 30
0.000000
  8
1
 62
7
  6
L000000000000000000
  0
VERTEX
 10
22.400000
 20
3.900000
 30
0.000000
  8
1
 62
7
  6
L000000000000000000
  0
SEQEND
  0
POLYLINE
  8
1
 62
7
  6
L000000000000000000
 70
1
 66
1
  0
VERTEX
 10
22.100000
 20
3.900000
 30
0.000000
  8
1
 62
7
  6
L000000000000000000
  0
VERTEX
 10
22.100000
 20
4.400000
 30
0.000000
  8
1
 62
7
  6
L000000000000000000
  0
VERTEX
 10
21.600000
 20
4.400000
 30
0.000000
  8
1
 62
7
  6
L000000000000000000
  0
VERTEX
 10
21.600000
 20
3.900000
 30
0.000000
  8
1
 62
7
  6
L000000000000000000
  0
SEQEND
  0
POLYLINE
  8
1
 62
7
  6
L000000000000000000
 70
1
 66
1
  0
VERTEX
 10
22.100000
 20
3.100000
 30
0.000000
  8
1
 62
7
  6
L000000000000000000
  0
VERTEX
 10
22.100000
 20
3.600000
 30
0.000000
  8
1
 62
7
  6
L000000000000000000
  0
VERTEX
 10
21.600000
 20
3.600000
 30
0.000000
  8
1
 62
7
  6
L000000000000000000
  0
VERTEX
 10
21.600000
 20
3.100000
 30
0.000000
  8
1
 62
7
  6
L000000000000000000
  0
SEQEND
  0
POLYLINE
  8
1
 62
7
  6
L000000000000000000
 70
1
 66
1
  0
VERTEX
 10
22.100000
 20
2.300000
 30
0.000000
  8
1
 62
7
  6
L000000000000000000
  0
VERTEX
 10
22.100000
 20
2.800000
 30
0.000000
  8
1
 62
7
  6
L000000000000000000
  0
VERTEX
 10
21.600000
 20
2.800000
 30
0.000000
  8
1
 62
7
  6
L000000000000000000
  0
VERTEX
 10
21.600000
 20
2.300000
 30
0.000000
  8
1
 62
7
  6
L000000000000000000
  0
SEQEND
  0
POLYLINE
  8
1
 62
7
  6
L000000000000000000
 70
1
 66
1
  0
VERTEX
 10
22.100000
 20
1.500000
 30
0.000000
  8
1
 62
7
  6
L000000000000000000
  0
VERTEX
 10
22.100000
 20
2.000000
 30
0.000000
  8
1
 62
7
  6
L000000000000000000
  0
VERTEX
 10
21.600000
 20
2.000000
 30
0.000000
  8
1
 62
7
  6
L000000000000000000
  0
VERTEX
 10
21.600000
 20
1.500000
 30
0.000000
  8
1
 62
7
  6
L000000000000000000
  0
SEQEND
  0
POLYLINE
  8
1
 62
7
  6
L000000000000000000
 70
1
 66
1
  0
VERTEX
 10
22.900000
 20
1.500000
 30
0.000000
  8
1
 62
7
  6
L000000000000000000
  0
VERTEX
 10
22.900000
 20
2.000000
 30
0.000000
  8
1
 62
7
  6
L000000000000000000
  0
VERTEX
 10
22.400000
 20
2.000000
 30
0.000000
  8
1
 62
7
  6
L000000000000000000
  0
VERTEX
 10
22.400000
 20
1.500000
 30
0.000000
  8
1
 62
7
  6
L000000000000000000
  0
SEQEND
  0
POLYLINE
  8
1
 62
7
  6
L000000000000000000
 70
1
 66
1
  0
VERTEX
 10
23.700000
 20
1.500000
 30
0.000000
  8
1
 62
7
  6
L000000000000000000
  0
VERTEX
 10
23.700000
 20
2.000000
 30
0.000000
  8
1
 62
7
  6
L000000000000000000
  0
VERTEX
 10
23.200000
 20
2.000000
 30
0.000000
  8
1
 62
7
  6
L000000000000000000
  0
VERTEX
 10
23.200000
 20
1.500000
 30
0.000000
  8
1
 62
7
  6
L000000000000000000
  0
SEQEND
  0
POLYLINE
  8
1
 62
7
  6
L000000000000000000
 70
1
 66
1
  0
VERTEX
 10
24.500000
 20
6.300000
 30
0.000000
  8
1
 62
7
  6
L000000000000000000
  0
VERTEX
 10
24.500000
 20
6.800000
 30
0.000000
  8
1
 62
7
  6
L000000000000000000
  0
VERTEX
 10
24.000000
 20
6.800000
 30
0.000000
  8
1
 62
7
  6
L000000000000000000
  0
VERTEX
 10
24.000000
 20
6.300000
 30
0.000000
  8
1
 62
7
  6
L000000000000000000
  0
SEQEND
  0
POLYLINE
  8
1
 62
7
  6
L000000000000000000
 70
1
 66
1
  0
VERTEX
 10
26.100000
 20
6.300000
 30
0.000000
  8
1
 62
7
  6
L000000000000000000
  0
VERTEX
 10
26.100000
 20
6.800000
 30
0.000000
  8
1
 62
7
  6
L000000000000000000
  0
VERTEX
 10
25.600000
 20
6.800000
 30
0.000000
  8
1
 62
7
  6
L000000000000000000
  0
VERTEX
 10
25.600000
 20
6.300000
 30
0.000000
  8
1
 62
7
  6
L000000000000000000
  0
SEQEND
  0
POLYLINE
  8
1
 62
7
  6
L000000000000000000
 70
1
 66
1
  0
VERTEX
 10
26.100000
 20
5.500000
 30
0.000000
  8
1
 62
7
  6
L000000000000000000
  0
VERTEX
 10
26.100000
 20
6.000000
 30
0.000000
  8
1
 62
7
  6
L000000000000000000
  0
VERTEX
 10
25.600000
 20
6.000000
 30
0.000000
  8
1
 62
7
  6
L000000000000000000
  0
VERTEX
 10
25.600000
 20
5.500000
 30
0.000000
  8
1
 62
7
  6
L000000000000000000
  0
SEQEND
  0
POLYLINE
  8
1
 62
7
  6
L000000000000000000
 70
1
 66
1
  0
VERTEX
 10
25.300000
 20
6.300000
 30
0.000000
  8
1
 62
7
  6
L000000000000000000
  0
VERTEX
 10
25.300000
 20
6.800000
 30
0.000000
  8
1
 62
7
  6
L000000000000000000
  0
VERTEX
 10
24.800000
 20
6.800000
 30
0.000000
  8
1
 62
7
  6
L000000000000000000
  0
VERTEX
 10
24.800000
 20
6.300000
 30
0.000000
  8
1
 62
7
  6
L000000000000000000
  0
SEQEND
  0
POLYLINE
  8
1
 62
7
  6
L000000000000000000
 70
1
 66
1
  0
VERTEX
 10
24.500000
 20
5.500000
 30
0.000000
  8
1
 62
7
  6
L000000000000000000
  0
VERTEX
 10
24.500000
 20
6.000000
 30
0.000000
  8
1
 62
7
  6
L000000000000000000
  0
VERTEX
 10
24.000000
 20
6.000000
 30
0.000000
  8
1
 62
7
  6
L000000000000000000
  0
VERTEX
 10
24.000000
 20
5.500000
 30
0.000000
  8
1
 62
7
  6
L000000000000000000
  0
SEQEND
  0
POLYLINE
  8
1
 62
7
  6
L000000000000000000
 70
1
 66
1
  0
VERTEX
 10
25.300000
 20
5.500000
 30
0.000000
  8
1
 62
7
  6
L000000000000000000
  0
VERTEX
 10
25.300000
 20
6.000000
 30
0.000000
  8
1
 62
7
  6
L000000000000000000
  0
VERTEX
 10
24.800000
 20
6.000000
 30
0.000000
  8
1
 62
7
  6
L000000000000000000
  0
VERTEX
 10
24.800000
 20
5.500000
 30
0.000000
  8
1
 62
7
  6
L000000000000000000
  0
SEQEND
  0
POLYLINE
  8
1
 62
7
  6
L000000000000000000
 70
1
 66
1
  0
VERTEX
 10
24.500000
 20
4.700000
 30
0.000000
  8
1
 62
7
  6
L000000000000000000
  0
VERTEX
 10
24.500000
 20
5.200000
 30
0.000000
  8
1
 62
7
  6
L000000000000000000
  0
VERTEX
 10
24.000000
 20
5.200000
 30
0.000000
  8
1
 62
7
  6
L000000000000000000
  0
VERTEX
 10
24.000000
 20
4.700000
 30
0.000000
  8
1
 62
7
  6
L000000000000000000
  0
SEQEND
  0
POLYLINE
  8
1
 62
7
  6
L000000000000000000
 70
1
 66
1
  0
VERTEX
 10
25.300000
 20
4.700000
 30
0.000000
  8
1
 62
7
  6
L000000000000000000
  0
VERTEX
 10
25.300000
 20
5.200000
 30
0.000000
  8
1
 62
7
  6
L000000000000000000
  0
VERTEX
 10
24.800000
 20
5.200000
 30
0.000000
  8
1
 62
7
  6
L000000000000000000
  0
VERTEX
 10
24.800000
 20
4.700000
 30
0.000000
  8
1
 62
7
  6
L000000000000000000
  0
SEQEND
  0
POLYLINE
  8
1
 62
7
  6
L000000000000000000
 70
1
 66
1
  0
VERTEX
 10
26.100000
 20
4.700000
 30
0.000000
  8
1
 62
7
  6
L000000000000000000
  0
VERTEX
 10
26.100000
 20
5.200000
 30
0.000000
  8
1
 62
7
  6
L000000000000000000
  0
VERTEX
 10
25.600000
 20
5.200000
 30
0.000000
  8
1
 62
7
  6
L000000000000000000
  0
VERTEX
 10
25.600000
 20
4.700000
 30
0.000000
  8
1
 62
7
  6
L000000000000000000
  0
SEQEND
  0
POLYLINE
  8
1
 62
7
  6
L000000000000000000
 70
1
 66
1
  0
VERTEX
 10
26.100000
 20
3.900000
 30
0.000000
  8
1
 62
7
  6
L000000000000000000
  0
VERTEX
 10
26.100000
 20
4.400000
 30
0.000000
  8
1
 62
7
  6
L000000000000000000
  0
VERTEX
 10
25.600000
 20
4.400000
 30
0.000000
  8
1
 62
7
  6
L000000000000000000
  0
VERTEX
 10
25.600000
 20
3.900000
 30
0.000000
  8
1
 62
7
  6
L000000000000000000
  0
SEQEND
  0
POLYLINE
  8
1
 62
7
  6
L000000000000000000
 70
1
 66
1
  0
VERTEX
 10
25.300000
 20
3.100000
 30
0.000000
  8
1
 62
7
  6
L000000000000000000
  0
VERTEX
 10
25.300000
 20
3.600000
 30
0.000000
  8
1
 62
7
  6
L000000000000000000
  0
VERTEX
 10
24.800000
 20
3.600000
 30
0.000000
  8
1
 62
7
  6
L000000000000000000
  0
VERTEX
 10
24.800000
 20
3.100000
 30
0.000000
  8
1
 62
7
  6
L000000000000000000
  0
SEQEND
  0
POLYLINE
  8
1
 62
7
  6
L000000000000000000
 70
1
 66
1
  0
VERTEX
 10
25.300000
 20
2.300000
 30
0.000000
  8
1
 62
7
  6
L000000000000000000
  0
VERTEX
 10
25.300000
 20
2.800000
 30
0.000000
  8
1
 62
7
  6
L000000000000000000
  0
VERTEX
 10
24.800000
 20
2.800000
 30
0.000000
  8
1
 62
7
  6
L000000000000000000
  0
VERTEX
 10
24.800000
 20
2.300000
 30
0.000000
  8
1
 62
7
  6
L000000000000000000
  0
SEQEND
  0
POLYLINE
  8
1
 62
7
  6
L000000000000000000
 70
1
 66
1
  0
VERTEX
 10
26.100000
 20
2.300000
 30
0.000000
  8
1
 62
7
  6
L000000000000000000
  0
VERTEX
 10
26.100000
 20
2.800000
 30
0.000000
  8
1
 62
7
  6
L000000000000000000
  0
VERTEX
 10
25.600000
 20
2.800000
 30
0.000000
  8
1
 62
7
  6
L000000000000000000
  0
VERTEX
 10
25.600000
 20
2.300000
 30
0.000000
  8
1
 62
7
  6
L000000000000000000
  0
SEQEND
  0
POLYLINE
  8
1
 62
7
  6
L000000000000000000
 70
1
 66
1
  0
VERTEX
 10
26.100000
 20
3.100000
 30
0.000000
  8
1
 62
7
  6
L000000000000000000
  0
VERTEX
 10
26.100000
 20
3.600000
 30
0.000000
  8
1
 62
7
  6
L000000000000000000
  0
VERTEX
 10
25.600000
 20
3.600000
 30
0.000000
  8
1
 62
7
  6
L000000000000000000
  0
VERTEX
 10
25.600000
 20
3.100000
 30
0.000000
  8
1
 62
7
  6
L000000000000000000
  0
SEQEND
  0
POLYLINE
  8
1
 62
7
  6
L000000000000000000
 70
1
 66
1
  0
VERTEX
 10
25.300000
 20
3.900000
 30
0.000000
  8
1
 62
7
  6
L000000000000000000
  0
VERTEX
 10
25.300000
 20
4.400000
 30
0.000000
  8
1
 62
7
  6
L000000000000000000
  0
VERTEX
 10
24.800000
 20
4.400000
 30
0.000000
  8
1
 62
7
  6
L000000000000000000
  0
VERTEX
 10
24.800000
 20
3.900000
 30
0.000000
  8
1
 62
7
  6
L000000000000000000
  0
SEQEND
  0
POLYLINE
  8
1
 62
7
  6
L000000000000000000
 70
1
 66
1
  0
VERTEX
 10
24.500000
 20
3.900000
 30
0.000000
  8
1
 62
7
  6
L000000000000000000
  0
VERTEX
 10
24.500000
 20
4.400000
 30
0.000000
  8
1
 62
7
  6
L000000000000000000
  0
VERTEX
 10
24.000000
 20
4.400000
 30
0.000000
  8
1
 62
7
  6
L000000000000000000
  0
VERTEX
 10
24.000000
 20
3.900000
 30
0.000000
  8
1
 62
7
  6
L000000000000000000
  0
SEQEND
  0
POLYLINE
  8
1
 62
7
  6
L000000000000000000
 70
1
 66
1
  0
VERTEX
 10
24.500000
 20
3.100000
 30
0.000000
  8
1
 62
7
  6
L000000000000000000
  0
VERTEX
 10
24.500000
 20
3.600000
 30
0.000000
  8
1
 62
7
  6
L000000000000000000
  0
VERTEX
 10
24.000000
 20
3.600000
 30
0.000000
  8
1
 62
7
  6
L000000000000000000
  0
VERTEX
 10
24.000000
 20
3.100000
 30
0.000000
  8
1
 62
7
  6
L000000000000000000
  0
SEQEND
  0
POLYLINE
  8
1
 62
7
  6
L000000000000000000
 70
1
 66
1
  0
VERTEX
 10
24.500000
 20
2.300000
 30
0.000000
  8
1
 62
7
  6
L000000000000000000
  0
VERTEX
 10
24.500000
 20
2.800000
 30
0.000000
  8
1
 62
7
  6
L000000000000000000
  0
VERTEX
 10
24.000000
 20
2.800000
 30
0.000000
  8
1
 62
7
  6
L000000000000000000
  0
VERTEX
 10
24.000000
 20
2.300000
 30
0.000000
  8
1
 62
7
  6
L000000000000000000
  0
SEQEND
  0
POLYLINE
  8
1
 62
7
  6
L000000000000000000
 70
1
 66
1
  0
VERTEX
 10
24.500000
 20
1.500000
 30
0.000000
  8
1
 62
7
  6
L000000000000000000
  0
VERTEX
 10
24.500000
 20
2.000000
 30
0.000000
  8
1
 62
7
  6
L000000000000000000
  0
VERTEX
 10
24.000000
 20
2.000000
 30
0.000000
  8
1
 62
7
  6
L000000000000000000
  0
VERTEX
 10
24.000000
 20
1.500000
 30
0.000000
  8
1
 62
7
  6
L000000000000000000
  0
SEQEND
  0
POLYLINE
  8
1
 62
7
  6
L000000000000000000
 70
1
 66
1
  0
VERTEX
 10
25.300000
 20
1.500000
 30
0.000000
  8
1
 62
7
  6
L000000000000000000
  0
VERTEX
 10
25.300000
 20
2.000000
 30
0.000000
  8
1
 62
7
  6
L000000000000000000
  0
VERTEX
 10
24.800000
 20
2.000000
 30
0.000000
  8
1
 62
7
  6
L000000000000000000
  0
VERTEX
 10
24.800000
 20
1.500000
 30
0.000000
  8
1
 62
7
  6
L000000000000000000
  0
SEQEND
  0
POLYLINE
  8
1
 62
7
  6
L000000000000000000
 70
1
 66
1
  0
VERTEX
 10
26.100000
 20
1.500000
 30
0.000000
  8
1
 62
7
  6
L000000000000000000
  0
VERTEX
 10
26.100000
 20
2.000000
 30
0.000000
  8
1
 62
7
  6
L000000000000000000
  0
VERTEX
 10
25.600000
 20
2.000000
 30
0.000000
  8
1
 62
7
  6
L000000000000000000
  0
VERTEX
 10
25.600000
 20
1.500000
 30
0.000000
  8
1
 62
7
  6
L000000000000000000
  0
SEQEND
  0
POLYLINE
  8
1
 62
7
  6
L000000000000000000
 70
1
 66
1
  0
VERTEX
 10
26.900000
 20
6.300000
 30
0.000000
  8
1
 62
7
  6
L000000000000000000
  0
VERTEX
 10
26.900000
 20
6.800000
 30
0.000000
  8
1
 62
7
  6
L000000000000000000
  0
VERTEX
 10
26.400000
 20
6.800000
 30
0.000000
  8
1
 62
7
  6
L000000000000000000
  0
VERTEX
 10
26.400000
 20
6.300000
 30
0.000000
  8
1
 62
7
  6
L000000000000000000
  0
SEQEND
  0
POLYLINE
  8
1
 62
7
  6
L000000000000000000
 70
1
 66
1
  0
VERTEX
 10
28.500000
 20
6.300000
 30
0.000000
  8
1
 62
7
  6
L000000000000000000
  0
VERTEX
 10
28.500000
 20
6.800000
 30
0.000000
  8
1
 62
7
  6
L000000000000000000
  0
VERTEX
 10
28.000000
 20
6.800000
 30
0.000000
  8
1
 62
7
  6
L000000000000000000
  0
VERTEX
 10
28.000000
 20
6.300000
 30
0.000000
  8
1
 62
7
  6
L000000000000000000
  0
SEQEND
  0
POLYLINE
  8
1
 62
7
  6
L000000000000000000
 70
1
 66
1
  0
VERTEX
 10
28.500000
 20
5.500000
 30
0.000000
  8
1
 62
7
  6
L000000000000000000
  0
VERTEX
 10
28.500000
 20
6.000000
 30
0.000000
  8
1
 62
7
  6
L000000000000000000
  0
VERTEX
 10
28.000000
 20
6.000000
 30
0.000000
  8
1
 62
7
  6
L000000000000000000
  0
VERTEX
 10
28.000000
 20
5.500000
 30
0.000000
  8
1
 62
7
  6
L000000000000000000
  0
SEQEND
  0
POLYLINE
  8
1
 62
7
  6
L000000000000000000
 70
1
 66
1
  0
VERTEX
 10
27.700000
 20
6.300000
 30
0.000000
  8
1
 62
7
  6
L000000000000000000
  0
VERTEX
 10
27.700000
 20
6.800000
 30
0.000000
  8
1
 62
7
  6
L000000000000000000
  0
VERTEX
 10
27.200000
 20
6.800000
 30
0.000000
  8
1
 62
7
  6
L000000000000000000
  0
VERTEX
 10
27.200000
 20
6.300000
 30
0.000000
  8
1
 62
7
  6
L000000000000000000
  0
SEQEND
  0
POLYLINE
  8
1
 62
7
  6
L000000000000000000
 70
1
 66
1
  0
VERTEX
 10
26.900000
 20
5.500000
 30
0.000000
  8
1
 62
7
  6
L000000000000000000
  0
VERTEX
 10
26.900000
 20
6.000000
 30
0.000000
  8
1
 62
7
  6
L000000000000000000
  0
VERTEX
 10
26.400000
 20
6.000000
 30
0.000000
  8
1
 62
7
  6
L000000000000000000
  0
VERTEX
 10
26.400000
 20
5.500000
 30
0.000000
  8
1
 62
7
  6
L000000000000000000
  0
SEQEND
  0
POLYLINE
  8
1
 62
7
  6
L000000000000000000
 70
1
 66
1
  0
VERTEX
 10
27.700000
 20
5.500000
 30
0.000000
  8
1
 62
7
  6
L000000000000000000
  0
VERTEX
 10
27.700000
 20
6.000000
 30
0.000000
  8
1
 62
7
  6
L000000000000000000
  0
VERTEX
 10
27.200000
 20
6.000000
 30
0.000000
  8
1
 62
7
  6
L000000000000000000
  0
VERTEX
 10
27.200000
 20
5.500000
 30
0.000000
  8
1
 62
7
  6
L000000000000000000
  0
SEQEND
  0
POLYLINE
  8
1
 62
7
  6
L000000000000000000
 70
1
 66
1
  0
VERTEX
 10
26.900000
 20
4.700000
 30
0.000000
  8
1
 62
7
  6
L000000000000000000
  0
VERTEX
 10
26.900000
 20
5.200000
 30
0.000000
  8
1
 62
7
  6
L000000000000000000
  0
VERTEX
 10
26.400000
 20
5.200000
 30
0.000000
  8
1
 62
7
  6
L000000000000000000
  0
VERTEX
 10
26.400000
 20
4.700000
 30
0.000000
  8
1
 62
7
  6
L000000000000000000
  0
SEQEND
  0
POLYLINE
  8
1
 62
7
  6
L000000000000000000
 70
1
 66
1
  0
VERTEX
 10
27.700000
 20
4.700000
 30
0.000000
  8
1
 62
7
  6
L000000000000000000
  0
VERTEX
 10
27.700000
 20
5.200000
 30
0.000000
  8
1
 62
7
  6
L000000000000000000
  0
VERTEX
 10
27.200000
 20
5.200000
 30
0.000000
  8
1
 62
7
  6
L000000000000000000
  0
VERTEX
 10
27.200000
 20
4.700000
 30
0.000000
  8
1
 62
7
  6
L000000000000000000
  0
SEQEND
  0
POLYLINE
  8
1
 62
7
  6
L000000000000000000
 70
1
 66
1
  0
VERTEX
 10
28.500000
 20
4.700000
 30
0.000000
  8
1
 62
7
  6
L000000000000000000
  0
VERTEX
 10
28.500000
 20
5.200000
 30
0.000000
  8
1
 62
7
  6
L000000000000000000
  0
VERTEX
 10
28.000000
 20
5.200000
 30
0.000000
  8
1
 62
7
  6
L000000000000000000
  0
VERTEX
 10
28.000000
 20
4.700000
 30
0.000000
  8
1
 62
7
  6
L000000000000000000
  0
SEQEND
  0
POLYLINE
  8
1
 62
7
  6
L000000000000000000
 70
1
 66
1
  0
VERTEX
 10
28.500000
 20
3.900000
 30
0.000000
  8
1
 62
7
  6
L000000000000000000
  0
VERTEX
 10
28.500000
 20
4.400000
 30
0.000000
  8
1
 62
7
  6
L000000000000000000
  0
VERTEX
 10
28.000000
 20
4.400000
 30
0.000000
  8
1
 62
7
  6
L000000000000000000
  0
VERTEX
 10
28.000000
 20
3.900000
 30
0.000000
  8
1
 62
7
  6
L000000000000000000
  0
SEQEND
  0
POLYLINE
  8
1
 62
7
  6
L000000000000000000
 70
1
 66
1
  0
VERTEX
 10
27.700000
 20
3.100000
 30
0.000000
  8
1
 62
7
  6
L000000000000000000
  0
VERTEX
 10
27.700000
 20
3.600000
 30
0.000000
  8
1
 62
7
  6
L000000000000000000
  0
VERTEX
 10
27.200000
 20
3.600000
 30
0.000000
  8
1
 62
7
  6
L000000000000000000
  0
VERTEX
 10
27.200000
 20
3.100000
 30
0.000000
  8
1
 62
7
  6
L000000000000000000
  0
SEQEND
  0
POLYLINE
  8
1
 62
7
  6
L000000000000000000
 70
1
 66
1
  0
VERTEX
 10
27.700000
 20
2.300000
 30
0.000000
  8
1
 62
7
  6
L000000000000000000
  0
VERTEX
 10
27.700000
 20
2.800000
 30
0.000000
  8
1
 62
7
  6
L000000000000000000
  0
VERTEX
 10
27.200000
 20
2.800000
 30
0.000000
  8
1
 62
7
  6
L000000000000000000
  0
VERTEX
 10
27.200000
 20
2.300000
 30
0.000000
  8
1
 62
7
  6
L000000000000000000
  0
SEQEND
  0
POLYLINE
  8
1
 62
7
  6
L000000000000000000
 70
1
 66
1
  0
VERTEX
 10
28.500000
 20
2.300000
 30
0.000000
  8
1
 62
7
  6
L000000000000000000
  0
VERTEX
 10
28.500000
 20
2.800000
 30
0.000000
  8
1
 62
7
  6
L000000000000000000
  0
VERTEX
 10
28.000000
 20
2.800000
 30
0.000000
  8
1
 62
7
  6
L000000000000000000
  0
VERTEX
 10
28.000000
 20
2.300000
 30
0.000000
  8
1
 62
7
  6
L000000000000000000
  0
SEQEND
  0
POLYLINE
  8
1
 62
7
  6
L000000000000000000
 70
1
 66
1
  0
VERTEX
 10
28.500000
 20
3.100000
 30
0.000000
  8
1
 62
7
  6
L000000000000000000
  0
VERTEX
 10
28.500000
 20
3.600000
 30
0.000000
  8
1
 62
7
  6
L000000000000000000
  0
VERTEX
 10
28.000000
 20
3.600000
 30
0.000000
  8
1
 62
7
  6
L000000000000000000
  0
VERTEX
 10
28.000000
 20
3.100000
 30
0.000000
  8
1
 62
7
  6
L000000000000000000
  0
SEQEND
  0
POLYLINE
  8
1
 62
7
  6
L000000000000000000
 70
1
 66
1
  0
VERTEX
 10
27.700000
 20
3.900000
 30
0.000000
  8
1
 62
7
  6
L000000000000000000
  0
VERTEX
 10
27.700000
 20
4.400000
 30
0.000000
  8
1
 62
7
  6
L000000000000000000
  0
VERTEX
 10
27.200000
 20
4.400000
 30
0.000000
  8
1
 62
7
  6
L000000000000000000
  0
VERTEX
 10
27.200000
 20
3.900000
 30
0.000000
  8
1
 62
7
  6
L000000000000000000
  0
SEQEND
  0
POLYLINE
  8
1
 62
7
  6
L000000000000000000
 70
1
 66
1
  0
VERTEX
 10
26.900000
 20
3.900000
 30
0.000000
  8
1
 62
7
  6
L000000000000000000
  0
VERTEX
 10
26.900000
 20
4.400000
 30
0.000000
  8
1
 62
7
  6
L000000000000000000
  0
VERTEX
 10
26.400000
 20
4.400000
 30
0.000000
  8
1
 62
7
  6
L000000000000000000
  0
VERTEX
 10
26.400000
 20
3.900000
 30
0.000000
  8
1
 62
7
  6
L000000000000000000
  0
SEQEND
  0
POLYLINE
  8
1
 62
7
  6
L000000000000000000
 70
1
 66
1
  0
VERTEX
 10
26.900000
 20
3.100000
 30
0.000000
  8
1
 62
7
  6
L000000000000000000
  0
VERTEX
 10
26.900000
 20
3.600000
 30
0.000000
  8
1
 62
7
  6
L000000000000000000
  0
VERTEX
 10
26.400000
 20
3.600000
 30
0.000000
  8
1
 62
7
  6
L000000000000000000
  0
VERTEX
 10
26.400000
 20
3.100000
 30
0.000000
  8
1
 62
7
  6
L000000000000000000
  0
SEQEND
  0
POLYLINE
  8
1
 62
7
  6
L000000000000000000
 70
1
 66
1
  0
VERTEX
 10
26.900000
 20
2.300000
 30
0.000000
  8
1
 62
7
  6
L000000000000000000
  0
VERTEX
 10
26.900000
 20
2.800000
 30
0.000000
  8
1
 62
7
  6
L000000000000000000
  0
VERTEX
 10
26.400000
 20
2.800000
 30
0.000000
  8
1
 62
7
  6
L000000000000000000
  0
VERTEX
 10
26.400000
 20
2.300000
 30
0.000000
  8
1
 62
7
  6
L000000000000000000
  0
SEQEND
  0
POLYLINE
  8
1
 62
7
  6
L000000000000000000
 70
1
 66
1
  0
VERTEX
 10
26.900000
 20
1.500000
 30
0.000000
  8
1
 62
7
  6
L000000000000000000
  0
VERTEX
 10
26.900000
 20
2.000000
 30
0.000000
  8
1
 62
7
  6
L000000000000000000
  0
VERTEX
 10
26.400000
 20
2.000000
 30
0.000000
  8
1
 62
7
  6
L000000000000000000
  0
VERTEX
 10
26.400000
 20
1.500000
 30
0.000000
  8
1
 62
7
  6
L000000000000000000
  0
SEQEND
  0
POLYLINE
  8
1
 62
7
  6
L000000000000000000
 70
1
 66
1
  0
VERTEX
 10
27.700000
 20
1.500000
 30
0.000000
  8
1
 62
7
  6
L000000000000000000
  0
VERTEX
 10
27.700000
 20
2.000000
 30
0.000000
  8
1
 62
7
  6
L000000000000000000
  0
VERTEX
 10
27.200000
 20
2.000000
 30
0.000000
  8
1
 62
7
  6
L000000000000000000
  0
VERTEX
 10
27.200000
 20
1.500000
 30
0.000000
  8
1
 62
7
  6
L000000000000000000
  0
SEQEND
  0
POLYLINE
  8
1
 62
7
  6
L000000000000000000
 70
1
 66
1
  0
VERTEX
 10
28.500000
 20
1.500000
 30
0.000000
  8
1
 62
7
  6
L000000000000000000
  0
VERTEX
 10
28.500000
 20
2.000000
 30
0.000000
  8
1
 62
7
  6
L000000000000000000
  0
VERTEX
 10
28.000000
 20
2.000000
 30
0.000000
  8
1
 62
7
  6
L000000000000000000
  0
VERTEX
 10
28.000000
 20
1.500000
 30
0.000000
  8
1
 62
7
  6
L000000000000000000
  0
SEQEND
  0
POLYLINE
  8
1
 62
7
  6
L000000000000000000
 70
1
 66
1
  0
VERTEX
 10
29.300000
 20
6.300000
 30
0.000000
  8
1
 62
7
  6
L000000000000000000
  0
VERTEX
 10
29.300000
 20
6.800000
 30
0.000000
  8
1
 62
7
  6
L000000000000000000
  0
VERTEX
 10
28.800000
 20
6.800000
 30
0.000000
  8
1
 62
7
  6
L000000000000000000
  0
VERTEX
 10
28.800000
 20
6.300000
 30
0.000000
  8
1
 62
7
  6
L000000000000000000
  0
SEQEND
  0
POLYLINE
  8
1
 62
7
  6
L000000000000000000
 70
1
 66
1
  0
VERTEX
 10
30.900000
 20
6.300000
 30
0.000000
  8
1
 62
7
  6
L000000000000000000
  0
VERTEX
 10
30.900000
 20
6.800000
 30
0.000000
  8
1
 62
7
  6
L000000000000000000
  0
VERTEX
 10
30.400000
 20
6.800000
 30
0.000000
  8
1
 62
7
  6
L000000000000000000
  0
VERTEX
 10
30.400000
 20
6.300000
 30
0.000000
  8
1
 62
7
  6
L000000000000000000
  0
SEQEND
  0
POLYLINE
  8
1
 62
7
  6
L000000000000000000
 70
1
 66
1
  0
VERTEX
 10
30.900000
 20
5.500000
 30
0.000000
  8
1
 62
7
  6
L000000000000000000
  0
VERTEX
 10
30.900000
 20
6.000000
 30
0.000000
  8
1
 62
7
  6
L000000000000000000
  0
VERTEX
 10
30.400000
 20
6.000000
 30
0.000000
  8
1
 62
7
  6
L000000000000000000
  0
VERTEX
 10
30.400000
 20
5.500000
 30
0.000000
  8
1
 62
7
  6
L000000000000000000
  0
SEQEND
  0
POLYLINE
  8
1
 62
7
  6
L000000000000000000
 70
1
 66
1
  0
VERTEX
 10
30.100000
 20
6.300000
 30
0.000000
  8
1
 62
7
  6
L000000000000000000
  0
VERTEX
 10
30.100000
 20
6.800000
 30
0.000000
  8
1
 62
7
  6
L000000000000000000
  0
VERTEX
 10
29.600000
 20
6.800000
 30
0.000000
  8
1
 62
7
  6
L000000000000000000
  0
VERTEX
 10
29.600000
 20
6.300000
 30
0.000000
  8
1
 62
7
  6
L000000000000000000
  0
SEQEND
  0
POLYLINE
  8
1
 62
7
  6
L000000000000000000
 70
1
 66
1
  0
VERTEX
 10
29.300000
 20
5.500000
 30
0.000000
  8
1
 62
7
  6
L000000000000000000
  0
VERTEX
 10
29.300000
 20
6.000000
 30
0.000000
  8
1
 62
7
  6
L000000000000000000
  0
VERTEX
 10
28.800000
 20
6.000000
 30
0.000000
  8
1
 62
7
  6
L000000000000000000
  0
VERTEX
 10
28.800000
 20
5.500000
 30
0.000000
  8
1
 62
7
  6
L000000000000000000
  0
SEQEND
  0
POLYLINE
  8
1
 62
7
  6
L000000000000000000
 70
1
 66
1
  0
VERTEX
 10
30.100000
 20
5.500000
 30
0.000000
  8
1
 62
7
  6
L000000000000000000
  0
VERTEX
 10
30.100000
 20
6.000000
 30
0.000000
  8
1
 62
7
  6
L000000000000000000
  0
VERTEX
 10
29.600000
 20
6.000000
 30
0.000000
  8
1
 62
7
  6
L000000000000000000
  0
VERTEX
 10
29.600000
 20
5.500000
 30
0.000000
  8
1
 62
7
  6
L000000000000000000
  0
SEQEND
  0
POLYLINE
  8
1
 62
7
  6
L000000000000000000
 70
1
 66
1
  0
VERTEX
 10
29.300000
 20
4.700000
 30
0.000000
  8
1
 62
7
  6
L000000000000000000
  0
VERTEX
 10
29.300000
 20
5.200000
 30
0.000000
  8
1
 62
7
  6
L000000000000000000
  0
VERTEX
 10
28.800000
 20
5.200000
 30
0.000000
  8
1
 62
7
  6
L000000000000000000
  0
VERTEX
 10
28.800000
 20
4.700000
 30
0.000000
  8
1
 62
7
  6
L000000000000000000
  0
SEQEND
  0
POLYLINE
  8
1
 62
7
  6
L000000000000000000
 70
1
 66
1
  0
VERTEX
 10
30.100000
 20
4.700000
 30
0.000000
  8
1
 62
7
  6
L000000000000000000
  0
VERTEX
 10
30.100000
 20
5.200000
 30
0.000000
  8
1
 62
7
  6
L000000000000000000
  0
VERTEX
 10
29.600000
 20
5.200000
 30
0.000000
  8
1
 62
7
  6
L000000000000000000
  0
VERTEX
 10
29.600000
 20
4.700000
 30
0.000000
  8
1
 62
7
  6
L000000000000000000
  0
SEQEND
  0
POLYLINE
  8
1
 62
7
  6
L000000000000000000
 70
1
 66
1
  0
VERTEX
 10
30.900000
 20
4.700000
 30
0.000000
  8
1
 62
7
  6
L000000000000000000
  0
VERTEX
 10
30.900000
 20
5.200000
 30
0.000000
  8
1
 62
7
  6
L000000000000000000
  0
VERTEX
 10
30.400000
 20
5.200000
 30
0.000000
  8
1
 62
7
  6
L000000000000000000
  0
VERTEX
 10
30.400000
 20
4.700000
 30
0.000000
  8
1
 62
7
  6
L000000000000000000
  0
SEQEND
  0
POLYLINE
  8
1
 62
7
  6
L000000000000000000
 70
1
 66
1
  0
VERTEX
 10
30.900000
 20
3.900000
 30
0.000000
  8
1
 62
7
  6
L000000000000000000
  0
VERTEX
 10
30.900000
 20
4.400000
 30
0.000000
  8
1
 62
7
  6
L000000000000000000
  0
VERTEX
 10
30.400000
 20
4.400000
 30
0.000000
  8
1
 62
7
  6
L000000000000000000
  0
VERTEX
 10
30.400000
 20
3.900000
 30
0.000000
  8
1
 62
7
  6
L000000000000000000
  0
SEQEND
  0
POLYLINE
  8
1
 62
7
  6
L000000000000000000
 70
1
 66
1
  0
VERTEX
 10
30.100000
 20
3.100000
 30
0.000000
  8
1
 62
7
  6
L000000000000000000
  0
VERTEX
 10
30.100000
 20
3.600000
 30
0.000000
  8
1
 62
7
  6
L000000000000000000
  0
VERTEX
 10
29.600000
 20
3.600000
 30
0.000000
  8
1
 62
7
  6
L000000000000000000
  0
VERTEX
 10
29.600000
 20
3.100000
 30
0.000000
  8
1
 62
7
  6
L000000000000000000
  0
SEQEND
  0
POLYLINE
  8
1
 62
7
  6
L000000000000000000
 70
1
 66
1
  0
VERTEX
 10
30.100000
 20
2.300000
 30
0.000000
  8
1
 62
7
  6
L000000000000000000
  0
VERTEX
 10
30.100000
 20
2.800000
 30
0.000000
  8
1
 62
7
  6
L000000000000000000
  0
VERTEX
 10
29.600000
 20
2.800000
 30
0.000000
  8
1
 62
7
  6
L000000000000000000
  0
VERTEX
 10
29.600000
 20
2.300000
 30
0.000000
  8
1
 62
7
  6
L000000000000000000
  0
SEQEND
  0
POLYLINE
  8
1
 62
7
  6
L000000000000000000
 70
1
 66
1
  0
VERTEX
 10
30.900000
 20
2.300000
 30
0.000000
  8
1
 62
7
  6
L000000000000000000
  0
VERTEX
 10
30.900000
 20
2.800000
 30
0.000000
  8
1
 62
7
  6
L000000000000000000
  0
VERTEX
 10
30.400000
 20
2.800000
 30
0.000000
  8
1
 62
7
  6
L000000000000000000
  0
VERTEX
 10
30.400000
 20
2.300000
 30
0.000000
  8
1
 62
7
  6
L000000000000000000
  0
SEQEND
  0
POLYLINE
  8
1
 62
7
  6
L000000000000000000
 70
1
 66
1
  0
VERTEX
 10
30.900000
 20
3.100000
 30
0.000000
  8
1
 62
7
  6
L000000000000000000
  0
VERTEX
 10
30.900000
 20
3.600000
 30
0.000000
  8
1
 62
7
  6
L000000000000000000
  0
VERTEX
 10
30.400000
 20
3.600000
 30
0.000000
  8
1
 62
7
  6
L000000000000000000
  0
VERTEX
 10
30.400000
 20
3.100000
 30
0.000000
  8
1
 62
7
  6
L000000000000000000
  0
SEQEND
  0
POLYLINE
  8
1
 62
7
  6
L000000000000000000
 70
1
 66
1
  0
VERTEX
 10
30.100000
 20
3.900000
 30
0.000000
  8
1
 62
7
  6
L000000000000000000
  0
VERTEX
 10
30.100000
 20
4.400000
 30
0.000000
  8
1
 62
7
  6
L000000000000000000
  0
VERTEX
 10
29.600000
 20
4.400000
 30
0.000000
  8
1
 62
7
  6
L000000000000000000
  0
VERTEX
 10
29.600000
 20
3.900000
 30
0.000000
  8
1
 62
7
  6
L000000000000000000
  0
SEQEND
  0
POLYLINE
  8
1
 62
7
  6
L000000000000000000
 70
1
 66
1
  0
VERTEX
 10
29.300000
 20
3.900000
 30
0.000000
  8
1
 62
7
  6
L000000000000000000
  0
VERTEX
 10
29.300000
 20
4.400000
 30
0.000000
  8
1
 62
7
  6
L000000000000000000
  0
VERTEX
 10
28.800000
 20
4.400000
 30
0.000000
  8
1
 62
7
  6
L000000000000000000
  0
VERTEX
 10
28.800000
 20
3.900000
 30
0.000000
  8
1
 62
7
  6
L000000000000000000
  0
SEQEND
  0
POLYLINE
  8
1
 62
7
  6
L000000000000000000
 70
1
 66
1
  0
VERTEX
 10
29.300000
 20
3.100000
 30
0.000000
  8
1
 62
7
  6
L000000000000000000
  0
VERTEX
 10
29.300000
 20
3.600000
 30
0.000000
  8
1
 62
7
  6
L000000000000000000
  0
VERTEX
 10
28.800000
 20
3.600000
 30
0.000000
  8
1
 62
7
  6
L000000000000000000
  0
VERTEX
 10
28.800000
 20
3.100000
 30
0.000000
  8
1
 62
7
  6
L000000000000000000
  0
SEQEND
  0
POLYLINE
  8
1
 62
7
  6
L000000000000000000
 70
1
 66
1
  0
VERTEX
 10
29.300000
 20
2.300000
 30
0.000000
  8
1
 62
7
  6
L000000000000000000
  0
VERTEX
 10
29.300000
 20
2.800000
 30
0.000000
  8
1
 62
7
  6
L000000000000000000
  0
VERTEX
 10
28.800000
 20
2.800000
 30
0.000000
  8
1
 62
7
  6
L000000000000000000
  0
VERTEX
 10
28.800000
 20
2.300000
 30
0.000000
  8
1
 62
7
  6
L000000000000000000
  0
SEQEND
  0
POLYLINE
  8
1
 62
7
  6
L000000000000000000
 70
1
 66
1
  0
VERTEX
 10
29.300000
 20
1.500000
 30
0.000000
  8
1
 62
7
  6
L000000000000000000
  0
VERTEX
 10
29.300000
 20
2.000000
 30
0.000000
  8
1
 62
7
  6
L000000000000000000
  0
VERTEX
 10
28.800000
 20
2.000000
 30
0.000000
  8
1
 62
7
  6
L000000000000000000
  0
VERTEX
 10
28.800000
 20
1.500000
 30
0.000000
  8
1
 62
7
  6
L000000000000000000
  0
SEQEND
  0
POLYLINE
  8
1
 62
7
  6
L000000000000000000
 70
1
 66
1
  0
VERTEX
 10
30.100000
 20
1.500000
 30
0.000000
  8
1
 62
7
  6
L000000000000000000
  0
VERTEX
 10
30.100000
 20
2.000000
 30
0.000000
  8
1
 62
7
  6
L000000000000000000
  0
VERTEX
 10
29.600000
 20
2.000000
 30
0.000000
  8
1
 62
7
  6
L000000000000000000
  0
VERTEX
 10
29.600000
 20
1.500000
 30
0.000000
  8
1
 62
7
  6
L000000000000000000
  0
SEQEND
  0
POLYLINE
  8
1
 62
7
  6
L000000000000000000
 70
1
 66
1
  0
VERTEX
 10
30.900000
 20
1.500000
 30
0.000000
  8
1
 62
7
  6
L000000000000000000
  0
VERTEX
 10
30.900000
 20
2.000000
 30
0.000000
  8
1
 62
7
  6
L000000000000000000
  0
VERTEX
 10
30.400000
 20
2.000000
 30
0.000000
  8
1
 62
7
  6
L000000000000000000
  0
VERTEX
 10
30.400000
 20
1.500000
 30
0.000000
  8
1
 62
7
  6
L000000000000000000
  0
SEQEND
  0
POLYLINE
  8
1
 62
7
  6
L000000000000000000
 70
1
 66
1
  0
VERTEX
 10
31.700000
 20
6.300000
 30
0.000000
  8
1
 62
7
  6
L000000000000000000
  0
VERTEX
 10
31.700000
 20
6.800000
 30
0.000000
  8
1
 62
7
  6
L000000000000000000
  0
VERTEX
 10
31.200000
 20
6.800000
 30
0.000000
  8
1
 62
7
  6
L000000000000000000
  0
VERTEX
 10
31.200000
 20
6.300000
 30
0.000000
  8
1
 62
7
  6
L000000000000000000
  0
SEQEND
  0
POLYLINE
  8
1
 62
7
  6
L000000000000000000
 70
1
 66
1
  0
VERTEX
 10
31.700000
 20
4.700000
 30
0.000000
  8
1
 62
7
  6
L000000000000000000
  0
VERTEX
 10
31.700000
 20
5.200000
 30
0.000000
  8
1
 62
7
  6
L000000000000000000
  0
VERTEX
 10
31.200000
 20
5.200000
 30
0.000000
  8
1
 62
7
  6
L000000000000000000
  0
VERTEX
 10
31.200000
 20
4.700000
 30
0.000000
  8
1
 62
7
  6
L000000000000000000
  0
SEQEND
  0
POLYLINE
  8
1
 62
7
  6
L000000000000000000
 70
1
 66
1
  0
VERTEX
 10
31.700000
 20
3.100000
 30
0.000000
  8
1
 62
7
  6
L000000000000000000
  0
VERTEX
 10
31.700000
 20
3.600000
 30
0.000000
  8
1
 62
7
  6
L000000000000000000
  0
VERTEX
 10
31.200000
 20
3.600000
 30
0.000000
  8
1
 62
7
  6
L000000000000000000
  0
VERTEX
 10
31.200000
 20
3.100000
 30
0.000000
  8
1
 62
7
  6
L000000000000000000
  0
SEQEND
  0
POLYLINE
  8
1
 62
7
  6
L000000000000000000
 70
1
 66
1
  0
VERTEX
 10
31.700000
 20
3.900000
 30
0.000000
  8
1
 62
7
  6
L000000000000000000
  0
VERTEX
 10
31.700000
 20
4.400000
 30
0.000000
  8
1
 62
7
  6
L000000000000000000
  0
VERTEX
 10
31.200000
 20
4.400000
 30
0.000000
  8
1
 62
7
  6
L000000000000000000
  0
VERTEX
 10
31.200000
 20
3.900000
 30
0.000000
  8
1
 62
7
  6
L000000000000000000
  0
SEQEND
  0
POLYLINE
  8
1
 62
7
  6
L000000000000000000
 70
1
 66
1
  0
VERTEX
 10
31.700000
 20
5.500000
 30
0.000000
  8
1
 62
7
  6
L000000000000000000
  0
VERTEX
 10
31.700000
 20
6.000000
 30
0.000000
  8
1
 62
7
  6
L000000000000000000
  0
VERTEX
 10
31.200000
 20
6.000000
 30
0.000000
  8
1
 62
7
  6
L000000000000000000
  0
VERTEX
 10
31.200000
 20
5.500000
 30
0.000000
  8
1
 62
7
  6
L000000000000000000
  0
SEQEND
  0
POLYLINE
  8
1
 62
7
  6
L000000000000000000
 70
1
 66
1
  0
VERTEX
 10
32.500000
 20
79.200000
 30
0.000000
  8
1
 62
7
  6
L000000000000000000
  0
VERTEX
 10
32.500000
 20
79.700000
 30
0.000000
  8
1
 62
7
  6
L000000000000000000
  0
VERTEX
 10
32.000000
 20
79.700000
 30
0.000000
  8
1
 62
7
  6
L000000000000000000
  0
VERTEX
 10
32.000000
 20
79.200000
 30
0.000000
  8
1
 62
7
  6
L000000000000000000
  0
SEQEND
  0
POLYLINE
  8
1
 62
7
  6
L000000000000000000
 70
1
 66
1
  0
VERTEX
 10
32.500000
 20
78.400000
 30
0.000000
  8
1
 62
7
  6
L000000000000000000
  0
VERTEX
 10
32.500000
 20
78.900000
 30
0.000000
  8
1
 62
7
  6
L000000000000000000
  0
VERTEX
 10
32.000000
 20
78.900000
 30
0.000000
  8
1
 62
7
  6
L000000000000000000
  0
VERTEX
 10
32.000000
 20
78.400000
 30
0.000000
  8
1
 62
7
  6
L000000000000000000
  0
SEQEND
  0
POLYLINE
  8
1
 62
7
  6
L000000000000000000
 70
1
 66
1
  0
VERTEX
 10
32.500000
 20
77.600000
 30
0.000000
  8
1
 62
7
  6
L000000000000000000
  0
VERTEX
 10
32.500000
 20
78.100000
 30
0.000000
  8
1
 62
7
  6
L000000000000000000
  0
VERTEX
 10
32.000000
 20
78.100000
 30
0.000000
  8
1
 62
7
  6
L000000000000000000
  0
VERTEX
 10
32.000000
 20
77.600000
 30
0.000000
  8
1
 62
7
  6
L000000000000000000
  0
SEQEND
  0
POLYLINE
  8
1
 62
7
  6
L000000000000000000
 70
1
 66
1
  0
VERTEX
 10
32.500000
 20
76.800000
 30
0.000000
  8
1
 62
7
  6
L000000000000000000
  0
VERTEX
 10
32.500000
 20
77.300000
 30
0.000000
  8
1
 62
7
  6
L000000000000000000
  0
VERTEX
 10
32.000000
 20
77.300000
 30
0.000000
  8
1
 62
7
  6
L000000000000000000
  0
VERTEX
 10
32.000000
 20
76.800000
 30
0.000000
  8
1
 62
7
  6
L000000000000000000
  0
SEQEND
  0
POLYLINE
  8
1
 62
7
  6
L000000000000000000
 70
1
 66
1
  0
VERTEX
 10
32.500000
 20
76.000000
 30
0.000000
  8
1
 62
7
  6
L000000000000000000
  0
VERTEX
 10
32.500000
 20
76.500000
 30
0.000000
  8
1
 62
7
  6
L000000000000000000
  0
VERTEX
 10
32.000000
 20
76.500000
 30
0.000000
  8
1
 62
7
  6
L000000000000000000
  0
VERTEX
 10
32.000000
 20
76.000000
 30
0.000000
  8
1
 62
7
  6
L000000000000000000
  0
SEQEND
  0
POLYLINE
  8
1
 62
7
  6
L000000000000000000
 70
1
 66
1
  0
VERTEX
 10
2.100000
 20
79.200000
 30
0.000000
  8
1
 62
7
  6
L000000000000000000
  0
VERTEX
 10
2.100000
 20
79.700000
 30
0.000000
  8
1
 62
7
  6
L000000000000000000
  0
VERTEX
 10
1.600000
 20
79.700000
 30
0.000000
  8
1
 62
7
  6
L000000000000000000
  0
VERTEX
 10
1.600000
 20
79.200000
 30
0.000000
  8
1
 62
7
  6
L000000000000000000
  0
SEQEND
  0
POLYLINE
  8
1
 62
7
  6
L000000000000000000
 70
1
 66
1
  0
VERTEX
 10
2.100000
 20
78.400000
 30
0.000000
  8
1
 62
7
  6
L000000000000000000
  0
VERTEX
 10
2.100000
 20
78.900000
 30
0.000000
  8
1
 62
7
  6
L000000000000000000
  0
VERTEX
 10
1.600000
 20
78.900000
 30
0.000000
  8
1
 62
7
  6
L000000000000000000
  0
VERTEX
 10
1.600000
 20
78.400000
 30
0.000000
  8
1
 62
7
  6
L000000000000000000
  0
SEQEND
  0
POLYLINE
  8
1
 62
7
  6
L000000000000000000
 70
1
 66
1
  0
VERTEX
 10
2.100000
 20
77.600000
 30
0.000000
  8
1
 62
7
  6
L000000000000000000
  0
VERTEX
 10
2.100000
 20
78.100000
 30
0.000000
  8
1
 62
7
  6
L000000000000000000
  0
VERTEX
 10
1.600000
 20
78.100000
 30
0.000000
  8
1
 62
7
  6
L000000000000000000
  0
VERTEX
 10
1.600000
 20
77.600000
 30
0.000000
  8
1
 62
7
  6
L000000000000000000
  0
SEQEND
  0
POLYLINE
  8
1
 62
7
  6
L000000000000000000
 70
1
 66
1
  0
VERTEX
 10
2.100000
 20
76.800000
 30
0.000000
  8
1
 62
7
  6
L000000000000000000
  0
VERTEX
 10
2.100000
 20
77.300000
 30
0.000000
  8
1
 62
7
  6
L000000000000000000
  0
VERTEX
 10
1.600000
 20
77.300000
 30
0.000000
  8
1
 62
7
  6
L000000000000000000
  0
VERTEX
 10
1.600000
 20
76.800000
 30
0.000000
  8
1
 62
7
  6
L000000000000000000
  0
SEQEND
  0
POLYLINE
  8
1
 62
7
  6
L000000000000000000
 70
1
 66
1
  0
VERTEX
 10
2.100000
 20
76.000000
 30
0.000000
  8
1
 62
7
  6
L000000000000000000
  0
VERTEX
 10
2.100000
 20
76.500000
 30
0.000000
  8
1
 62
7
  6
L000000000000000000
  0
VERTEX
 10
1.600000
 20
76.500000
 30
0.000000
  8
1
 62
7
  6
L000000000000000000
  0
VERTEX
 10
1.600000
 20
76.000000
 30
0.000000
  8
1
 62
7
  6
L000000000000000000
  0
SEQEND
  0
POLYLINE
  8
1
 62
7
  6
L000000000000000000
 70
1
 66
1
  0
VERTEX
 10
2.100000
 20
6.300000
 30
0.000000
  8
1
 62
7
  6
L000000000000000000
  0
VERTEX
 10
2.100000
 20
6.800000
 30
0.000000
  8
1
 62
7
  6
L000000000000000000
  0
VERTEX
 10
1.600000
 20
6.800000
 30
0.000000
  8
1
 62
7
  6
L000000000000000000
  0
VERTEX
 10
1.600000
 20
6.300000
 30
0.000000
  8
1
 62
7
  6
L000000000000000000
  0
SEQEND
  0
POLYLINE
  8
1
 62
7
  6
L000000000000000000
 70
1
 66
1
  0
VERTEX
 10
2.100000
 20
3.900000
 30
0.000000
  8
1
 62
7
  6
L000000000000000000
  0
VERTEX
 10
2.100000
 20
4.400000
 30
0.000000
  8
1
 62
7
  6
L000000000000000000
  0
VERTEX
 10
1.600000
 20
4.400000
 30
0.000000
  8
1
 62
7
  6
L000000000000000000
  0
VERTEX
 10
1.600000
 20
3.900000
 30
0.000000
  8
1
 62
7
  6
L000000000000000000
  0
SEQEND
  0
POLYLINE
  8
1
 62
7
  6
L000000000000000000
 70
1
 66
1
  0
VERTEX
 10
2.100000
 20
3.100000
 30
0.000000
  8
1
 62
7
  6
L000000000000000000
  0
VERTEX
 10
2.100000
 20
3.600000
 30
0.000000
  8
1
 62
7
  6
L000000000000000000
  0
VERTEX
 10
1.600000
 20
3.600000
 30
0.000000
  8
1
 62
7
  6
L000000000000000000
  0
VERTEX
 10
1.600000
 20
3.100000
 30
0.000000
  8
1
 62
7
  6
L000000000000000000
  0
SEQEND
  0
POLYLINE
  8
1
 62
7
  6
L000000000000000000
 70
1
 66
1
  0
VERTEX
 10
2.100000
 20
4.700000
 30
0.000000
  8
1
 62
7
  6
L000000000000000000
  0
VERTEX
 10
2.100000
 20
5.200000
 30
0.000000
  8
1
 62
7
  6
L000000000000000000
  0
VERTEX
 10
1.600000
 20
5.200000
 30
0.000000
  8
1
 62
7
  6
L000000000000000000
  0
VERTEX
 10
1.600000
 20
4.700000
 30
0.000000
  8
1
 62
7
  6
L000000000000000000
  0
SEQEND
  0
POLYLINE
  8
1
 62
7
  6
L000000000000000000
 70
1
 66
1
  0
VERTEX
 10
2.100000
 20
5.500000
 30
0.000000
  8
1
 62
7
  6
L000000000000000000
  0
VERTEX
 10
2.100000
 20
6.000000
 30
0.000000
  8
1
 62
7
  6
L000000000000000000
  0
VERTEX
 10
1.600000
 20
6.000000
 30
0.000000
  8
1
 62
7
  6
L000000000000000000
  0
VERTEX
 10
1.600000
 20
5.500000
 30
0.000000
  8
1
 62
7
  6
L000000000000000000
  0
SEQEND
  0
POLYLINE
  8
1
 62
7
  6
L000000000000000000
 70
1
 66
1
  0
VERTEX
 10
32.500000
 20
6.300000
 30
0.000000
  8
1
 62
7
  6
L000000000000000000
  0
VERTEX
 10
32.500000
 20
6.800000
 30
0.000000
  8
1
 62
7
  6
L000000000000000000
  0
VERTEX
 10
32.000000
 20
6.800000
 30
0.000000
  8
1
 62
7
  6
L000000000000000000
  0
VERTEX
 10
32.000000
 20
6.300000
 30
0.000000
  8
1
 62
7
  6
L000000000000000000
  0
SEQEND
  0
POLYLINE
  8
1
 62
7
  6
L000000000000000000
 70
1
 66
1
  0
VERTEX
 10
32.500000
 20
3.900000
 30
0.000000
  8
1
 62
7
  6
L000000000000000000
  0
VERTEX
 10
32.500000
 20
4.400000
 30
0.000000
  8
1
 62
7
  6
L000000000000000000
  0
VERTEX
 10
32.000000
 20
4.400000
 30
0.000000
  8
1
 62
7
  6
L000000000000000000
  0
VERTEX
 10
32.000000
 20
3.900000
 30
0.000000
  8
1
 62
7
  6
L000000000000000000
  0
SEQEND
  0
POLYLINE
  8
1
 62
7
  6
L000000000000000000
 70
1
 66
1
  0
VERTEX
 10
32.500000
 20
3.100000
 30
0.000000
  8
1
 62
7
  6
L000000000000000000
  0
VERTEX
 10
32.500000
 20
3.600000
 30
0.000000
  8
1
 62
7
  6
L000000000000000000
  0
VERTEX
 10
32.000000
 20
3.600000
 30
0.000000
  8
1
 62
7
  6
L000000000000000000
  0
VERTEX
 10
32.000000
 20
3.100000
 30
0.000000
  8
1
 62
7
  6
L000000000000000000
  0
SEQEND
  0
POLYLINE
  8
1
 62
7
  6
L000000000000000000
 70
1
 66
1
  0
VERTEX
 10
32.500000
 20
4.700000
 30
0.000000
  8
1
 62
7
  6
L000000000000000000
  0
VERTEX
 10
32.500000
 20
5.200000
 30
0.000000
  8
1
 62
7
  6
L000000000000000000
  0
VERTEX
 10
32.000000
 20
5.200000
 30
0.000000
  8
1
 62
7
  6
L000000000000000000
  0
VERTEX
 10
32.000000
 20
4.700000
 30
0.000000
  8
1
 62
7
  6
L000000000000000000
  0
SEQEND
  0
POLYLINE
  8
1
 62
7
  6
L000000000000000000
 70
1
 66
1
  0
VERTEX
 10
32.500000
 20
5.500000
 30
0.000000
  8
1
 62
7
  6
L000000000000000000
  0
VERTEX
 10
32.500000
 20
6.000000
 30
0.000000
  8
1
 62
7
  6
L000000000000000000
  0
VERTEX
 10
32.000000
 20
6.000000
 30
0.000000
  8
1
 62
7
  6
L000000000000000000
  0
VERTEX
 10
32.000000
 20
5.500000
 30
0.000000
  8
1
 62
7
  6
L000000000000000000
  0
SEQEND
  0
CIRCLE
  8
1
 62
7
  6
CONTINUOUS
 10
5.400000
 20
68.400000
 30
0.0
 40
0.400000
  0
CIRCLE
  8
1
 62
7
  6
CONTINUOUS
 10
28.400000
 20
68.400000
 30
0.0
 40
0.400000
  0
CIRCLE
  8
1
 62
7
  6
CONTINUOUS
 10
5.400000
 20
68.400000
 30
0.0
 40
0.400000
  0
CIRCLE
  8
1
 62
7
  6
CONTINUOUS
 10
28.400000
 20
68.400000
 30
0.0
 40
0.400000
  0
CIRCLE
  8
1
 62
7
  6
CONTINUOUS
 10
5.400000
 20
69.600000
 30
0.0
 40
0.400000
  0
CIRCLE
  8
1
 62
7
  6
CONTINUOUS
 10
28.400000
 20
69.600000
 30
0.0
 40
0.400000
  0
POLYLINE
  8
1
 62
7
  6
CONTINUOUS
 70
1
 66
1
  0
VERTEX
 10
7.700000
 20
68.800000
 30
0.000000
  8
1
 62
7
  6
CONTINUOUS
  0
VERTEX
 10
7.700000
 20
70.200000
 30
0.000000
  8
1
 62
7
  6
CONTINUOUS
  0
VERTEX
 10
6.300000
 20
70.200000
 30
0.000000
  8
1
 62
7
  6
CONTINUOUS
  0
VERTEX
 10
6.300000
 20
68.800000
 30
0.000000
  8
1
 62
7
  6
CONTINUOUS
  0
SEQEND
  0
POLYLINE
  8
1
 62
7
  6
CONTINUOUS
 70
1
 66
1
  0
VERTEX
 10
9.500000
 20
68.800000
 30
0.000000
  8
1
 62
7
  6
CONTINUOUS
  0
VERTEX
 10
9.500000
 20
70.200000
 30
0.000000
  8
1
 62
7
  6
CONTINUOUS
  0
VERTEX
 10
8.100000
 20
70.200000
 30
0.000000
  8
1
 62
7
  6
CONTINUOUS
  0
VERTEX
 10
8.100000
 20
68.800000
 30
0.000000
  8
1
 62
7
  6
CONTINUOUS
  0
SEQEND
  0
POLYLINE
  8
1
 62
7
  6
CONTINUOUS
 70
1
 66
1
  0
VERTEX
 10
13.100000
 20
68.800000
 30
0.000000
  8
1
 62
7
  6
CONTINUOUS
  0
VERTEX
 10
13.100000
 20
70.200000
 30
0.000000
  8
1
 62
7
  6
CONTINUOUS
  0
VERTEX
 10
11.700000
 20
70.200000
 30
0.000000
  8
1
 62
7
  6
CONTINUOUS
  0
VERTEX
 10
11.700000
 20
68.800000
 30
0.000000
  8
1
 62
7
  6
CONTINUOUS
  0
SEQEND
  0
POLYLINE
  8
1
 62
7
  6
CONTINUOUS
 70
1
 66
1
  0
VERTEX
 10
11.300000
 20
68.800000
 30
0.000000
  8
1
 62
7
  6
CONTINUOUS
  0
VERTEX
 10
11.300000
 20
70.200000
 30
0.000000
  8
1
 62
7
  6
CONTINUOUS
  0
VERTEX
 10
9.900000
 20
70.200000
 30
0.000000
  8
1
 62
7
  6
CONTINUOUS
  0
VERTEX
 10
9.900000
 20
68.800000
 30
0.000000
  8
1
 62
7
  6
CONTINUOUS
  0
SEQEND
  0
POLYLINE
  8
1
 62
7
  6
CONTINUOUS
 70
1
 66
1
  0
VERTEX
 10
14.900000
 20
68.800000
 30
0.000000
  8
1
 62
7
  6
CONTINUOUS
  0
VERTEX
 10
14.900000
 20
70.200000
 30
0.000000
  8
1
 62
7
  6
CONTINUOUS
  0
VERTEX
 10
13.500000
 20
70.200000
 30
0.000000
  8
1
 62
7
  6
CONTINUOUS
  0
VERTEX
 10
13.500000
 20
68.800000
 30
0.000000
  8
1
 62
7
  6
CONTINUOUS
  0
SEQEND
  0
POLYLINE
  8
1
 62
7
  6
CONTINUOUS
 70
1
 66
1
  0
VERTEX
 10
16.700000
 20
68.800000
 30
0.000000
  8
1
 62
7
  6
CONTINUOUS
  0
VERTEX
 10
16.700000
 20
70.200000
 30
0.000000
  8
1
 62
7
  6
CONTINUOUS
  0
VERTEX
 10
15.300000
 20
70.200000
 30
0.000000
  8
1
 62
7
  6
CONTINUOUS
  0
VERTEX
 10
15.300000
 20
68.800000
 30
0.000000
  8
1
 62
7
  6
CONTINUOUS
  0
SEQEND
  0
POLYLINE
  8
1
 62
7
  6
CONTINUOUS
 70
1
 66
1
  0
VERTEX
 10
18.500000
 20
68.800000
 30
0.000000
  8
1
 62
7
  6
CONTINUOUS
  0
VERTEX
 10
18.500000
 20
70.200000
 30
0.000000
  8
1
 62
7
  6
CONTINUOUS
  0
VERTEX
 10
17.100000
 20
70.200000
 30
0.000000
  8
1
 62
7
  6
CONTINUOUS
  0
VERTEX
 10
17.100000
 20
68.800000
 30
0.000000
  8
1
 62
7
  6
CONTINUOUS
  0
SEQEND
  0
POLYLINE
  8
1
 62
7
  6
CONTINUOUS
 70
1
 66
1
  0
VERTEX
 10
20.300000
 20
68.800000
 30
0.000000
  8
1
 62
7
  6
CONTINUOUS
  0
VERTEX
 10
20.300000
 20
70.200000
 30
0.000000
  8
1
 62
7
  6
CONTINUOUS
  0
VERTEX
 10
18.900000
 20
70.200000
 30
0.000000
  8
1
 62
7
  6
CONTINUOUS
  0
VERTEX
 10
18.900000
 20
68.800000
 30
0.000000
  8
1
 62
7
  6
CONTINUOUS
  0
SEQEND
  0
POLYLINE
  8
1
 62
7
  6
CONTINUOUS
 70
1
 66
1
  0
VERTEX
 10
22.100000
 20
68.800000
 30
0.000000
  8
1
 62
7
  6
CONTINUOUS
  0
VERTEX
 10
22.100000
 20
70.200000
 30
0.000000
  8
1
 62
7
  6
CONTINUOUS
  0
VERTEX
 10
20.700000
 20
70.200000
 30
0.000000
  8
1
 62
7
  6
CONTINUOUS
  0
VERTEX
 10
20.700000
 20
68.800000
 30
0.000000
  8
1
 62
7
  6
CONTINUOUS
  0
SEQEND
  0
POLYLINE
  8
1
 62
7
  6
CONTINUOUS
 70
1
 66
1
  0
VERTEX
 10
23.900000
 20
68.800000
 30
0.000000
  8
1
 62
7
  6
CONTINUOUS
  0
VERTEX
 10
23.900000
 20
70.200000
 30
0.000000
  8
1
 62
7
  6
CONTINUOUS
  0
VERTEX
 10
22.500000
 20
70.200000
 30
0.000000
  8
1
 62
7
  6
CONTINUOUS
  0
VERTEX
 10
22.500000
 20
68.800000
 30
0.000000
  8
1
 62
7
  6
CONTINUOUS
  0
SEQEND
  0
POLYLINE
  8
1
 62
7
  6
CONTINUOUS
 70
1
 66
1
  0
VERTEX
 10
25.700000
 20
68.800000
 30
0.000000
  8
1
 62
7
  6
CONTINUOUS
  0
VERTEX
 10
25.700000
 20
70.200000
 30
0.000000
  8
1
 62
7
  6
CONTINUOUS
  0
VERTEX
 10
24.300000
 20
70.200000
 30
0.000000
  8
1
 62
7
  6
CONTINUOUS
  0
VERTEX
 10
24.300000
 20
68.800000
 30
0.000000
  8
1
 62
7
  6
CONTINUOUS
  0
SEQEND
  0
POLYLINE
  8
1
 62
7
  6
CONTINUOUS
 70
1
 66
1
  0
VERTEX
 10
27.500000
 20
68.800000
 30
0.000000
  8
1
 62
7
  6
CONTINUOUS
  0
VERTEX
 10
27.500000
 20
70.200000
 30
0.000000
  8
1
 62
7
  6
CONTINUOUS
  0
VERTEX
 10
26.100000
 20
70.200000
 30
0.000000
  8
1
 62
7
  6
CONTINUOUS
  0
VERTEX
 10
26.100000
 20
68.800000
 30
0.000000
  8
1
 62
7
  6
CONTINUOUS
  0
SEQEND
  0
POLYLINE
  8
1
 62
7
  6
CONTINUOUS
 70
0
 66
1
  0
VERTEX
 10
5.800000
 20
70.500000
  8
1
 62
7
  6
CONTINUOUS
  0
VERTEX
 10
28.000000
 20
70.500000
  8
1
 62
7
  6
CONTINUOUS
  0
SEQEND
  0
POLYLINE
  8
1
 62
7
  6
L000000000000000000
 70
0
 66
1
  0
VERTEX
 10
6.000000
 20
70.700000
  8
1
 62
7
  6
L000000000000000000
  0
VERTEX
 10
27.800000
 20
70.700000
  8
1
 62
7
  6
L000000000000000000
  0
SEQEND
  0
POLYLINE
  8
1
 62
7
  6
CONTINUOUS
 70
0
 66
1
  0
VERTEX
 10
6.000000
 20
70.600000
  8
1
 62
7
  6
CONTINUOUS
  0
VERTEX
 10
6.000000
 20
69.000000
  8
1
 62
7
  6
CONTINUOUS
  0
VERTEX
 10
4.400000
 20
69.000000
  8
1
 62
7
  6
CONTINUOUS
  0
SEQEND
  0
POLYLINE
  8
1
 62
7
  6
CONTINUOUS
 70
0
 66
1
  0
VERTEX
 10
27.800000
 20
70.500000
  8
1
 62
7
  6
CONTINUOUS
  0
VERTEX
 10
27.800000
 20
68.900000
  8
1
 62
7
  6
CONTINUOUS
  0
VERTEX
 10
29.400000
 20
68.900000
  8
1
 62
7
  6
CONTINUOUS
  0
SEQEND
  0
POLYLINE
  8
1
 62
7
  6
CONTINUOUS
 70
0
 66
1
  0
VERTEX
 10
28.400000
 20
8.900000
  8
1
 62
7
  6
CONTINUOUS
  0
VERTEX
 10
5.400000
 20
8.900000
  8
1
 62
7
  6
CONTINUOUS
  0
SEQEND
  0
POLYLINE
  8
1
 62
7
  6
CONTINUOUS
 70
0
 66
1
  0
VERTEX
 10
2.500000
 20
9.600000
  8
1
 62
7
  6
CONTINUOUS
  0
VERTEX
 10
5.400000
 20
8.900000
  8
1
 62
7
  6
CONTINUOUS
  0
SEQEND
  0
POLYLINE
  8
1
 62
7
  6
CONTINUOUS
 70
0
 66
1
  0
VERTEX
 10
31.500000
 20
9.600000
  8
1
 62
7
  6
CONTINUOUS
  0
VERTEX
 10
28.400000
 20
8.900000
  8
1
 62
7
  6
CONTINUOUS
  0
SEQEND
  0
POLYLINE
  8
1
 62
7
  6
CONTINUOUS
 70
0
 66
1
  0
VERTEX
 10
2.500000
 20
69.700000
  8
1
 62
7
  6
CONTINUOUS
  0
VERTEX
 10
2.500000
 20
9.600000
  8
1
 62
7
  6
CONTINUOUS
  0
SEQEND
  0
POLYLINE
  8
1
 62
7
  6
CONTINUOUS
 70
0
 66
1
  0
VERTEX
 10
31.500000
 20
69.700000
  8
1
 62
7
  6
CONTINUOUS
  0
VERTEX
 10
31.500000
 20
9.600000
  8
1
 62
7
  6
CONTINUOUS
  0
SEQEND
  0
POLYLINE
  8
1
 62
7
  6
CONTINUOUS
 70
0
 66
1
  0
VERTEX
 10
5.700000
 20
72.900000
  8
1
 62
7
  6
CONTINUOUS
  0
VERTEX
 10
28.200000
 20
72.900000
  8
1
 62
7
  6
CONTINUOUS
  0
SEQEND
  0
POLYLINE
  8
1
 62
7
  6
CONTINUOUS
 70
0
 66
1
  0
VERTEX
 10
5.700000
 20
72.900000
  8
1
 62
7
  6
CONTINUOUS
  0
VERTEX
 10
5.700000
 20
70.300000
  8
1
 62
7
  6
CONTINUOUS
  0
SEQEND
  0
POLYLINE
  8
1
 62
7
  6
CONTINUOUS
 70
0
 66
1
  0
VERTEX
 10
2.500000
 20
69.700000
  8
1
 62
7
  6
CONTINUOUS
  0
VERTEX
 10
5.700000
 20
70.300000
  8
1
 62
7
  6
CONTINUOUS
  0
SEQEND
  0
POLYLINE
  8
1
 62
7
  6
CONTINUOUS
 70
0
 66
1
  0
VERTEX
 10
28.200000
 20
72.900000
  8
1
 62
7
  6
CONTINUOUS
  0
VERTEX
 10
28.200000
 20
70.300000
  8
1
 62
7
  6
CONTINUOUS
  0
SEQEND
  0
POLYLINE
  8
1
 62
7
  6
CONTINUOUS
 70
0
 66
1
  0
VERTEX
 10
31.500000
 20
69.700000
  8
1
 62
7
  6
CONTINUOUS
  0
VERTEX
 10
28.200000
 20
70.300000
  8
1
 62
7
  6
CONTINUOUS
  0
SEQEND
  0
SOLID
  8
1
 62
1
  6
CONTINUOUS
 10
27.800000
 20
71.800000
 11
27.800000
 21
72.600000
 12
6.000000
 22
71.800000
 13
6.000000
 23
72.600000
  0
POLYLINE
  8
1
 62
7
  6
CONTINUOUS
 70
1
 66
1
  0
VERTEX
 10
27.800000
 20
71.800000
 30
0.000000
  8
1
 62
7
  6
CONTINUOUS
  0
VERTEX
 10
27.800000
 20
72.600000
 30
0.000000
  8
1
 62
7
  6
CONTINUOUS
  0
VERTEX
 10
6.000000
 20
72.600000
 30
0.000000
  8
1
 62
7
  6
CONTINUOUS
  0
VERTEX
 10
6.000000
 20
71.800000
 30
0.000000
  8
1
 62
7
  6
CONTINUOUS
  0
SEQEND
  0
SOLID
  8
1
 62
255
  6
CONTINUOUS
 10
27.800000
 20
70.700000
 11
27.800000
 21
71.800000
 12
6.000000
 22
70.700000
 13
6.000000
 23
71.800000
  0
POLYLINE
  8
1
 62
7
  6
CONTINUOUS
 70
1
 66
1
  0
VERTEX
 10
27.800000
 20
70.700000
 30
0.000000
  8
1
 62
7
  6
CONTINUOUS
  0
VERTEX
 10
27.800000
 20
71.800000
 30
0.000000
  8
1
 62
7
  6
CONTINUOUS
  0
VERTEX
 10
6.000000
 20
71.800000
 30
0.000000
  8
1
 62
7
  6
CONTINUOUS
  0
VERTEX
 10
6.000000
 20
70.700000
 30
0.000000
  8
1
 62
7
  6
CONTINUOUS
  0
SEQEND
  0
POLYLINE
  8
1
 62
7
  6
CONTINUOUS
 70
0
 66
1
  0
VERTEX
 10
32.600000
 20
10.400000
  8
1
 62
7
  6
CONTINUOUS
  0
VERTEX
 10
31.500000
 20
10.400000
  8
1
 62
7
  6
CONTINUOUS
  0
SEQEND
  0
POLYLINE
  8
1
 62
7
  6
CONTINUOUS
 70
0
 66
1
  0
VERTEX
 10
2.500000
 20
10.100000
  8
1
 62
7
  6
CONTINUOUS
  0
VERTEX
 10
1.200000
 20
10.100000
  8
1
 62
7
  6
CONTINUOUS
  0
SEQEND
  0
POLYLINE
  8
1
 62
7
  6
CONTINUOUS
 70
0
 66
1
  0
VERTEX
 10
5.700000
 20
70.300000
  8
1
 62
7
  6
CONTINUOUS
  0
VERTEX
 10
1.200000
 20
70.300000
  8
1
 62
7
  6
CONTINUOUS
  0
SEQEND
  0
POLYLINE
  8
1
 62
7
  6
CONTINUOUS
 70
0
 66
1
  0
VERTEX
 10
32.600000
 20
70.000000
  8
1
 62
7
  6
CONTINUOUS
  0
VERTEX
 10
29.700000
 20
70.000000
  8
1
 62
7
  6
CONTINUOUS
  0
SEQEND
  0
SOLID
  8
1
 62
254
  6
CONTINUOUS
 10
29.100000
 20
14.300000
 11
29.100000
 21
22.900000
 12
4.700000
 22
14.300000
 13
4.700000
 23
22.900000
  0
POLYLINE
  8
1
 62
7
  6
CONTINUOUS
 70
1
 66
1
  0
VERTEX
 10
29.100000
 20
14.300000
 30
0.000000
  8
1
 62
7
  6
CONTINUOUS
  0
VERTEX
 10
29.100000
 20
22.900000
 30
0.000000
  8
1
 62
7
  6
CONTINUOUS
  0
VERTEX
 10
4.700000
 20
22.900000
 30
0.000000
  8
1
 62
7
  6
CONTINUOUS
  0
VERTEX
 10
4.700000
 20
14.300000
 30
0.000000
  8
1
 62
7
  6
CONTINUOUS
  0
SEQEND
  0
CIRCLE
  8
1
 62
7
  6
CONTINUOUS
 10
5.400000
 20
18.500000
 30
0.0
 40
0.400000
  0
CIRCLE
  8
1
 62
7
  6
CONTINUOUS
 10
28.400000
 20
18.500000
 30
0.0
 40
0.400000
  0
CIRCLE
  8
1
 62
7
  6
CONTINUOUS
 10
5.400000
 20
21.000000
 30
0.0
 40
0.400000
  0
CIRCLE
  8
1
 62
7
  6
CONTINUOUS
 10
5.400000
 20
16.000000
 30
0.0
 40
0.400000
  0
CIRCLE
  8
1
 62
7
  6
CONTINUOUS
 10
28.400000
 20
21.000000
 30
0.0
 40
0.400000
  0
CIRCLE
  8
1
 62
7
  6
CONTINUOUS
 10
28.400000
 20
16.000000
 30
0.0
 40
0.400000
  0
POLYLINE
  8
1
 62
7
  6
L000000000000000000
 70
1
 66
1
  0
VERTEX
 10
7.600000
 20
20.300000
 30
0.000000
  8
1
 62
7
  6
L000000000000000000
  0
VERTEX
 10
7.600000
 20
21.600000
 30
0.000000
  8
1
 62
7
  6
L000000000000000000
  0
VERTEX
 10
6.300000
 20
21.600000
 30
0.000000
  8
1
 62
7
  6
L000000000000000000
  0
VERTEX
 10
6.300000
 20
20.300000
 30
0.000000
  8
1
 62
7
  6
L000000000000000000
  0
SEQEND
  0
POLYLINE
  8
1
 62
7
  6
L000000000000000000
 70
1
 66
1
  0
VERTEX
 10
11.600000
 20
21.000000
 30
0.000000
  8
1
 62
7
  6
L000000000000000000
  0
VERTEX
 10
11.600000
 20
22.300000
 30
0.000000
  8
1
 62
7
  6
L000000000000000000
  0
VERTEX
 10
10.300000
 20
22.300000
 30
0.000000
  8
1
 62
7
  6
L000000000000000000
  0
VERTEX
 10
10.300000
 20
21.000000
 30
0.000000
  8
1
 62
7
  6
L000000000000000000
  0
SEQEND
  0
POLYLINE
  8
1
 62
7
  6
L000000000000000000
 70
1
 66
1
  0
VERTEX
 10
17.400000
 20
21.000000
 30
0.000000
  8
1
 62
7
  6
L000000000000000000
  0
VERTEX
 10
17.400000
 20
22.300000
 30
0.000000
  8
1
 62
7
  6
L000000000000000000
  0
VERTEX
 10
16.100000
 20
22.300000
 30
0.000000
  8
1
 62
7
  6
L000000000000000000
  0
VERTEX
 10
16.100000
 20
21.000000
 30
0.000000
  8
1
 62
7
  6
L000000000000000000
  0
SEQEND
  0
POLYLINE
  8
1
 62
7
  6
L000000000000000000
 70
1
 66
1
  0
VERTEX
 10
23.200000
 20
21.000000
 30
0.000000
  8
1
 62
7
  6
L000000000000000000
  0
VERTEX
 10
23.200000
 20
22.300000
 30
0.000000
  8
1
 62
7
  6
L000000000000000000
  0
VERTEX
 10
21.900000
 20
22.300000
 30
0.000000
  8
1
 62
7
  6
L000000000000000000
  0
VERTEX
 10
21.900000
 20
21.000000
 30
0.000000
  8
1
 62
7
  6
L000000000000000000
  0
SEQEND
  0
POLYLINE
  8
1
 62
7
  6
L000000000000000000
 70
1
 66
1
  0
VERTEX
 10
27.200000
 20
20.300000
 30
0.000000
  8
1
 62
7
  6
L000000000000000000
  0
VERTEX
 10
27.200000
 20
21.600000
 30
0.000000
  8
1
 62
7
  6
L000000000000000000
  0
VERTEX
 10
25.900000
 20
21.600000
 30
0.000000
  8
1
 62
7
  6
L000000000000000000
  0
VERTEX
 10
25.900000
 20
20.300000
 30
0.000000
  8
1
 62
7
  6
L000000000000000000
  0
SEQEND
  0
POLYLINE
  8
1
 62
7
  6
L000000000000000000
 70
1
 66
1
  0
VERTEX
 10
27.200000
 20
17.600000
 30
0.000000
  8
1
 62
7
  6
L000000000000000000
  0
VERTEX
 10
27.200000
 20
18.900000
 30
0.000000
  8
1
 62
7
  6
L000000000000000000
  0
VERTEX
 10
25.900000
 20
18.900000
 30
0.000000
  8
1
 62
7
  6
L000000000000000000
  0
VERTEX
 10
25.900000
 20
17.600000
 30
0.000000
  8
1
 62
7
  6
L000000000000000000
  0
SEQEND
  0
POLYLINE
  8
1
 62
7
  6
L000000000000000000
 70
1
 66
1
  0
VERTEX
 10
27.200000
 20
15.300000
 30
0.000000
  8
1
 62
7
  6
L000000000000000000
  0
VERTEX
 10
27.200000
 20
16.600000
 30
0.000000
  8
1
 62
7
  6
L000000000000000000
  0
VERTEX
 10
25.900000
 20
16.600000
 30
0.000000
  8
1
 62
7
  6
L000000000000000000
  0
VERTEX
 10
25.900000
 20
15.300000
 30
0.000000
  8
1
 62
7
  6
L000000000000000000
  0
SEQEND
  0
POLYLINE
  8
1
 62
7
  6
L000000000000000000
 70
1
 66
1
  0
VERTEX
 10
7.600000
 20
17.600000
 30
0.000000
  8
1
 62
7
  6
L000000000000000000
  0
VERTEX
 10
7.600000
 20
18.900000
 30
0.000000
  8
1
 62
7
  6
L000000000000000000
  0
VERTEX
 10
6.300000
 20
18.900000
 30
0.000000
  8
1
 62
7
  6
L000000000000000000
  0
VERTEX
 10
6.300000
 20
17.600000
 30
0.000000
  8
1
 62
7
  6
L000000000000000000
  0
SEQEND
  0
POLYLINE
  8
1
 62
7
  6
L000000000000000000
 70
1
 66
1
  0
VERTEX
 10
7.600000
 20
15.300000
 30
0.000000
  8
1
 62
7
  6
L000000000000000000
  0
VERTEX
 10
7.600000
 20
16.600000
 30
0.000000
  8
1
 62
7
  6
L000000000000000000
  0
VERTEX
 10
6.300000
 20
16.600000
 30
0.000000
  8
1
 62
7
  6
L000000000000000000
  0
VERTEX
 10
6.300000
 20
15.300000
 30
0.000000
  8
1
 62
7
  6
L000000000000000000
  0
SEQEND
  0
SOLID
  8
1
 62
254
  6
CONTINUOUS
 10
29.100000
 20
26.800000
 11
29.100000
 21
35.400000
 12
4.700000
 22
26.800000
 13
4.700000
 23
35.400000
  0
POLYLINE
  8
1
 62
7
  6
CONTINUOUS
 70
1
 66
1
  0
VERTEX
 10
29.100000
 20
26.800000
 30
0.000000
  8
1
 62
7
  6
CONTINUOUS
  0
VERTEX
 10
29.100000
 20
35.400000
 30
0.000000
  8
1
 62
7
  6
CONTINUOUS
  0
VERTEX
 10
4.700000
 20
35.400000
 30
0.000000
  8
1
 62
7
  6
CONTINUOUS
  0
VERTEX
 10
4.700000
 20
26.800000
 30
0.000000
  8
1
 62
7
  6
CONTINUOUS
  0
SEQEND
  0
CIRCLE
  8
1
 62
7
  6
CONTINUOUS
 10
5.400000
 20
31.000000
 30
0.0
 40
0.400000
  0
CIRCLE
  8
1
 62
7
  6
CONTINUOUS
 10
28.400000
 20
31.000000
 30
0.0
 40
0.400000
  0
CIRCLE
  8
1
 62
7
  6
CONTINUOUS
 10
5.400000
 20
33.500000
 30
0.0
 40
0.400000
  0
CIRCLE
  8
1
 62
7
  6
CONTINUOUS
 10
5.400000
 20
28.500000
 30
0.0
 40
0.400000
  0
CIRCLE
  8
1
 62
7
  6
CONTINUOUS
 10
28.400000
 20
33.500000
 30
0.0
 40
0.400000
  0
CIRCLE
  8
1
 62
7
  6
CONTINUOUS
 10
28.400000
 20
28.500000
 30
0.0
 40
0.400000
  0
POLYLINE
  8
1
 62
7
  6
L000000000000000000
 70
1
 66
1
  0
VERTEX
 10
7.600000
 20
32.800000
 30
0.000000
  8
1
 62
7
  6
L000000000000000000
  0
VERTEX
 10
7.600000
 20
34.100000
 30
0.000000
  8
1
 62
7
  6
L000000000000000000
  0
VERTEX
 10
6.300000
 20
34.100000
 30
0.000000
  8
1
 62
7
  6
L000000000000000000
  0
VERTEX
 10
6.300000
 20
32.800000
 30
0.000000
  8
1
 62
7
  6
L000000000000000000
  0
SEQEND
  0
POLYLINE
  8
1
 62
7
  6
L000000000000000000
 70
1
 66
1
  0
VERTEX
 10
11.600000
 20
33.500000
 30
0.000000
  8
1
 62
7
  6
L000000000000000000
  0
VERTEX
 10
11.600000
 20
34.800000
 30
0.000000
  8
1
 62
7
  6
L000000000000000000
  0
VERTEX
 10
10.300000
 20
34.800000
 30
0.000000
  8
1
 62
7
  6
L000000000000000000
  0
VERTEX
 10
10.300000
 20
33.500000
 30
0.000000
  8
1
 62
7
  6
L000000000000000000
  0
SEQEND
  0
POLYLINE
  8
1
 62
7
  6
L000000000000000000
 70
1
 66
1
  0
VERTEX
 10
17.400000
 20
33.500000
 30
0.000000
  8
1
 62
7
  6
L000000000000000000
  0
VERTEX
 10
17.400000
 20
34.800000
 30
0.000000
  8
1
 62
7
  6
L000000000000000000
  0
VERTEX
 10
16.100000
 20
34.800000
 30
0.000000
  8
1
 62
7
  6
L000000000000000000
  0
VERTEX
 10
16.100000
 20
33.500000
 30
0.000000
  8
1
 62
7
  6
L000000000000000000
  0
SEQEND
  0
POLYLINE
  8
1
 62
7
  6
L000000000000000000
 70
1
 66
1
  0
VERTEX
 10
23.200000
 20
33.500000
 30
0.000000
  8
1
 62
7
  6
L000000000000000000
  0
VERTEX
 10
23.200000
 20
34.800000
 30
0.000000
  8
1
 62
7
  6
L000000000000000000
  0
VERTEX
 10
21.900000
 20
34.800000
 30
0.000000
  8
1
 62
7
  6
L000000000000000000
  0
VERTEX
 10
21.900000
 20
33.500000
 30
0.000000
  8
1
 62
7
  6
L000000000000000000
  0
SEQEND
  0
POLYLINE
  8
1
 62
7
  6
L000000000000000000
 70
1
 66
1
  0
VERTEX
 10
27.200000
 20
32.800000
 30
0.000000
  8
1
 62
7
  6
L000000000000000000
  0
VERTEX
 10
27.200000
 20
34.100000
 30
0.000000
  8
1
 62
7
  6
L000000000000000000
  0
VERTEX
 10
25.900000
 20
34.100000
 30
0.000000
  8
1
 62
7
  6
L000000000000000000
  0
VERTEX
 10
25.900000
 20
32.800000
 30
0.000000
  8
1
 62
7
  6
L000000000000000000
  0
SEQEND
  0
POLYLINE
  8
1
 62
7
  6
L000000000000000000
 70
1
 66
1
  0
VERTEX
 10
27.200000
 20
30.100000
 30
0.000000
  8
1
 62
7
  6
L000000000000000000
  0
VERTEX
 10
27.200000
 20
31.400000
 30
0.000000
  8
1
 62
7
  6
L000000000000000000
  0
VERTEX
 10
25.900000
 20
31.400000
 30
0.000000
  8
1
 62
7
  6
L000000000000000000
  0
VERTEX
 10
25.900000
 20
30.100000
 30
0.000000
  8
1
 62
7
  6
L000000000000000000
  0
SEQEND
  0
POLYLINE
  8
1
 62
7
  6
L000000000000000000
 70
1
 66
1
  0
VERTEX
 10
27.200000
 20
27.800000
 30
0.000000
  8
1
 62
7
  6
L000000000000000000
  0
VERTEX
 10
27.200000
 20
29.100000
 30
0.000000
  8
1
 62
7
  6
L000000000000000000
  0
VERTEX
 10
25.900000
 20
29.100000
 30
0.000000
  8
1
 62
7
  6
L000000000000000000
  0
VERTEX
 10
25.900000
 20
27.800000
 30
0.000000
  8
1
 62
7
  6
L000000000000000000
  0
SEQEND
  0
POLYLINE
  8
1
 62
7
  6
L000000000000000000
 70
1
 66
1
  0
VERTEX
 10
7.600000
 20
30.100000
 30
0.000000
  8
1
 62
7
  6
L000000000000000000
  0
VERTEX
 10
7.600000
 20
31.400000
 30
0.000000
  8
1
 62
7
  6
L000000000000000000
  0
VERTEX
 10
6.300000
 20
31.400000
 30
0.000000
  8
1
 62
7
  6
L000000000000000000
  0
VERTEX
 10
6.300000
 20
30.100000
 30
0.000000
  8
1
 62
7
  6
L000000000000000000
  0
SEQEND
  0
POLYLINE
  8
1
 62
7
  6
L000000000000000000
 70
1
 66
1
  0
VERTEX
 10
7.600000
 20
27.800000
 30
0.000000
  8
1
 62
7
  6
L000000000000000000
  0
VERTEX
 10
7.600000
 20
29.100000
 30
0.000000
  8
1
 62
7
  6
L000000000000000000
  0
VERTEX
 10
6.300000
 20
29.100000
 30
0.000000
  8
1
 62
7
  6
L000000000000000000
  0
VERTEX
 10
6.300000
 20
27.800000
 30
0.000000
  8
1
 62
7
  6
L000000000000000000
  0
SEQEND
  0
SOLID
  8
1
 62
254
  6
CONTINUOUS
 10
29.100000
 20
39.300000
 11
29.100000
 21
47.900000
 12
4.700000
 22
39.300000
 13
4.700000
 23
47.900000
  0
POLYLINE
  8
1
 62
7
  6
CONTINUOUS
 70
1
 66
1
  0
VERTEX
 10
29.100000
 20
39.300000
 30
0.000000
  8
1
 62
7
  6
CONTINUOUS
  0
VERTEX
 10
29.100000
 20
47.900000
 30
0.000000
  8
1
 62
7
  6
CONTINUOUS
  0
VERTEX
 10
4.700000
 20
47.900000
 30
0.000000
  8
1
 62
7
  6
CONTINUOUS
  0
VERTEX
 10
4.700000
 20
39.300000
 30
0.000000
  8
1
 62
7
  6
CONTINUOUS
  0
SEQEND
  0
CIRCLE
  8
1
 62
7
  6
CONTINUOUS
 10
5.400000
 20
43.500000
 30
0.0
 40
0.400000
  0
CIRCLE
  8
1
 62
7
  6
CONTINUOUS
 10
28.400000
 20
43.500000
 30
0.0
 40
0.400000
  0
CIRCLE
  8
1
 62
7
  6
CONTINUOUS
 10
5.400000
 20
46.000000
 30
0.0
 40
0.400000
  0
CIRCLE
  8
1
 62
7
  6
CONTINUOUS
 10
5.400000
 20
41.000000
 30
0.0
 40
0.400000
  0
CIRCLE
  8
1
 62
7
  6
CONTINUOUS
 10
28.400000
 20
46.000000
 30
0.0
 40
0.400000
  0
CIRCLE
  8
1
 62
7
  6
CONTINUOUS
 10
28.400000
 20
41.000000
 30
0.0
 40
0.400000
  0
POLYLINE
  8
1
 62
7
  6
L000000000000000000
 70
1
 66
1
  0
VERTEX
 10
7.600000
 20
45.300000
 30
0.000000
  8
1
 62
7
  6
L000000000000000000
  0
VERTEX
 10
7.600000
 20
46.600000
 30
0.000000
  8
1
 62
7
  6
L000000000000000000
  0
VERTEX
 10
6.300000
 20
46.600000
 30
0.000000
  8
1
 62
7
  6
L000000000000000000
  0
VERTEX
 10
6.300000
 20
45.300000
 30
0.000000
  8
1
 62
7
  6
L000000000000000000
  0
SEQEND
  0
POLYLINE
  8
1
 62
7
  6
L000000000000000000
 70
1
 66
1
  0
VERTEX
 10
11.600000
 20
46.000000
 30
0.000000
  8
1
 62
7
  6
L000000000000000000
  0
VERTEX
 10
11.600000
 20
47.300000
 30
0.000000
  8
1
 62
7
  6
L000000000000000000
  0
VERTEX
 10
10.300000
 20
47.300000
 30
0.000000
  8
1
 62
7
  6
L000000000000000000
  0
VERTEX
 10
10.300000
 20
46.000000
 30
0.000000
  8
1
 62
7
  6
L000000000000000000
  0
SEQEND
  0
POLYLINE
  8
1
 62
7
  6
L000000000000000000
 70
1
 66
1
  0
VERTEX
 10
17.400000
 20
46.000000
 30
0.000000
  8
1
 62
7
  6
L000000000000000000
  0
VERTEX
 10
17.400000
 20
47.300000
 30
0.000000
  8
1
 62
7
  6
L000000000000000000
  0
VERTEX
 10
16.100000
 20
47.300000
 30
0.000000
  8
1
 62
7
  6
L000000000000000000
  0
VERTEX
 10
16.100000
 20
46.000000
 30
0.000000
  8
1
 62
7
  6
L000000000000000000
  0
SEQEND
  0
POLYLINE
  8
1
 62
7
  6
L000000000000000000
 70
1
 66
1
  0
VERTEX
 10
23.200000
 20
46.000000
 30
0.000000
  8
1
 62
7
  6
L000000000000000000
  0
VERTEX
 10
23.200000
 20
47.300000
 30
0.000000
  8
1
 62
7
  6
L000000000000000000
  0
VERTEX
 10
21.900000
 20
47.300000
 30
0.000000
  8
1
 62
7
  6
L000000000000000000
  0
VERTEX
 10
21.900000
 20
46.000000
 30
0.000000
  8
1
 62
7
  6
L000000000000000000
  0
SEQEND
  0
POLYLINE
  8
1
 62
7
  6
L000000000000000000
 70
1
 66
1
  0
VERTEX
 10
27.200000
 20
45.300000
 30
0.000000
  8
1
 62
7
  6
L000000000000000000
  0
VERTEX
 10
27.200000
 20
46.600000
 30
0.000000
  8
1
 62
7
  6
L000000000000000000
  0
VERTEX
 10
25.900000
 20
46.600000
 30
0.000000
  8
1
 62
7
  6
L000000000000000000
  0
VERTEX
 10
25.900000
 20
45.300000
 30
0.000000
  8
1
 62
7
  6
L000000000000000000
  0
SEQEND
  0
POLYLINE
  8
1
 62
7
  6
L000000000000000000
 70
1
 66
1
  0
VERTEX
 10
27.200000
 20
42.600000
 30
0.000000
  8
1
 62
7
  6
L000000000000000000
  0
VERTEX
 10
27.200000
 20
43.900000
 30
0.000000
  8
1
 62
7
  6
L000000000000000000
  0
VERTEX
 10
25.900000
 20
43.900000
 30
0.000000
  8
1
 62
7
  6
L000000000000000000
  0
VERTEX
 10
25.900000
 20
42.600000
 30
0.000000
  8
1
 62
7
  6
L000000000000000000
  0
SEQEND
  0
POLYLINE
  8
1
 62
7
  6
L000000000000000000
 70
1
 66
1
  0
VERTEX
 10
27.200000
 20
40.300000
 30
0.000000
  8
1
 62
7
  6
L000000000000000000
  0
VERTEX
 10
27.200000
 20
41.600000
 30
0.000000
  8
1
 62
7
  6
L000000000000000000
  0
VERTEX
 10
25.900000
 20
41.600000
 30
0.000000
  8
1
 62
7
  6
L000000000000000000
  0
VERTEX
 10
25.900000
 20
40.300000
 30
0.000000
  8
1
 62
7
  6
L000000000000000000
  0
SEQEND
  0
POLYLINE
  8
1
 62
7
  6
L000000000000000000
 70
1
 66
1
  0
VERTEX
 10
7.600000
 20
42.600000
 30
0.000000
  8
1
 62
7
  6
L000000000000000000
  0
VERTEX
 10
7.600000
 20
43.900000
 30
0.000000
  8
1
 62
7
  6
L000000000000000000
  0
VERTEX
 10
6.300000
 20
43.900000
 30
0.000000
  8
1
 62
7
  6
L000000000000000000
  0
VERTEX
 10
6.300000
 20
42.600000
 30
0.000000
  8
1
 62
7
  6
L000000000000000000
  0
SEQEND
  0
POLYLINE
  8
1
 62
7
  6
L000000000000000000
 70
1
 66
1
  0
VERTEX
 10
7.600000
 20
40.300000
 30
0.000000
  8
1
 62
7
  6
L000000000000000000
  0
VERTEX
 10
7.600000
 20
41.600000
 30
0.000000
  8
1
 62
7
  6
L000000000000000000
  0
VERTEX
 10
6.300000
 20
41.600000
 30
0.000000
  8
1
 62
7
  6
L000000000000000000
  0
VERTEX
 10
6.300000
 20
40.300000
 30
0.000000
  8
1
 62
7
  6
L000000000000000000
  0
SEQEND
  0
SOLID
  8
1
 62
254
  6
CONTINUOUS
 10
29.100000
 20
51.800000
 11
29.100000
 21
60.400000
 12
4.700000
 22
51.800000
 13
4.700000
 23
60.400000
  0
POLYLINE
  8
1
 62
7
  6
CONTINUOUS
 70
1
 66
1
  0
VERTEX
 10
29.100000
 20
51.800000
 30
0.000000
  8
1
 62
7
  6
CONTINUOUS
  0
VERTEX
 10
29.100000
 20
60.400000
 30
0.000000
  8
1
 62
7
  6
CONTINUOUS
  0
VERTEX
 10
4.700000
 20
60.400000
 30
0.000000
  8
1
 62
7
  6
CONTINUOUS
  0
VERTEX
 10
4.700000
 20
51.800000
 30
0.000000
  8
1
 62
7
  6
CONTINUOUS
  0
SEQEND
  0
CIRCLE
  8
1
 62
7
  6
CONTINUOUS
 10
5.400000
 20
56.000000
 30
0.0
 40
0.400000
  0
CIRCLE
  8
1
 62
7
  6
CONTINUOUS
 10
28.400000
 20
56.000000
 30
0.0
 40
0.400000
  0
CIRCLE
  8
1
 62
7
  6
CONTINUOUS
 10
5.400000
 20
58.500000
 30
0.0
 40
0.400000
  0
CIRCLE
  8
1
 62
7
  6
CONTINUOUS
 10
5.400000
 20
53.500000
 30
0.0
 40
0.400000
  0
CIRCLE
  8
1
 62
7
  6
CONTINUOUS
 10
28.400000
 20
58.500000
 30
0.0
 40
0.400000
  0
CIRCLE
  8
1
 62
7
  6
CONTINUOUS
 10
28.400000
 20
53.500000
 30
0.0
 40
0.400000
  0
POLYLINE
  8
1
 62
7
  6
L000000000000000000
 70
1
 66
1
  0
VERTEX
 10
7.600000
 20
57.800000
 30
0.000000
  8
1
 62
7
  6
L000000000000000000
  0
VERTEX
 10
7.600000
 20
59.100000
 30
0.000000
  8
1
 62
7
  6
L000000000000000000
  0
VERTEX
 10
6.300000
 20
59.100000
 30
0.000000
  8
1
 62
7
  6
L000000000000000000
  0
VERTEX
 10
6.300000
 20
57.800000
 30
0.000000
  8
1
 62
7
  6
L000000000000000000
  0
SEQEND
  0
POLYLINE
  8
1
 62
7
  6
L000000000000000000
 70
1
 66
1
  0
VERTEX
 10
11.600000
 20
58.500000
 30
0.000000
  8
1
 62
7
  6
L000000000000000000
  0
VERTEX
 10
11.600000
 20
59.800000
 30
0.000000
  8
1
 62
7
  6
L000000000000000000
  0
VERTEX
 10
10.300000
 20
59.800000
 30
0.000000
  8
1
 62
7
  6
L000000000000000000
  0
VERTEX
 10
10.300000
 20
58.500000
 30
0.000000
  8
1
 62
7
  6
L000000000000000000
  0
SEQEND
  0
POLYLINE
  8
1
 62
7
  6
L000000000000000000
 70
1
 66
1
  0
VERTEX
 10
17.400000
 20
58.500000
 30
0.000000
  8
1
 62
7
  6
L000000000000000000
  0
VERTEX
 10
17.400000
 20
59.800000
 30
0.000000
  8
1
 62
7
  6
L000000000000000000
  0
VERTEX
 10
16.100000
 20
59.800000
 30
0.000000
  8
1
 62
7
  6
L000000000000000000
  0
VERTEX
 10
16.100000
 20
58.500000
 30
0.000000
  8
1
 62
7
  6
L000000000000000000
  0
SEQEND
  0
POLYLINE
  8
1
 62
7
  6
L000000000000000000
 70
1
 66
1
  0
VERTEX
 10
23.200000
 20
58.500000
 30
0.000000
  8
1
 62
7
  6
L000000000000000000
  0
VERTEX
 10
23.200000
 20
59.800000
 30
0.000000
  8
1
 62
7
  6
L000000000000000000
  0
VERTEX
 10
21.900000
 20
59.800000
 30
0.000000
  8
1
 62
7
  6
L000000000000000000
  0
VERTEX
 10
21.900000
 20
58.500000
 30
0.000000
  8
1
 62
7
  6
L000000000000000000
  0
SEQEND
  0
POLYLINE
  8
1
 62
7
  6
L000000000000000000
 70
1
 66
1
  0
VERTEX
 10
27.200000
 20
57.800000
 30
0.000000
  8
1
 62
7
  6
L000000000000000000
  0
VERTEX
 10
27.200000
 20
59.100000
 30
0.000000
  8
1
 62
7
  6
L000000000000000000
  0
VERTEX
 10
25.900000
 20
59.100000
 30
0.000000
  8
1
 62
7
  6
L000000000000000000
  0
VERTEX
 10
25.900000
 20
57.800000
 30
0.000000
  8
1
 62
7
  6
L000000000000000000
  0
SEQEND
  0
POLYLINE
  8
1
 62
7
  6
L000000000000000000
 70
1
 66
1
  0
VERTEX
 10
27.200000
 20
55.100000
 30
0.000000
  8
1
 62
7
  6
L000000000000000000
  0
VERTEX
 10
27.200000
 20
56.400000
 30
0.000000
  8
1
 62
7
  6
L000000000000000000
  0
VERTEX
 10
25.900000
 20
56.400000
 30
0.000000
  8
1
 62
7
  6
L000000000000000000
  0
VERTEX
 10
25.900000
 20
55.100000
 30
0.000000
  8
1
 62
7
  6
L000000000000000000
  0
SEQEND
  0
POLYLINE
  8
1
 62
7
  6
L000000000000000000
 70
1
 66
1
  0
VERTEX
 10
27.200000
 20
52.800000
 30
0.000000
  8
1
 62
7
  6
L000000000000000000
  0
VERTEX
 10
27.200000
 20
54.100000
 30
0.000000
  8
1
 62
7
  6
L000000000000000000
  0
VERTEX
 10
25.900000
 20
54.100000
 30
0.000000
  8
1
 62
7
  6
L000000000000000000
  0
VERTEX
 10
25.900000
 20
52.800000
 30
0.000000
  8
1
 62
7
  6
L000000000000000000
  0
SEQEND
  0
POLYLINE
  8
1
 62
7
  6
L000000000000000000
 70
1
 66
1
  0
VERTEX
 10
7.600000
 20
55.100000
 30
0.000000
  8
1
 62
7
  6
L000000000000000000
  0
VERTEX
 10
7.600000
 20
56.400000
 30
0.000000
  8
1
 62
7
  6
L000000000000000000
  0
VERTEX
 10
6.300000
 20
56.400000
 30
0.000000
  8
1
 62
7
  6
L000000000000000000
  0
VERTEX
 10
6.300000
 20
55.100000
 30
0.000000
  8
1
 62
7
  6
L000000000000000000
  0
SEQEND
  0
POLYLINE
  8
1
 62
7
  6
L000000000000000000
 70
1
 66
1
  0
VERTEX
 10
7.600000
 20
52.800000
 30
0.000000
  8
1
 62
7
  6
L000000000000000000
  0
VERTEX
 10
7.600000
 20
54.100000
 30
0.000000
  8
1
 62
7
  6
L000000000000000000
  0
VERTEX
 10
6.300000
 20
54.100000
 30
0.000000
  8
1
 62
7
  6
L000000000000000000
  0
VERTEX
 10
6.300000
 20
52.800000
 30
0.000000
  8
1
 62
7
  6
L000000000000000000
  0
SEQEND
  0
POLYLINE
  8
1
 62
7
  6
L000000000000000000
 70
1
 66
1
  0
VERTEX
 10
27.200000
 20
17.900000
 30
0.000000
  8
1
 62
7
  6
L000000000000000000
  0
VERTEX
 10
27.200000
 20
19.200000
 30
0.000000
  8
1
 62
7
  6
L000000000000000000
  0
VERTEX
 10
25.900000
 20
19.200000
 30
0.000000
  8
1
 62
7
  6
L000000000000000000
  0
VERTEX
 10
25.900000
 20
17.900000
 30
0.000000
  8
1
 62
7
  6
L000000000000000000
  0
SEQEND
  0
POLYLINE
  8
1
 62
7
  6
L000000000000000000
 70
1
 66
1
  0
VERTEX
 10
7.600000
 20
17.900000
 30
0.000000
  8
1
 62
7
  6
L000000000000000000
  0
VERTEX
 10
7.600000
 20
19.200000
 30
0.000000
  8
1
 62
7
  6
L000000000000000000
  0
VERTEX
 10
6.300000
 20
19.200000
 30
0.000000
  8
1
 62
7
  6
L000000000000000000
  0
VERTEX
 10
6.300000
 20
17.900000
 30
0.000000
  8
1
 62
7
  6
L000000000000000000
  0
SEQEND
  0
POLYLINE
  8
1
 62
7
  6
CONTINUOUS
 70
1
 66
1
  0
VERTEX
 10
29.900000
 20
17.700000
 30
0.000000
  8
1
 62
7
  6
CONTINUOUS
  0
VERTEX
 10
29.900000
 20
19.400000
 30
0.000000
  8
1
 62
7
  6
CONTINUOUS
  0
VERTEX
 10
3.900000
 20
19.400000
 30
0.000000
  8
1
 62
7
  6
CONTINUOUS
  0
VERTEX
 10
3.900000
 20
17.700000
 30
0.000000
  8
1
 62
7
  6
CONTINUOUS
  0
SEQEND
  0
POLYLINE
  8
1
 62
7
  6
CONTINUOUS
 70
1
 66
1
  0
VERTEX
 10
29.700000
 20
17.900000
 30
0.000000
  8
1
 62
7
  6
CONTINUOUS
  0
VERTEX
 10
29.700000
 20
19.200000
 30
0.000000
  8
1
 62
7
  6
CONTINUOUS
  0
VERTEX
 10
4.100000
 20
19.200000
 30
0.000000
  8
1
 62
7
  6
CONTINUOUS
  0
VERTEX
 10
4.100000
 20
17.900000
 30
0.000000
  8
1
 62
7
  6
CONTINUOUS
  0
SEQEND
  0
SOLID
  8
1
 62
254
  6
CONTINUOUS
 10
7.800000
 20
17.900000
 11
7.800000
 21
19.200000
 12
5.600000
 22
17.900000
 13
5.600000
 23
19.200000
  0
POLYLINE
  8
1
 62
7
  6
CONTINUOUS
 70
1
 66
1
  0
VERTEX
 10
7.800000
 20
17.900000
 30
0.000000
  8
1
 62
7
  6
CONTINUOUS
  0
VERTEX
 10
7.800000
 20
19.200000
 30
0.000000
  8
1
 62
7
  6
CONTINUOUS
  0
VERTEX
 10
5.600000
 20
19.200000
 30
0.000000
  8
1
 62
7
  6
CONTINUOUS
  0
VERTEX
 10
5.600000
 20
17.900000
 30
0.000000
  8
1
 62
7
  6
CONTINUOUS
  0
SEQEND
  0
SOLID
  8
1
 62
254
  6
CONTINUOUS
 10
27.900000
 20
17.900000
 11
27.900000
 21
19.200000
 12
25.700000
 22
17.900000
 13
25.700000
 23
19.200000
  0
POLYLINE
  8
1
 62
7
  6
CONTINUOUS
 70
1
 66
1
  0
VERTEX
 10
27.900000
 20
17.900000
 30
0.000000
  8
1
 62
7
  6
CONTINUOUS
  0
VERTEX
 10
27.900000
 20
19.200000
 30
0.000000
  8
1
 62
7
  6
CONTINUOUS
  0
VERTEX
 10
25.700000
 20
19.200000
 30
0.000000
  8
1
 62
7
  6
CONTINUOUS
  0
VERTEX
 10
25.700000
 20
17.900000
 30
0.000000
  8
1
 62
7
  6
CONTINUOUS
  0
SEQEND
  0
POLYLINE
  8
1
 62
7
  6
CONTINUOUS
 70
1
 66
1
  0
VERTEX
 10
27.300000
 20
19.200000
  8
1
 62
7
  6
CONTINUOUS
  0
VERTEX
 10
28.900000
 20
19.200000
  8
1
 62
7
  6
CONTINUOUS
  0
VERTEX
 10
28.900000
 20
17.900000
  8
1
 62
7
  6
CONTINUOUS
  0
VERTEX
 10
27.300000
 20
17.900000
  8
1
 62
7
  6
CONTINUOUS
  0
VERTEX
 10
27.300000
 20
18.100000
  8
1
 62
7
  6
CONTINUOUS
  0
VERTEX
 10
28.700000
 20
18.100000
  8
1
 62
7
  6
CONTINUOUS
  0
VERTEX
 10
28.700000
 20
19.000000
  8
1
 62
7
  6
CONTINUOUS
  0
VERTEX
 10
27.300000
 20
19.000000
  8
1
 62
7
  6
CONTINUOUS
  0
SEQEND
  0
POLYLINE
  8
1
 62
7
  6
CONTINUOUS
 70
1
 66
1
  0
VERTEX
 10
28.300000
 20
19.400000
  8
1
 62
7
  6
CONTINUOUS
  0
VERTEX
 10
29.900000
 20
19.400000
  8
1
 62
7
  6
CONTINUOUS
  0
VERTEX
 10
29.900000
 20
17.700000
  8
1
 62
7
  6
CONTINUOUS
  0
VERTEX
 10
28.300000
 20
17.700000
  8
1
 62
7
  6
CONTINUOUS
  0
VERTEX
 10
28.300000
 20
17.900000
  8
1
 62
7
  6
CONTINUOUS
  0
VERTEX
 10
29.700000
 20
17.900000
  8
1
 62
7
  6
CONTINUOUS
  0
VERTEX
 10
29.700000
 20
19.200000
  8
1
 62
7
  6
CONTINUOUS
  0
VERTEX
 10
28.300000
 20
19.200000
  8
1
 62
7
  6
CONTINUOUS
  0
SEQEND
  0
POLYLINE
  8
1
 62
7
  6
CONTINUOUS
 70
1
 66
1
  0
VERTEX
 10
5.500000
 20
19.400000
  8
1
 62
7
  6
CONTINUOUS
  0
VERTEX
 10
3.900000
 20
19.400000
  8
1
 62
7
  6
CONTINUOUS
  0
VERTEX
 10
3.900000
 20
17.700000
  8
1
 62
7
  6
CONTINUOUS
  0
VERTEX
 10
5.500000
 20
17.700000
  8
1
 62
7
  6
CONTINUOUS
  0
VERTEX
 10
5.500000
 20
17.900000
  8
1
 62
7
  6
CONTINUOUS
  0
VERTEX
 10
4.100000
 20
17.900000
  8
1
 62
7
  6
CONTINUOUS
  0
VERTEX
 10
4.100000
 20
19.200000
  8
1
 62
7
  6
CONTINUOUS
  0
VERTEX
 10
5.500000
 20
19.200000
  8
1
 62
7
  6
CONTINUOUS
  0
SEQEND
  0
POLYLINE
  8
1
 62
7
  6
CONTINUOUS
 70
1
 66
1
  0
VERTEX
 10
25.300000
 20
19.200000
  8
1
 62
7
  6
CONTINUOUS
  0
VERTEX
 10
26.900000
 20
19.200000
  8
1
 62
7
  6
CONTINUOUS
  0
VERTEX
 10
26.900000
 20
17.900000
  8
1
 62
7
  6
CONTINUOUS
  0
VERTEX
 10
25.300000
 20
17.900000
  8
1
 62
7
  6
CONTINUOUS
  0
VERTEX
 10
25.300000
 20
18.100000
  8
1
 62
7
  6
CONTINUOUS
  0
VERTEX
 10
26.700000
 20
18.100000
  8
1
 62
7
  6
CONTINUOUS
  0
VERTEX
 10
26.700000
 20
19.000000
  8
1
 62
7
  6
CONTINUOUS
  0
VERTEX
 10
25.300000
 20
19.000000
  8
1
 62
7
  6
CONTINUOUS
  0
SEQEND
  0
POLYLINE
  8
1
 62
7
  6
CONTINUOUS
 70
1
 66
1
  0
VERTEX
 10
6.500000
 20
19.200000
  8
1
 62
7
  6
CONTINUOUS
  0
VERTEX
 10
4.900000
 20
19.200000
  8
1
 62
7
  6
CONTINUOUS
  0
VERTEX
 10
4.900000
 20
17.900000
  8
1
 62
7
  6
CONTINUOUS
  0
VERTEX
 10
6.500000
 20
17.900000
  8
1
 62
7
  6
CONTINUOUS
  0
VERTEX
 10
6.500000
 20
18.100000
  8
1
 62
7
  6
CONTINUOUS
  0
VERTEX
 10
5.100000
 20
18.100000
  8
1
 62
7
  6
CONTINUOUS
  0
VERTEX
 10
5.100000
 20
19.000000
  8
1
 62
7
  6
CONTINUOUS
  0
VERTEX
 10
6.500000
 20
19.000000
  8
1
 62
7
  6
CONTINUOUS
  0
SEQEND
  0
POLYLINE
  8
1
 62
7
  6
CONTINUOUS
 70
1
 66
1
  0
VERTEX
 10
8.500000
 20
19.200000
  8
1
 62
7
  6
CONTINUOUS
  0
VERTEX
 10
6.900000
 20
19.200000
  8
1
 62
7
  6
CONTINUOUS
  0
VERTEX
 10
6.900000
 20
17.900000
  8
1
 62
7
  6
CONTINUOUS
  0
VERTEX
 10
8.500000
 20
17.900000
  8
1
 62
7
  6
CONTINUOUS
  0
VERTEX
 10
8.500000
 20
18.100000
  8
1
 62
7
  6
CONTINUOUS
  0
VERTEX
 10
7.100000
 20
18.100000
  8
1
 62
7
  6
CONTINUOUS
  0
VERTEX
 10
7.100000
 20
19.000000
  8
1
 62
7
  6
CONTINUOUS
  0
VERTEX
 10
8.500000
 20
19.000000
  8
1
 62
7
  6
CONTINUOUS
  0
SEQEND
  0
POLYLINE
  8
1
 62
7
  6
L000000000000000000
 70
1
 66
1
  0
VERTEX
 10
27.200000
 20
42.900000
 30
0.000000
  8
1
 62
7
  6
L000000000000000000
  0
VERTEX
 10
27.200000
 20
44.200000
 30
0.000000
  8
1
 62
7
  6
L000000000000000000
  0
VERTEX
 10
25.900000
 20
44.200000
 30
0.000000
  8
1
 62
7
  6
L000000000000000000
  0
VERTEX
 10
25.900000
 20
42.900000
 30
0.000000
  8
1
 62
7
  6
L000000000000000000
  0
SEQEND
  0
POLYLINE
  8
1
 62
7
  6
L000000000000000000
 70
1
 66
1
  0
VERTEX
 10
7.600000
 20
42.900000
 30
0.000000
  8
1
 62
7
  6
L000000000000000000
  0
VERTEX
 10
7.600000
 20
44.200000
 30
0.000000
  8
1
 62
7
  6
L000000000000000000
  0
VERTEX
 10
6.300000
 20
44.200000
 30
0.000000
  8
1
 62
7
  6
L000000000000000000
  0
VERTEX
 10
6.300000
 20
42.900000
 30
0.000000
  8
1
 62
7
  6
L000000000000000000
  0
SEQEND
  0
POLYLINE
  8
1
 62
7
  6
CONTINUOUS
 70
1
 66
1
  0
VERTEX
 10
29.900000
 20
42.700000
 30
0.000000
  8
1
 62
7
  6
CONTINUOUS
  0
VERTEX
 10
29.900000
 20
44.400000
 30
0.000000
  8
1
 62
7
  6
CONTINUOUS
  0
VERTEX
 10
3.900000
 20
44.400000
 30
0.000000
  8
1
 62
7
  6
CONTINUOUS
  0
VERTEX
 10
3.900000
 20
42.700000
 30
0.000000
  8
1
 62
7
  6
CONTINUOUS
  0
SEQEND
  0
POLYLINE
  8
1
 62
7
  6
CONTINUOUS
 70
1
 66
1
  0
VERTEX
 10
29.700000
 20
42.900000
 30
0.000000
  8
1
 62
7
  6
CONTINUOUS
  0
VERTEX
 10
29.700000
 20
44.200000
 30
0.000000
  8
1
 62
7
  6
CONTINUOUS
  0
VERTEX
 10
4.100000
 20
44.200000
 30
0.000000
  8
1
 62
7
  6
CONTINUOUS
  0
VERTEX
 10
4.100000
 20
42.900000
 30
0.000000
  8
1
 62
7
  6
CONTINUOUS
  0
SEQEND
  0
SOLID
  8
1
 62
254
  6
CONTINUOUS
 10
7.800000
 20
42.900000
 11
7.800000
 21
44.200000
 12
5.600000
 22
42.900000
 13
5.600000
 23
44.200000
  0
POLYLINE
  8
1
 62
7
  6
CONTINUOUS
 70
1
 66
1
  0
VERTEX
 10
7.800000
 20
42.900000
 30
0.000000
  8
1
 62
7
  6
CONTINUOUS
  0
VERTEX
 10
7.800000
 20
44.200000
 30
0.000000
  8
1
 62
7
  6
CONTINUOUS
  0
VERTEX
 10
5.600000
 20
44.200000
 30
0.000000
  8
1
 62
7
  6
CONTINUOUS
  0
VERTEX
 10
5.600000
 20
42.900000
 30
0.000000
  8
1
 62
7
  6
CONTINUOUS
  0
SEQEND
  0
SOLID
  8
1
 62
254
  6
CONTINUOUS
 10
27.900000
 20
42.900000
 11
27.900000
 21
44.200000
 12
25.700000
 22
42.900000
 13
25.700000
 23
44.200000
  0
POLYLINE
  8
1
 62
7
  6
CONTINUOUS
 70
1
 66
1
  0
VERTEX
 10
27.900000
 20
42.900000
 30
0.000000
  8
1
 62
7
  6
CONTINUOUS
  0
VERTEX
 10
27.900000
 20
44.200000
 30
0.000000
  8
1
 62
7
  6
CONTINUOUS
  0
VERTEX
 10
25.700000
 20
44.200000
 30
0.000000
  8
1
 62
7
  6
CONTINUOUS
  0
VERTEX
 10
25.700000
 20
42.900000
 30
0.000000
  8
1
 62
7
  6
CONTINUOUS
  0
SEQEND
  0
POLYLINE
  8
1
 62
7
  6
CONTINUOUS
 70
1
 66
1
  0
VERTEX
 10
27.300000
 20
44.200000
  8
1
 62
7
  6
CONTINUOUS
  0
VERTEX
 10
28.900000
 20
44.200000
  8
1
 62
7
  6
CONTINUOUS
  0
VERTEX
 10
28.900000
 20
42.900000
  8
1
 62
7
  6
CONTINUOUS
  0
VERTEX
 10
27.300000
 20
42.900000
  8
1
 62
7
  6
CONTINUOUS
  0
VERTEX
 10
27.300000
 20
43.100000
  8
1
 62
7
  6
CONTINUOUS
  0
VERTEX
 10
28.700000
 20
43.100000
  8
1
 62
7
  6
CONTINUOUS
  0
VERTEX
 10
28.700000
 20
44.000000
  8
1
 62
7
  6
CONTINUOUS
  0
VERTEX
 10
27.300000
 20
44.000000
  8
1
 62
7
  6
CONTINUOUS
  0
SEQEND
  0
POLYLINE
  8
1
 62
7
  6
CONTINUOUS
 70
1
 66
1
  0
VERTEX
 10
28.300000
 20
44.400000
  8
1
 62
7
  6
CONTINUOUS
  0
VERTEX
 10
29.900000
 20
44.400000
  8
1
 62
7
  6
CONTINUOUS
  0
VERTEX
 10
29.900000
 20
42.700000
  8
1
 62
7
  6
CONTINUOUS
  0
VERTEX
 10
28.300000
 20
42.700000
  8
1
 62
7
  6
CONTINUOUS
  0
VERTEX
 10
28.300000
 20
42.900000
  8
1
 62
7
  6
CONTINUOUS
  0
VERTEX
 10
29.700000
 20
42.900000
  8
1
 62
7
  6
CONTINUOUS
  0
VERTEX
 10
29.700000
 20
44.200000
  8
1
 62
7
  6
CONTINUOUS
  0
VERTEX
 10
28.300000
 20
44.200000
  8
1
 62
7
  6
CONTINUOUS
  0
SEQEND
  0
POLYLINE
  8
1
 62
7
  6
CONTINUOUS
 70
1
 66
1
  0
VERTEX
 10
5.500000
 20
44.400000
  8
1
 62
7
  6
CONTINUOUS
  0
VERTEX
 10
3.900000
 20
44.400000
  8
1
 62
7
  6
CONTINUOUS
  0
VERTEX
 10
3.900000
 20
42.700000
  8
1
 62
7
  6
CONTINUOUS
  0
VERTEX
 10
5.500000
 20
42.700000
  8
1
 62
7
  6
CONTINUOUS
  0
VERTEX
 10
5.500000
 20
42.900000
  8
1
 62
7
  6
CONTINUOUS
  0
VERTEX
 10
4.100000
 20
42.900000
  8
1
 62
7
  6
CONTINUOUS
  0
VERTEX
 10
4.100000
 20
44.200000
  8
1
 62
7
  6
CONTINUOUS
  0
VERTEX
 10
5.500000
 20
44.200000
  8
1
 62
7
  6
CONTINUOUS
  0
SEQEND
  0
POLYLINE
  8
1
 62
7
  6
CONTINUOUS
 70
1
 66
1
  0
VERTEX
 10
25.300000
 20
44.200000
  8
1
 62
7
  6
CONTINUOUS
  0
VERTEX
 10
26.900000
 20
44.200000
  8
1
 62
7
  6
CONTINUOUS
  0
VERTEX
 10
26.900000
 20
42.900000
  8
1
 62
7
  6
CONTINUOUS
  0
VERTEX
 10
25.300000
 20
42.900000
  8
1
 62
7
  6
CONTINUOUS
  0
VERTEX
 10
25.300000
 20
43.100000
  8
1
 62
7
  6
CONTINUOUS
  0
VERTEX
 10
26.700000
 20
43.100000
  8
1
 62
7
  6
CONTINUOUS
  0
VERTEX
 10
26.700000
 20
44.000000
  8
1
 62
7
  6
CONTINUOUS
  0
VERTEX
 10
25.300000
 20
44.000000
  8
1
 62
7
  6
CONTINUOUS
  0
SEQEND
  0
POLYLINE
  8
1
 62
7
  6
CONTINUOUS
 70
1
 66
1
  0
VERTEX
 10
6.500000
 20
44.200000
  8
1
 62
7
  6
CONTINUOUS
  0
VERTEX
 10
4.900000
 20
44.200000
  8
1
 62
7
  6
CONTINUOUS
  0
VERTEX
 10
4.900000
 20
42.900000
  8
1
 62
7
  6
CONTINUOUS
  0
VERTEX
 10
6.500000
 20
42.900000
  8
1
 62
7
  6
CONTINUOUS
  0
VERTEX
 10
6.500000
 20
43.100000
  8
1
 62
7
  6
CONTINUOUS
  0
VERTEX
 10
5.100000
 20
43.100000
  8
1
 62
7
  6
CONTINUOUS
  0
VERTEX
 10
5.100000
 20
44.000000
  8
1
 62
7
  6
CONTINUOUS
  0
VERTEX
 10
6.500000
 20
44.000000
  8
1
 62
7
  6
CONTINUOUS
  0
SEQEND
  0
POLYLINE
  8
1
 62
7
  6
CONTINUOUS
 70
1
 66
1
  0
VERTEX
 10
8.500000
 20
44.200000
  8
1
 62
7
  6
CONTINUOUS
  0
VERTEX
 10
6.900000
 20
44.200000
  8
1
 62
7
  6
CONTINUOUS
  0
VERTEX
 10
6.900000
 20
42.900000
  8
1
 62
7
  6
CONTINUOUS
  0
VERTEX
 10
8.500000
 20
42.900000
  8
1
 62
7
  6
CONTINUOUS
  0
VERTEX
 10
8.500000
 20
43.100000
  8
1
 62
7
  6
CONTINUOUS
  0
VERTEX
 10
7.100000
 20
43.100000
  8
1
 62
7
  6
CONTINUOUS
  0
VERTEX
 10
7.100000
 20
44.000000
  8
1
 62
7
  6
CONTINUOUS
  0
VERTEX
 10
8.500000
 20
44.000000
  8
1
 62
7
  6
CONTINUOUS
  0
SEQEND
  0
ENDBLK
  0
ENDSEC
  0
SECTION
  2
ENTITIES
  0
INSERT
  8
0
 2
ak660m
 10
0.000000
 20
0.000000
 30
0.0
 50
0.0
  0
ENDSEC
  0
EOF
