  0
SECTION
  2
HEADER
  9
$ACADVER
  1
AC1009
  9
$INSBASE
 10
0.0
 20
0.0
 30
0.0
  9
$EXTMIN
 10
0.0
 20
0.0
 30
0.0
  9
$EXTMAX
 10
0.000000
 20
0.000000
 30
0.0
  9
$LIMMIN
 10
0.0
 20
0.0
  9
$LIMMAX
 10
0.000000
 20
0.000000
  0
ENDSEC
  0
SECTION
  2
TABLES
  0
TABLE
  2
LTYPE
 70
2
  0
LTYPE
  2
CONTINUOUS
 70
64
  3
Solid line
 72
65
 73
0
 40
0.000000
  0
LTYPE
  2
L000000000000000000
 70
64
  3
Solid line
 72
65
 73
0
 40
0.000000
  0
ENDTAB
  0
TABLE
  2
LAYER
 70
8
  0
LAYER
  2
0
 70
64
 62
7
  6
CONTINUOUS
  0
LAYER
  2
1
 70
64
 62
7
  6
CONTINUOUS
  0
LAYER
  2
2
 70
64
 62
7
  6
CONTINUOUS
  0
LAYER
  2
3
 70
64
 62
-7
  6
CONTINUOUS
  0
LAYER
  2
4
 70
64
 62
7
  6
CONTINUOUS
  0
LAYER
  2
5
 70
64
 62
7
  6
CONTINUOUS
  0
LAYER
  2
6
 70
64
 62
7
  6
CONTINUOUS
  0
LAYER
  2
7
 70
64
 62
-7
  6
CONTINUOUS
  0
LAYER
  2
8
 70
64
 62
7
  6
CONTINUOUS
  0
LAYER
  2
9
 70
64
 62
7
  6
CONTINUOUS
  0
LAYER
  2
10
 70
64
 62
7
  6
CONTINUOUS
  0
LAYER
  2
11
 70
64
 62
7
  6
CONTINUOUS
  0
LAYER
  2
12
 70
64
 62
7
  6
CONTINUOUS
  0
LAYER
  2
13
 70
64
 62
7
  6
CONTINUOUS
  0
LAYER
  2
14
 70
64
 62
7
  6
CONTINUOUS
  0
LAYER
  2
15
 70
64
 62
7
  6
CONTINUOUS
  0
LAYER
  2
16
 70
64
 62
7
  6
CONTINUOUS
  0
LAYER
  2
17
 70
64
 62
7
  6
CONTINUOUS
  0
LAYER
  2
18
 70
64
 62
7
  6
CONTINUOUS
  0
LAYER
  2
19
 70
64
 62
7
  6
CONTINUOUS
  0
LAYER
  2
20
 70
64
 62
7
  6
CONTINUOUS
  0
LAYER
  2
21
 70
64
 62
7
  6
CONTINUOUS
  0
LAYER
  2
22
 70
64
 62
7
  6
CONTINUOUS
  0
LAYER
  2
23
 70
64
 62
7
  6
CONTINUOUS
  0
LAYER
  2
24
 70
64
 62
7
  6
CONTINUOUS
  0
LAYER
  2
25
 70
64
 62
7
  6
CONTINUOUS
  0
LAYER
  2
26
 70
64
 62
7
  6
CONTINUOUS
  0
LAYER
  2
27
 70
64
 62
7
  6
CONTINUOUS
  0
LAYER
  2
28
 70
64
 62
7
  6
CONTINUOUS
  0
LAYER
  2
29
 70
64
 62
-7
  6
CONTINUOUS
  0
LAYER
  2
30
 70
64
 62
7
  6
CONTINUOUS
  0
LAYER
  2
31
 70
64
 62
7
  6
CONTINUOUS
  0
LAYER
  2
32
 70
64
 62
7
  6
CONTINUOUS
  0
LAYER
  2
33
 70
64
 62
7
  6
CONTINUOUS
  0
LAYER
  2
34
 70
64
 62
7
  6
CONTINUOUS
  0
LAYER
  2
35
 70
64
 62
7
  6
CONTINUOUS
  0
LAYER
  2
36
 70
64
 62
7
  6
CONTINUOUS
  0
LAYER
  2
37
 70
64
 62
7
  6
CONTINUOUS
  0
LAYER
  2
38
 70
64
 62
-7
  6
CONTINUOUS
  0
LAYER
  2
39
 70
64
 62
-7
  6
CONTINUOUS
  0
LAYER
  2
40
 70
64
 62
7
  6
CONTINUOUS
  0
LAYER
  2
41
 70
64
 62
7
  6
CONTINUOUS
  0
LAYER
  2
42
 70
64
 62
7
  6
CONTINUOUS
  0
LAYER
  2
43
 70
64
 62
7
  6
CONTINUOUS
  0
LAYER
  2
44
 70
64
 62
7
  6
CONTINUOUS
  0
LAYER
  2
45
 70
64
 62
7
  6
CONTINUOUS
  0
LAYER
  2
46
 70
64
 62
7
  6
CONTINUOUS
  0
LAYER
  2
47
 70
64
 62
-7
  6
CONTINUOUS
  0
LAYER
  2
48
 70
64
 62
-7
  6
CONTINUOUS
  0
LAYER
  2
49
 70
64
 62
-7
  6
CONTINUOUS
  0
LAYER
  2
50
 70
64
 62
-7
  6
CONTINUOUS
  0
LAYER
  2
51
 70
64
 62
-7
  6
CONTINUOUS
  0
LAYER
  2
52
 70
64
 62
-7
  6
CONTINUOUS
  0
LAYER
  2
53
 70
64
 62
-7
  6
CONTINUOUS
  0
LAYER
  2
54
 70
64
 62
-7
  6
CONTINUOUS
  0
LAYER
  2
55
 70
64
 62
-7
  6
CONTINUOUS
  0
LAYER
  2
56
 70
64
 62
7
  6
CONTINUOUS
  0
LAYER
  2
57
 70
64
 62
7
  6
CONTINUOUS
  0
LAYER
  2
58
 70
64
 62
7
  6
CONTINUOUS
  0
LAYER
  2
59
 70
64
 62
7
  6
CONTINUOUS
  0
LAYER
  2
60
 70
64
 62
7
  6
CONTINUOUS
  0
LAYER
  2
61
 70
64
 62
7
  6
CONTINUOUS
  0
LAYER
  2
62
 70
64
 62
7
  6
CONTINUOUS
  0
LAYER
  2
63
 70
64
 62
7
  6
CONTINUOUS
  0
LAYER
  2
64
 70
64
 62
7
  6
CONTINUOUS
  0
LAYER
  2
65
 70
64
 62
7
  6
CONTINUOUS
  0
LAYER
  2
66
 70
64
 62
7
  6
CONTINUOUS
  0
LAYER
  2
67
 70
64
 62
7
  6
CONTINUOUS
  0
LAYER
  2
68
 70
64
 62
7
  6
CONTINUOUS
  0
LAYER
  2
69
 70
64
 62
7
  6
CONTINUOUS
  0
LAYER
  2
70
 70
64
 62
7
  6
CONTINUOUS
  0
LAYER
  2
71
 70
64
 62
7
  6
CONTINUOUS
  0
LAYER
  2
72
 70
64
 62
7
  6
CONTINUOUS
  0
LAYER
  2
73
 70
64
 62
7
  6
CONTINUOUS
  0
LAYER
  2
74
 70
64
 62
7
  6
CONTINUOUS
  0
LAYER
  2
75
 70
64
 62
7
  6
CONTINUOUS
  0
LAYER
  2
76
 70
64
 62
7
  6
CONTINUOUS
  0
LAYER
  2
77
 70
64
 62
7
  6
CONTINUOUS
  0
LAYER
  2
78
 70
64
 62
7
  6
CONTINUOUS
  0
LAYER
  2
79
 70
64
 62
7
  6
CONTINUOUS
  0
LAYER
  2
80
 70
64
 62
7
  6
CONTINUOUS
  0
LAYER
  2
81
 70
64
 62
7
  6
CONTINUOUS
  0
LAYER
  2
82
 70
64
 62
7
  6
CONTINUOUS
  0
LAYER
  2
83
 70
64
 62
-7
  6
CONTINUOUS
  0
LAYER
  2
84
 70
64
 62
-7
  6
CONTINUOUS
  0
LAYER
  2
85
 70
64
 62
-7
  6
CONTINUOUS
  0
LAYER
  2
86
 70
64
 62
-7
  6
CONTINUOUS
  0
LAYER
  2
87
 70
64
 62
-7
  6
CONTINUOUS
  0
LAYER
  2
88
 70
64
 62
-7
  6
CONTINUOUS
  0
LAYER
  2
89
 70
64
 62
-7
  6
CONTINUOUS
  0
LAYER
  2
90
 70
64
 62
-7
  6
CONTINUOUS
  0
LAYER
  2
91
 70
64
 62
-7
  6
CONTINUOUS
  0
LAYER
  2
92
 70
64
 62
7
  6
CONTINUOUS
  0
LAYER
  2
93
 70
64
 62
7
  6
CONTINUOUS
  0
LAYER
  2
94
 70
64
 62
7
  6
CONTINUOUS
  0
LAYER
  2
95
 70
64
 62
7
  6
CONTINUOUS
  0
LAYER
  2
96
 70
64
 62
7
  6
CONTINUOUS
  0
LAYER
  2
97
 70
64
 62
7
  6
CONTINUOUS
  0
LAYER
  2
98
 70
64
 62
7
  6
CONTINUOUS
  0
LAYER
  2
99
 70
64
 62
7
  6
CONTINUOUS
  0
LAYER
  2
100
 70
64
 62
7
  6
CONTINUOUS
  0
LAYER
  2
101
 70
64
 62
7
  6
CONTINUOUS
  0
LAYER
  2
102
 70
64
 62
7
  6
CONTINUOUS
  0
LAYER
  2
103
 70
64
 62
7
  6
CONTINUOUS
  0
LAYER
  2
104
 70
64
 62
7
  6
CONTINUOUS
  0
LAYER
  2
105
 70
64
 62
7
  6
CONTINUOUS
  0
LAYER
  2
106
 70
64
 62
7
  6
CONTINUOUS
  0
LAYER
  2
107
 70
64
 62
7
  6
CONTINUOUS
  0
LAYER
  2
108
 70
64
 62
7
  6
CONTINUOUS
  0
LAYER
  2
109
 70
64
 62
7
  6
CONTINUOUS
  0
LAYER
  2
110
 70
64
 62
7
  6
CONTINUOUS
  0
LAYER
  2
111
 70
64
 62
7
  6
CONTINUOUS
  0
LAYER
  2
112
 70
64
 62
7
  6
CONTINUOUS
  0
LAYER
  2
113
 70
64
 62
7
  6
CONTINUOUS
  0
LAYER
  2
114
 70
64
 62
7
  6
CONTINUOUS
  0
LAYER
  2
115
 70
64
 62
7
  6
CONTINUOUS
  0
LAYER
  2
116
 70
64
 62
7
  6
CONTINUOUS
  0
LAYER
  2
117
 70
64
 62
7
  6
CONTINUOUS
  0
LAYER
  2
118
 70
64
 62
7
  6
CONTINUOUS
  0
LAYER
  2
119
 70
64
 62
7
  6
CONTINUOUS
  0
LAYER
  2
120
 70
64
 62
7
  6
CONTINUOUS
  0
LAYER
  2
121
 70
64
 62
7
  6
CONTINUOUS
  0
LAYER
  2
122
 70
64
 62
7
  6
CONTINUOUS
  0
LAYER
  2
123
 70
64
 62
7
  6
CONTINUOUS
  0
LAYER
  2
124
 70
64
 62
7
  6
CONTINUOUS
  0
LAYER
  2
125
 70
64
 62
7
  6
CONTINUOUS
  0
LAYER
  2
126
 70
64
 62
7
  6
CONTINUOUS
  0
LAYER
  2
127
 70
64
 62
7
  6
CONTINUOUS
  0
LAYER
  2
128
 70
64
 62
7
  6
CONTINUOUS
  0
LAYER
  2
129
 70
64
 62
7
  6
CONTINUOUS
  0
LAYER
  2
130
 70
64
 62
7
  6
CONTINUOUS
  0
LAYER
  2
131
 70
64
 62
7
  6
CONTINUOUS
  0
LAYER
  2
132
 70
64
 62
7
  6
CONTINUOUS
  0
LAYER
  2
133
 70
64
 62
7
  6
CONTINUOUS
  0
LAYER
  2
134
 70
64
 62
7
  6
CONTINUOUS
  0
LAYER
  2
135
 70
64
 62
7
  6
CONTINUOUS
  0
LAYER
  2
136
 70
64
 62
7
  6
CONTINUOUS
  0
LAYER
  2
137
 70
64
 62
7
  6
CONTINUOUS
  0
LAYER
  2
138
 70
64
 62
7
  6
CONTINUOUS
  0
LAYER
  2
139
 70
64
 62
7
  6
CONTINUOUS
  0
LAYER
  2
140
 70
64
 62
7
  6
CONTINUOUS
  0
LAYER
  2
141
 70
64
 62
7
  6
CONTINUOUS
  0
LAYER
  2
142
 70
64
 62
7
  6
CONTINUOUS
  0
LAYER
  2
143
 70
64
 62
7
  6
CONTINUOUS
  0
LAYER
  2
144
 70
64
 62
7
  6
CONTINUOUS
  0
LAYER
  2
145
 70
64
 62
7
  6
CONTINUOUS
  0
LAYER
  2
146
 70
64
 62
7
  6
CONTINUOUS
  0
LAYER
  2
147
 70
64
 62
7
  6
CONTINUOUS
  0
LAYER
  2
148
 70
64
 62
7
  6
CONTINUOUS
  0
LAYER
  2
149
 70
64
 62
7
  6
CONTINUOUS
  0
LAYER
  2
150
 70
64
 62
7
  6
CONTINUOUS
  0
LAYER
  2
151
 70
64
 62
7
  6
CONTINUOUS
  0
LAYER
  2
152
 70
64
 62
7
  6
CONTINUOUS
  0
LAYER
  2
153
 70
64
 62
7
  6
CONTINUOUS
  0
LAYER
  2
154
 70
64
 62
7
  6
CONTINUOUS
  0
LAYER
  2
155
 70
64
 62
7
  6
CONTINUOUS
  0
LAYER
  2
156
 70
64
 62
7
  6
CONTINUOUS
  0
LAYER
  2
157
 70
64
 62
7
  6
CONTINUOUS
  0
LAYER
  2
158
 70
64
 62
7
  6
CONTINUOUS
  0
LAYER
  2
159
 70
64
 62
7
  6
CONTINUOUS
  0
LAYER
  2
160
 70
64
 62
7
  6
CONTINUOUS
  0
LAYER
  2
161
 70
64
 62
7
  6
CONTINUOUS
  0
LAYER
  2
162
 70
64
 62
7
  6
CONTINUOUS
  0
LAYER
  2
163
 70
64
 62
7
  6
CONTINUOUS
  0
LAYER
  2
164
 70
64
 62
7
  6
CONTINUOUS
  0
LAYER
  2
165
 70
64
 62
7
  6
CONTINUOUS
  0
LAYER
  2
166
 70
64
 62
7
  6
CONTINUOUS
  0
LAYER
  2
167
 70
64
 62
7
  6
CONTINUOUS
  0
LAYER
  2
168
 70
64
 62
7
  6
CONTINUOUS
  0
LAYER
  2
169
 70
64
 62
7
  6
CONTINUOUS
  0
LAYER
  2
170
 70
64
 62
7
  6
CONTINUOUS
  0
LAYER
  2
171
 70
64
 62
7
  6
CONTINUOUS
  0
LAYER
  2
172
 70
64
 62
7
  6
CONTINUOUS
  0
LAYER
  2
173
 70
64
 62
7
  6
CONTINUOUS
  0
LAYER
  2
174
 70
64
 62
7
  6
CONTINUOUS
  0
LAYER
  2
175
 70
64
 62
7
  6
CONTINUOUS
  0
LAYER
  2
176
 70
64
 62
7
  6
CONTINUOUS
  0
LAYER
  2
177
 70
64
 62
7
  6
CONTINUOUS
  0
LAYER
  2
178
 70
64
 62
7
  6
CONTINUOUS
  0
LAYER
  2
179
 70
64
 62
7
  6
CONTINUOUS
  0
LAYER
  2
180
 70
64
 62
7
  6
CONTINUOUS
  0
LAYER
  2
181
 70
64
 62
7
  6
CONTINUOUS
  0
LAYER
  2
182
 70
64
 62
7
  6
CONTINUOUS
  0
LAYER
  2
183
 70
64
 62
7
  6
CONTINUOUS
  0
LAYER
  2
184
 70
64
 62
7
  6
CONTINUOUS
  0
LAYER
  2
185
 70
64
 62
7
  6
CONTINUOUS
  0
LAYER
  2
186
 70
64
 62
7
  6
CONTINUOUS
  0
LAYER
  2
187
 70
64
 62
7
  6
CONTINUOUS
  0
LAYER
  2
188
 70
64
 62
7
  6
CONTINUOUS
  0
LAYER
  2
189
 70
64
 62
7
  6
CONTINUOUS
  0
LAYER
  2
190
 70
64
 62
7
  6
CONTINUOUS
  0
LAYER
  2
191
 70
64
 62
7
  6
CONTINUOUS
  0
LAYER
  2
192
 70
64
 62
7
  6
CONTINUOUS
  0
LAYER
  2
193
 70
64
 62
7
  6
CONTINUOUS
  0
LAYER
  2
194
 70
64
 62
7
  6
CONTINUOUS
  0
LAYER
  2
195
 70
64
 62
7
  6
CONTINUOUS
  0
LAYER
  2
196
 70
64
 62
7
  6
CONTINUOUS
  0
LAYER
  2
197
 70
64
 62
7
  6
CONTINUOUS
  0
LAYER
  2
198
 70
64
 62
7
  6
CONTINUOUS
  0
LAYER
  2
199
 70
64
 62
7
  6
CONTINUOUS
  0
ENDTAB
  0
ENDSEC
  0
SECTION
  2
BLOCKS
  0
BLOCK
  8
0
  2
uk660mv
 70
 0
 10
0.0
 20
0.0
 30
0.0
  0
SOLID
  8
0
 62
255
  6
CONTINUOUS
 10
36.400000
 20
84.700000
 11
36.400000
 21
0.000000
 12
0.000000
 22
84.700000
 13
0.000000
 23
0.000000
  0
POLYLINE
  8
0
 62
7
  6
CONTINUOUS
 70
1
 66
1
  0
VERTEX
 10
36.400000
 20
84.700000
 30
0.000000
  8
0
 62
7
  6
CONTINUOUS
  0
VERTEX
 10
36.400000
 20
0.000000
 30
0.000000
  8
0
 62
7
  6
CONTINUOUS
  0
VERTEX
 10
0.000000
 20
0.000000
 30
0.000000
  8
0
 62
7
  6
CONTINUOUS
  0
VERTEX
 10
0.000000
 20
84.700000
 30
0.000000
  8
0
 62
7
  6
CONTINUOUS
  0
SEQEND
  0
POLYLINE
  8
0
 62
7
  6
CONTINUOUS
 70
1
 66
1
  0
VERTEX
 10
34.600000
 20
1.800000
 30
0.000000
  8
0
 62
7
  6
CONTINUOUS
  0
VERTEX
 10
34.600000
 20
82.900000
 30
0.000000
  8
0
 62
7
  6
CONTINUOUS
  0
VERTEX
 10
1.800000
 20
82.900000
 30
0.000000
  8
0
 62
7
  6
CONTINUOUS
  0
VERTEX
 10
1.800000
 20
1.800000
 30
0.000000
  8
0
 62
7
  6
CONTINUOUS
  0
SEQEND
  0
POLYLINE
  8
0
 62
7
  6
CONTINUOUS
 70
1
 66
1
  0
VERTEX
 10
32.700000
 20
1.800000
 30
0.000000
  8
0
 62
7
  6
CONTINUOUS
  0
VERTEX
 10
32.700000
 20
82.900000
 30
0.000000
  8
0
 62
7
  6
CONTINUOUS
  0
VERTEX
 10
3.700000
 20
82.900000
 30
0.000000
  8
0
 62
7
  6
CONTINUOUS
  0
VERTEX
 10
3.700000
 20
1.800000
 30
0.000000
  8
0
 62
7
  6
CONTINUOUS
  0
SEQEND
  0
CIRCLE
  8
0
 62
7
  6
CONTINUOUS
 10
33.400000
 20
8.700000
 30
0.0
 40
1.200000
  0
CIRCLE
  8
0
 62
7
  6
CONTINUOUS
 10
33.400000
 20
76.000000
 30
0.0
 40
1.200000
  0
CIRCLE
  8
0
 62
7
  6
CONTINUOUS
 10
3.000000
 20
76.000000
 30
0.0
 40
1.200000
  0
CIRCLE
  8
0
 62
7
  6
CONTINUOUS
 10
3.000000
 20
8.700000
 30
0.0
 40
1.200000
  0
POLYLINE
  8
0
 62
7
  6
CONTINUOUS
 70
0
 66
1
  0
VERTEX
 10
5.300000
 20
84.700000
  8
0
 62
7
  6
CONTINUOUS
  0
VERTEX
 10
5.300000
 20
82.900000
  8
0
 62
7
  6
CONTINUOUS
  0
SEQEND
  0
POLYLINE
  8
0
 62
7
  6
CONTINUOUS
 70
0
 66
1
  0
VERTEX
 10
31.100000
 20
84.700000
  8
0
 62
7
  6
CONTINUOUS
  0
VERTEX
 10
31.100000
 20
82.900000
  8
0
 62
7
  6
CONTINUOUS
  0
SEQEND
  0
POLYLINE
  8
0
 62
7
  6
CONTINUOUS
 70
0
 66
1
  0
VERTEX
 10
5.300000
 20
1.800000
  8
0
 62
7
  6
CONTINUOUS
  0
VERTEX
 10
5.300000
 20
0.000000
  8
0
 62
7
  6
CONTINUOUS
  0
SEQEND
  0
POLYLINE
  8
0
 62
7
  6
CONTINUOUS
 70
0
 66
1
  0
VERTEX
 10
31.100000
 20
1.800000
  8
0
 62
7
  6
CONTINUOUS
  0
VERTEX
 10
31.100000
 20
0.000000
  8
0
 62
7
  6
CONTINUOUS
  0
SEQEND
  0
CIRCLE
  8
0
 62
7
  6
L000000000000000000
 10
21.400000
 20
75.600000
 30
0.0
 40
1.300000
  0
CIRCLE
  8
0
 62
7
  6
L000000000000000000
 10
15.000000
 20
75.600000
 30
0.0
 40
1.300000
  0
CIRCLE
  8
0
 62
7
  6
L000000000000000000
 10
11.500000
 20
75.600000
 30
0.0
 40
1.300000
  0
CIRCLE
  8
0
 62
7
  6
L000000000000000000
 10
24.900000
 20
75.600000
 30
0.0
 40
1.300000
  0
CIRCLE
  8
0
 62
7
  6
L000000000000000000
 10
8.000000
 20
75.600000
 30
0.0
 40
1.300000
  0
CIRCLE
  8
0
 62
7
  6
L000000000000000000
 10
28.400000
 20
75.600000
 30
0.0
 40
1.300000
  0
CIRCLE
  8
0
 62
7
  6
L000000000000000000
 10
8.000000
 20
9.100000
 30
0.0
 40
1.300000
  0
CIRCLE
  8
0
 62
7
  6
L000000000000000000
 10
11.500000
 20
9.100000
 30
0.0
 40
1.300000
  0
CIRCLE
  8
0
 62
7
  6
L000000000000000000
 10
15.000000
 20
9.100000
 30
0.0
 40
1.300000
  0
CIRCLE
  8
0
 62
7
  6
L000000000000000000
 10
21.400000
 20
9.100000
 30
0.0
 40
1.300000
  0
CIRCLE
  8
0
 62
7
  6
L000000000000000000
 10
24.900000
 20
9.100000
 30
0.0
 40
1.300000
  0
CIRCLE
  8
0
 62
7
  6
L000000000000000000
 10
28.400000
 20
9.100000
 30
0.0
 40
1.300000
  0
POLYLINE
  8
0
 62
7
  6
L000000000000000000
 70
1
 66
1
  0
VERTEX
 10
6.100000
 20
73.600000
  8
0
 62
7
  6
L000000000000000000
  0
VERTEX
 10
7.300000
 20
72.800000
  8
0
 62
7
  6
L000000000000000000
  0
VERTEX
 10
7.300000
 20
11.900000
  8
0
 62
7
  6
L000000000000000000
  0
VERTEX
 10
6.100000
 20
11.100000
  8
0
 62
7
  6
L000000000000000000
  0
SEQEND
  0
POLYLINE
  8
0
 62
7
  6
L000000000000000000
 70
1
 66
1
  0
VERTEX
 10
30.300000
 20
73.600000
  8
0
 62
7
  6
L000000000000000000
  0
VERTEX
 10
29.100000
 20
72.800000
  8
0
 62
7
  6
L000000000000000000
  0
VERTEX
 10
29.100000
 20
11.900000
  8
0
 62
7
  6
L000000000000000000
  0
VERTEX
 10
30.300000
 20
11.100000
  8
0
 62
7
  6
L000000000000000000
  0
SEQEND
  0
POLYLINE
  8
0
 62
7
  6
CONTINUOUS
 70
0
 66
1
  0
VERTEX
 10
3.700000
 20
81.500000
  8
0
 62
7
  6
CONTINUOUS
  0
VERTEX
 10
32.700000
 20
81.500000
  8
0
 62
7
  6
CONTINUOUS
  0
SEQEND
  0
POLYLINE
  8
0
 62
7
  6
CONTINUOUS
 70
0
 66
1
  0
VERTEX
 10
3.700000
 20
3.200000
  8
0
 62
7
  6
CONTINUOUS
  0
VERTEX
 10
32.700000
 20
3.200000
  8
0
 62
7
  6
CONTINUOUS
  0
SEQEND
  0
CIRCLE
  8
0
 62
7
  6
CONTINUOUS
 10
33.700000
 20
81.500000
 30
0.0
 40
0.800000
  0
CIRCLE
  8
0
 62
7
  6
CONTINUOUS
 10
2.700000
 20
81.500000
 30
0.0
 40
0.800000
  0
CIRCLE
  8
0
 62
7
  6
CONTINUOUS
 10
2.700000
 20
3.200000
 30
0.0
 40
0.800000
  0
CIRCLE
  8
0
 62
7
  6
CONTINUOUS
 10
33.700000
 20
3.200000
 30
0.0
 40
0.800000
  0
CIRCLE
  8
0
 62
7
  6
CONTINUOUS
 10
20.700000
 20
3.900000
 30
0.0
 40
0.500000
  0
POLYLINE
  8
0
 62
7
  6
CONTINUOUS
 70
0
 66
1
  0
VERTEX
 10
3.700000
 20
4.600000
  8
0
 62
7
  6
CONTINUOUS
  0
VERTEX
 10
32.700000
 20
4.600000
  8
0
 62
7
  6
CONTINUOUS
  0
SEQEND
  0
POLYLINE
  8
0
 62
7
  6
CONTINUOUS
 70
0
 66
1
  0
VERTEX
 10
3.700000
 20
80.100000
  8
0
 62
7
  6
CONTINUOUS
  0
VERTEX
 10
32.700000
 20
80.100000
  8
0
 62
7
  6
CONTINUOUS
  0
SEQEND
  0
POLYLINE
  8
0
 62
7
  6
CONTINUOUS
 70
1
 66
1
  0
VERTEX
 10
21.300000
 20
3.300000
 30
0.000000
  8
0
 62
7
  6
CONTINUOUS
  0
VERTEX
 10
21.300000
 20
4.500000
 30
0.000000
  8
0
 62
7
  6
CONTINUOUS
  0
VERTEX
 10
20.100000
 20
4.500000
 30
0.000000
  8
0
 62
7
  6
CONTINUOUS
  0
VERTEX
 10
20.100000
 20
3.300000
 30
0.000000
  8
0
 62
7
  6
CONTINUOUS
  0
SEQEND
  0
POLYLINE
  8
0
 62
7
  6
CONTINUOUS
 70
1
 66
1
  0
VERTEX
 10
21.100000
 20
3.300000
 30
0.000000
  8
0
 62
7
  6
CONTINUOUS
  0
VERTEX
 10
21.100000
 20
4.500000
 30
0.000000
  8
0
 62
7
  6
CONTINUOUS
  0
VERTEX
 10
20.300000
 20
4.500000
 30
0.000000
  8
0
 62
7
  6
CONTINUOUS
  0
VERTEX
 10
20.300000
 20
3.300000
 30
0.000000
  8
0
 62
7
  6
CONTINUOUS
  0
SEQEND
  0
POLYLINE
  8
0
 62
7
  6
CONTINUOUS
 70
1
 66
1
  0
VERTEX
 10
16.100000
 20
80.200000
 30
0.000000
  8
0
 62
7
  6
CONTINUOUS
  0
VERTEX
 10
16.100000
 20
81.400000
 30
0.000000
  8
0
 62
7
  6
CONTINUOUS
  0
VERTEX
 10
15.300000
 20
81.400000
 30
0.000000
  8
0
 62
7
  6
CONTINUOUS
  0
VERTEX
 10
15.300000
 20
80.200000
 30
0.000000
  8
0
 62
7
  6
CONTINUOUS
  0
SEQEND
  0
POLYLINE
  8
0
 62
7
  6
CONTINUOUS
 70
1
 66
1
  0
VERTEX
 10
16.300000
 20
80.200000
 30
0.000000
  8
0
 62
7
  6
CONTINUOUS
  0
VERTEX
 10
16.300000
 20
81.400000
 30
0.000000
  8
0
 62
7
  6
CONTINUOUS
  0
VERTEX
 10
15.100000
 20
81.400000
 30
0.000000
  8
0
 62
7
  6
CONTINUOUS
  0
VERTEX
 10
15.100000
 20
80.200000
 30
0.000000
  8
0
 62
7
  6
CONTINUOUS
  0
SEQEND
  0
CIRCLE
  8
0
 62
7
  6
CONTINUOUS
 10
15.700000
 20
80.800000
 30
0.0
 40
0.500000
  0
POLYLINE
  8
0
 62
7
  6
CONTINUOUS
 70
0
 66
1
  0
VERTEX
 10
5.300000
 20
1.800000
  8
0
 62
7
  6
CONTINUOUS
  0
VERTEX
 10
5.300000
 20
0.000000
  8
0
 62
7
  6
CONTINUOUS
  0
SEQEND
  0
POLYLINE
  8
0
 62
7
  6
CONTINUOUS
 70
0
 66
1
  0
VERTEX
 10
31.100000
 20
1.800000
  8
0
 62
7
  6
CONTINUOUS
  0
VERTEX
 10
31.100000
 20
0.000000
  8
0
 62
7
  6
CONTINUOUS
  0
SEQEND
  0
POLYLINE
  8
0
 62
7
  6
CONTINUOUS
 70
0
 66
1
  0
VERTEX
 10
3.700000
 20
3.200000
  8
0
 62
7
  6
CONTINUOUS
  0
VERTEX
 10
32.700000
 20
3.200000
  8
0
 62
7
  6
CONTINUOUS
  0
SEQEND
  0
CIRCLE
  8
0
 62
7
  6
CONTINUOUS
 10
2.700000
 20
3.200000
 30
0.0
 40
0.800000
  0
CIRCLE
  8
0
 62
7
  6
CONTINUOUS
 10
33.700000
 20
3.200000
 30
0.0
 40
0.800000
  0
CIRCLE
  8
0
 62
7
  6
CONTINUOUS
 10
20.700000
 20
3.900000
 30
0.0
 40
0.500000
  0
POLYLINE
  8
0
 62
7
  6
CONTINUOUS
 70
0
 66
1
  0
VERTEX
 10
3.700000
 20
4.600000
  8
0
 62
7
  6
CONTINUOUS
  0
VERTEX
 10
32.700000
 20
4.600000
  8
0
 62
7
  6
CONTINUOUS
  0
SEQEND
  0
POLYLINE
  8
0
 62
7
  6
CONTINUOUS
 70
1
 66
1
  0
VERTEX
 10
21.300000
 20
3.300000
 30
0.000000
  8
0
 62
7
  6
CONTINUOUS
  0
VERTEX
 10
21.300000
 20
4.500000
 30
0.000000
  8
0
 62
7
  6
CONTINUOUS
  0
VERTEX
 10
20.100000
 20
4.500000
 30
0.000000
  8
0
 62
7
  6
CONTINUOUS
  0
VERTEX
 10
20.100000
 20
3.300000
 30
0.000000
  8
0
 62
7
  6
CONTINUOUS
  0
SEQEND
  0
POLYLINE
  8
0
 62
7
  6
CONTINUOUS
 70
1
 66
1
  0
VERTEX
 10
21.100000
 20
3.300000
 30
0.000000
  8
0
 62
7
  6
CONTINUOUS
  0
VERTEX
 10
21.100000
 20
4.500000
 30
0.000000
  8
0
 62
7
  6
CONTINUOUS
  0
VERTEX
 10
20.300000
 20
4.500000
 30
0.000000
  8
0
 62
7
  6
CONTINUOUS
  0
VERTEX
 10
20.300000
 20
3.300000
 30
0.000000
  8
0
 62
7
  6
CONTINUOUS
  0
SEQEND
  0
SOLID
  8
1
 62
254
  6
CONTINUOUS
 10
30.400000
 20
11.900000
 11
30.400000
 21
20.500000
 12
6.000000
 22
11.900000
 13
6.000000
 23
20.500000
  0
POLYLINE
  8
1
 62
7
  6
CONTINUOUS
 70
1
 66
1
  0
VERTEX
 10
30.400000
 20
11.900000
 30
0.000000
  8
1
 62
7
  6
CONTINUOUS
  0
VERTEX
 10
30.400000
 20
20.500000
 30
0.000000
  8
1
 62
7
  6
CONTINUOUS
  0
VERTEX
 10
6.000000
 20
20.500000
 30
0.000000
  8
1
 62
7
  6
CONTINUOUS
  0
VERTEX
 10
6.000000
 20
11.900000
 30
0.000000
  8
1
 62
7
  6
CONTINUOUS
  0
SEQEND
  0
CIRCLE
  8
1
 62
7
  6
CONTINUOUS
 10
6.700000
 20
16.100000
 30
0.0
 40
0.400000
  0
CIRCLE
  8
1
 62
7
  6
CONTINUOUS
 10
29.700000
 20
16.100000
 30
0.0
 40
0.400000
  0
CIRCLE
  8
1
 62
7
  6
CONTINUOUS
 10
6.700000
 20
18.600000
 30
0.0
 40
0.400000
  0
CIRCLE
  8
1
 62
7
  6
CONTINUOUS
 10
6.700000
 20
13.600000
 30
0.0
 40
0.400000
  0
CIRCLE
  8
1
 62
7
  6
CONTINUOUS
 10
29.700000
 20
18.600000
 30
0.0
 40
0.400000
  0
CIRCLE
  8
1
 62
7
  6
CONTINUOUS
 10
29.700000
 20
13.600000
 30
0.0
 40
0.400000
  0
POLYLINE
  8
1
 62
7
  6
L000000000000000000
 70
1
 66
1
  0
VERTEX
 10
8.900000
 20
17.900000
 30
0.000000
  8
1
 62
7
  6
L000000000000000000
  0
VERTEX
 10
8.900000
 20
19.200000
 30
0.000000
  8
1
 62
7
  6
L000000000000000000
  0
VERTEX
 10
7.600000
 20
19.200000
 30
0.000000
  8
1
 62
7
  6
L000000000000000000
  0
VERTEX
 10
7.600000
 20
17.900000
 30
0.000000
  8
1
 62
7
  6
L000000000000000000
  0
SEQEND
  0
POLYLINE
  8
1
 62
7
  6
L000000000000000000
 70
1
 66
1
  0
VERTEX
 10
12.900000
 20
18.600000
 30
0.000000
  8
1
 62
7
  6
L000000000000000000
  0
VERTEX
 10
12.900000
 20
19.900000
 30
0.000000
  8
1
 62
7
  6
L000000000000000000
  0
VERTEX
 10
11.600000
 20
19.900000
 30
0.000000
  8
1
 62
7
  6
L000000000000000000
  0
VERTEX
 10
11.600000
 20
18.600000
 30
0.000000
  8
1
 62
7
  6
L000000000000000000
  0
SEQEND
  0
POLYLINE
  8
1
 62
7
  6
L000000000000000000
 70
1
 66
1
  0
VERTEX
 10
18.700000
 20
18.600000
 30
0.000000
  8
1
 62
7
  6
L000000000000000000
  0
VERTEX
 10
18.700000
 20
19.900000
 30
0.000000
  8
1
 62
7
  6
L000000000000000000
  0
VERTEX
 10
17.400000
 20
19.900000
 30
0.000000
  8
1
 62
7
  6
L000000000000000000
  0
VERTEX
 10
17.400000
 20
18.600000
 30
0.000000
  8
1
 62
7
  6
L000000000000000000
  0
SEQEND
  0
POLYLINE
  8
1
 62
7
  6
L000000000000000000
 70
1
 66
1
  0
VERTEX
 10
24.500000
 20
18.600000
 30
0.000000
  8
1
 62
7
  6
L000000000000000000
  0
VERTEX
 10
24.500000
 20
19.900000
 30
0.000000
  8
1
 62
7
  6
L000000000000000000
  0
VERTEX
 10
23.200000
 20
19.900000
 30
0.000000
  8
1
 62
7
  6
L000000000000000000
  0
VERTEX
 10
23.200000
 20
18.600000
 30
0.000000
  8
1
 62
7
  6
L000000000000000000
  0
SEQEND
  0
POLYLINE
  8
1
 62
7
  6
L000000000000000000
 70
1
 66
1
  0
VERTEX
 10
28.500000
 20
17.900000
 30
0.000000
  8
1
 62
7
  6
L000000000000000000
  0
VERTEX
 10
28.500000
 20
19.200000
 30
0.000000
  8
1
 62
7
  6
L000000000000000000
  0
VERTEX
 10
27.200000
 20
19.200000
 30
0.000000
  8
1
 62
7
  6
L000000000000000000
  0
VERTEX
 10
27.200000
 20
17.900000
 30
0.000000
  8
1
 62
7
  6
L000000000000000000
  0
SEQEND
  0
POLYLINE
  8
1
 62
7
  6
L000000000000000000
 70
1
 66
1
  0
VERTEX
 10
28.500000
 20
15.200000
 30
0.000000
  8
1
 62
7
  6
L000000000000000000
  0
VERTEX
 10
28.500000
 20
16.500000
 30
0.000000
  8
1
 62
7
  6
L000000000000000000
  0
VERTEX
 10
27.200000
 20
16.500000
 30
0.000000
  8
1
 62
7
  6
L000000000000000000
  0
VERTEX
 10
27.200000
 20
15.200000
 30
0.000000
  8
1
 62
7
  6
L000000000000000000
  0
SEQEND
  0
POLYLINE
  8
1
 62
7
  6
L000000000000000000
 70
1
 66
1
  0
VERTEX
 10
28.500000
 20
12.900000
 30
0.000000
  8
1
 62
7
  6
L000000000000000000
  0
VERTEX
 10
28.500000
 20
14.200000
 30
0.000000
  8
1
 62
7
  6
L000000000000000000
  0
VERTEX
 10
27.200000
 20
14.200000
 30
0.000000
  8
1
 62
7
  6
L000000000000000000
  0
VERTEX
 10
27.200000
 20
12.900000
 30
0.000000
  8
1
 62
7
  6
L000000000000000000
  0
SEQEND
  0
POLYLINE
  8
1
 62
7
  6
L000000000000000000
 70
1
 66
1
  0
VERTEX
 10
8.900000
 20
15.200000
 30
0.000000
  8
1
 62
7
  6
L000000000000000000
  0
VERTEX
 10
8.900000
 20
16.500000
 30
0.000000
  8
1
 62
7
  6
L000000000000000000
  0
VERTEX
 10
7.600000
 20
16.500000
 30
0.000000
  8
1
 62
7
  6
L000000000000000000
  0
VERTEX
 10
7.600000
 20
15.200000
 30
0.000000
  8
1
 62
7
  6
L000000000000000000
  0
SEQEND
  0
POLYLINE
  8
1
 62
7
  6
L000000000000000000
 70
1
 66
1
  0
VERTEX
 10
8.900000
 20
12.900000
 30
0.000000
  8
1
 62
7
  6
L000000000000000000
  0
VERTEX
 10
8.900000
 20
14.200000
 30
0.000000
  8
1
 62
7
  6
L000000000000000000
  0
VERTEX
 10
7.600000
 20
14.200000
 30
0.000000
  8
1
 62
7
  6
L000000000000000000
  0
VERTEX
 10
7.600000
 20
12.900000
 30
0.000000
  8
1
 62
7
  6
L000000000000000000
  0
SEQEND
  0
SOLID
  8
1
 62
254
  6
CONTINUOUS
 10
30.400000
 20
36.900000
 11
30.400000
 21
45.500000
 12
6.000000
 22
36.900000
 13
6.000000
 23
45.500000
  0
POLYLINE
  8
1
 62
7
  6
CONTINUOUS
 70
1
 66
1
  0
VERTEX
 10
30.400000
 20
36.900000
 30
0.000000
  8
1
 62
7
  6
CONTINUOUS
  0
VERTEX
 10
30.400000
 20
45.500000
 30
0.000000
  8
1
 62
7
  6
CONTINUOUS
  0
VERTEX
 10
6.000000
 20
45.500000
 30
0.000000
  8
1
 62
7
  6
CONTINUOUS
  0
VERTEX
 10
6.000000
 20
36.900000
 30
0.000000
  8
1
 62
7
  6
CONTINUOUS
  0
SEQEND
  0
CIRCLE
  8
1
 62
7
  6
CONTINUOUS
 10
6.700000
 20
41.200000
 30
0.0
 40
0.400000
  0
CIRCLE
  8
1
 62
7
  6
CONTINUOUS
 10
29.700000
 20
41.200000
 30
0.0
 40
0.400000
  0
CIRCLE
  8
1
 62
7
  6
CONTINUOUS
 10
6.700000
 20
43.800000
 30
0.0
 40
0.400000
  0
CIRCLE
  8
1
 62
7
  6
CONTINUOUS
 10
6.700000
 20
38.700000
 30
0.0
 40
0.400000
  0
CIRCLE
  8
1
 62
7
  6
CONTINUOUS
 10
29.700000
 20
43.700000
 30
0.0
 40
0.400000
  0
CIRCLE
  8
1
 62
7
  6
CONTINUOUS
 10
29.700000
 20
38.700000
 30
0.0
 40
0.400000
  0
POLYLINE
  8
1
 62
7
  6
L000000000000000000
 70
1
 66
1
  0
VERTEX
 10
28.500000
 20
42.900000
 30
0.000000
  8
1
 62
7
  6
L000000000000000000
  0
VERTEX
 10
28.500000
 20
44.200000
 30
0.000000
  8
1
 62
7
  6
L000000000000000000
  0
VERTEX
 10
27.200000
 20
44.200000
 30
0.000000
  8
1
 62
7
  6
L000000000000000000
  0
VERTEX
 10
27.200000
 20
42.900000
 30
0.000000
  8
1
 62
7
  6
L000000000000000000
  0
SEQEND
  0
POLYLINE
  8
1
 62
7
  6
L000000000000000000
 70
1
 66
1
  0
VERTEX
 10
28.500000
 20
40.200000
 30
0.000000
  8
1
 62
7
  6
L000000000000000000
  0
VERTEX
 10
28.500000
 20
41.500000
 30
0.000000
  8
1
 62
7
  6
L000000000000000000
  0
VERTEX
 10
27.200000
 20
41.500000
 30
0.000000
  8
1
 62
7
  6
L000000000000000000
  0
VERTEX
 10
27.200000
 20
40.200000
 30
0.000000
  8
1
 62
7
  6
L000000000000000000
  0
SEQEND
  0
POLYLINE
  8
1
 62
7
  6
L000000000000000000
 70
1
 66
1
  0
VERTEX
 10
28.500000
 20
37.900000
 30
0.000000
  8
1
 62
7
  6
L000000000000000000
  0
VERTEX
 10
28.500000
 20
39.200000
 30
0.000000
  8
1
 62
7
  6
L000000000000000000
  0
VERTEX
 10
27.200000
 20
39.200000
 30
0.000000
  8
1
 62
7
  6
L000000000000000000
  0
VERTEX
 10
27.200000
 20
37.900000
 30
0.000000
  8
1
 62
7
  6
L000000000000000000
  0
SEQEND
  0
POLYLINE
  8
1
 62
7
  6
L000000000000000000
 70
1
 66
1
  0
VERTEX
 10
8.900000
 20
42.900000
 30
0.000000
  8
1
 62
7
  6
L000000000000000000
  0
VERTEX
 10
8.900000
 20
44.200000
 30
0.000000
  8
1
 62
7
  6
L000000000000000000
  0
VERTEX
 10
7.600000
 20
44.200000
 30
0.000000
  8
1
 62
7
  6
L000000000000000000
  0
VERTEX
 10
7.600000
 20
42.900000
 30
0.000000
  8
1
 62
7
  6
L000000000000000000
  0
SEQEND
  0
POLYLINE
  8
1
 62
7
  6
L000000000000000000
 70
1
 66
1
  0
VERTEX
 10
8.900000
 20
40.200000
 30
0.000000
  8
1
 62
7
  6
L000000000000000000
  0
VERTEX
 10
8.900000
 20
41.500000
 30
0.000000
  8
1
 62
7
  6
L000000000000000000
  0
VERTEX
 10
7.600000
 20
41.500000
 30
0.000000
  8
1
 62
7
  6
L000000000000000000
  0
VERTEX
 10
7.600000
 20
40.200000
 30
0.000000
  8
1
 62
7
  6
L000000000000000000
  0
SEQEND
  0
POLYLINE
  8
1
 62
7
  6
L000000000000000000
 70
1
 66
1
  0
VERTEX
 10
8.900000
 20
37.900000
 30
0.000000
  8
1
 62
7
  6
L000000000000000000
  0
VERTEX
 10
8.900000
 20
39.200000
 30
0.000000
  8
1
 62
7
  6
L000000000000000000
  0
VERTEX
 10
7.600000
 20
39.200000
 30
0.000000
  8
1
 62
7
  6
L000000000000000000
  0
VERTEX
 10
7.600000
 20
37.900000
 30
0.000000
  8
1
 62
7
  6
L000000000000000000
  0
SEQEND
  0
POLYLINE
  8
1
 62
7
  6
L000000000000000000
 70
1
 66
1
  0
VERTEX
 10
18.700000
 20
43.600000
 30
0.000000
  8
1
 62
7
  6
L000000000000000000
  0
VERTEX
 10
18.700000
 20
44.900000
 30
0.000000
  8
1
 62
7
  6
L000000000000000000
  0
VERTEX
 10
17.400000
 20
44.900000
 30
0.000000
  8
1
 62
7
  6
L000000000000000000
  0
VERTEX
 10
17.400000
 20
43.600000
 30
0.000000
  8
1
 62
7
  6
L000000000000000000
  0
SEQEND
  0
POLYLINE
  8
1
 62
7
  6
L000000000000000000
 70
1
 66
1
  0
VERTEX
 10
24.500000
 20
43.600000
 30
0.000000
  8
1
 62
7
  6
L000000000000000000
  0
VERTEX
 10
24.500000
 20
44.900000
 30
0.000000
  8
1
 62
7
  6
L000000000000000000
  0
VERTEX
 10
23.200000
 20
44.900000
 30
0.000000
  8
1
 62
7
  6
L000000000000000000
  0
VERTEX
 10
23.200000
 20
43.600000
 30
0.000000
  8
1
 62
7
  6
L000000000000000000
  0
SEQEND
  0
POLYLINE
  8
1
 62
7
  6
L000000000000000000
 70
1
 66
1
  0
VERTEX
 10
12.900000
 20
43.600000
 30
0.000000
  8
1
 62
7
  6
L000000000000000000
  0
VERTEX
 10
12.900000
 20
44.900000
 30
0.000000
  8
1
 62
7
  6
L000000000000000000
  0
VERTEX
 10
11.600000
 20
44.900000
 30
0.000000
  8
1
 62
7
  6
L000000000000000000
  0
VERTEX
 10
11.600000
 20
43.600000
 30
0.000000
  8
1
 62
7
  6
L000000000000000000
  0
SEQEND
  0
POLYLINE
  8
1
 62
7
  6
CONTINUOUS
 70
1
 66
1
  0
VERTEX
 10
31.200000
 20
40.000000
 30
0.000000
  8
1
 62
7
  6
CONTINUOUS
  0
VERTEX
 10
31.200000
 20
41.700000
 30
0.000000
  8
1
 62
7
  6
CONTINUOUS
  0
VERTEX
 10
5.200000
 20
41.700000
 30
0.000000
  8
1
 62
7
  6
CONTINUOUS
  0
VERTEX
 10
5.200000
 20
40.000000
 30
0.000000
  8
1
 62
7
  6
CONTINUOUS
  0
SEQEND
  0
POLYLINE
  8
1
 62
7
  6
CONTINUOUS
 70
1
 66
1
  0
VERTEX
 10
31.000000
 20
40.200000
 30
0.000000
  8
1
 62
7
  6
CONTINUOUS
  0
VERTEX
 10
31.000000
 20
41.500000
 30
0.000000
  8
1
 62
7
  6
CONTINUOUS
  0
VERTEX
 10
5.400000
 20
41.500000
 30
0.000000
  8
1
 62
7
  6
CONTINUOUS
  0
VERTEX
 10
5.400000
 20
40.200000
 30
0.000000
  8
1
 62
7
  6
CONTINUOUS
  0
SEQEND
  0
SOLID
  8
1
 62
254
  6
CONTINUOUS
 10
9.100000
 20
40.200000
 11
9.100000
 21
41.500000
 12
6.900000
 22
40.200000
 13
6.900000
 23
41.500000
  0
POLYLINE
  8
1
 62
7
  6
CONTINUOUS
 70
1
 66
1
  0
VERTEX
 10
9.100000
 20
40.200000
 30
0.000000
  8
1
 62
7
  6
CONTINUOUS
  0
VERTEX
 10
9.100000
 20
41.500000
 30
0.000000
  8
1
 62
7
  6
CONTINUOUS
  0
VERTEX
 10
6.900000
 20
41.500000
 30
0.000000
  8
1
 62
7
  6
CONTINUOUS
  0
VERTEX
 10
6.900000
 20
40.200000
 30
0.000000
  8
1
 62
7
  6
CONTINUOUS
  0
SEQEND
  0
SOLID
  8
1
 62
254
  6
CONTINUOUS
 10
29.200000
 20
40.200000
 11
29.200000
 21
41.500000
 12
27.000000
 22
40.200000
 13
27.000000
 23
41.500000
  0
POLYLINE
  8
1
 62
7
  6
CONTINUOUS
 70
1
 66
1
  0
VERTEX
 10
29.200000
 20
40.200000
 30
0.000000
  8
1
 62
7
  6
CONTINUOUS
  0
VERTEX
 10
29.200000
 20
41.500000
 30
0.000000
  8
1
 62
7
  6
CONTINUOUS
  0
VERTEX
 10
27.000000
 20
41.500000
 30
0.000000
  8
1
 62
7
  6
CONTINUOUS
  0
VERTEX
 10
27.000000
 20
40.200000
 30
0.000000
  8
1
 62
7
  6
CONTINUOUS
  0
SEQEND
  0
POLYLINE
  8
1
 62
7
  6
CONTINUOUS
 70
1
 66
1
  0
VERTEX
 10
28.600000
 20
41.500000
  8
1
 62
7
  6
CONTINUOUS
  0
VERTEX
 10
30.200000
 20
41.500000
  8
1
 62
7
  6
CONTINUOUS
  0
VERTEX
 10
30.200000
 20
40.200000
  8
1
 62
7
  6
CONTINUOUS
  0
VERTEX
 10
28.600000
 20
40.200000
  8
1
 62
7
  6
CONTINUOUS
  0
VERTEX
 10
28.600000
 20
40.400000
  8
1
 62
7
  6
CONTINUOUS
  0
VERTEX
 10
30.000000
 20
40.400000
  8
1
 62
7
  6
CONTINUOUS
  0
VERTEX
 10
30.000000
 20
41.300000
  8
1
 62
7
  6
CONTINUOUS
  0
VERTEX
 10
28.600000
 20
41.300000
  8
1
 62
7
  6
CONTINUOUS
  0
SEQEND
  0
POLYLINE
  8
1
 62
7
  6
CONTINUOUS
 70
1
 66
1
  0
VERTEX
 10
29.600000
 20
41.700000
  8
1
 62
7
  6
CONTINUOUS
  0
VERTEX
 10
31.200000
 20
41.700000
  8
1
 62
7
  6
CONTINUOUS
  0
VERTEX
 10
31.200000
 20
40.000000
  8
1
 62
7
  6
CONTINUOUS
  0
VERTEX
 10
29.600000
 20
40.000000
  8
1
 62
7
  6
CONTINUOUS
  0
VERTEX
 10
29.600000
 20
40.200000
  8
1
 62
7
  6
CONTINUOUS
  0
VERTEX
 10
31.000000
 20
40.200000
  8
1
 62
7
  6
CONTINUOUS
  0
VERTEX
 10
31.000000
 20
41.500000
  8
1
 62
7
  6
CONTINUOUS
  0
VERTEX
 10
29.600000
 20
41.500000
  8
1
 62
7
  6
CONTINUOUS
  0
SEQEND
  0
POLYLINE
  8
1
 62
7
  6
CONTINUOUS
 70
1
 66
1
  0
VERTEX
 10
6.800000
 20
41.700000
  8
1
 62
7
  6
CONTINUOUS
  0
VERTEX
 10
5.200000
 20
41.700000
  8
1
 62
7
  6
CONTINUOUS
  0
VERTEX
 10
5.200000
 20
40.000000
  8
1
 62
7
  6
CONTINUOUS
  0
VERTEX
 10
6.800000
 20
40.000000
  8
1
 62
7
  6
CONTINUOUS
  0
VERTEX
 10
6.800000
 20
40.200000
  8
1
 62
7
  6
CONTINUOUS
  0
VERTEX
 10
5.400000
 20
40.200000
  8
1
 62
7
  6
CONTINUOUS
  0
VERTEX
 10
5.400000
 20
41.500000
  8
1
 62
7
  6
CONTINUOUS
  0
VERTEX
 10
6.800000
 20
41.500000
  8
1
 62
7
  6
CONTINUOUS
  0
SEQEND
  0
POLYLINE
  8
1
 62
7
  6
CONTINUOUS
 70
1
 66
1
  0
VERTEX
 10
26.600000
 20
41.500000
  8
1
 62
7
  6
CONTINUOUS
  0
VERTEX
 10
28.200000
 20
41.500000
  8
1
 62
7
  6
CONTINUOUS
  0
VERTEX
 10
28.200000
 20
40.200000
  8
1
 62
7
  6
CONTINUOUS
  0
VERTEX
 10
26.600000
 20
40.200000
  8
1
 62
7
  6
CONTINUOUS
  0
VERTEX
 10
26.600000
 20
40.400000
  8
1
 62
7
  6
CONTINUOUS
  0
VERTEX
 10
28.000000
 20
40.400000
  8
1
 62
7
  6
CONTINUOUS
  0
VERTEX
 10
28.000000
 20
41.300000
  8
1
 62
7
  6
CONTINUOUS
  0
VERTEX
 10
26.600000
 20
41.300000
  8
1
 62
7
  6
CONTINUOUS
  0
SEQEND
  0
POLYLINE
  8
1
 62
7
  6
CONTINUOUS
 70
1
 66
1
  0
VERTEX
 10
7.800000
 20
41.500000
  8
1
 62
7
  6
CONTINUOUS
  0
VERTEX
 10
6.200000
 20
41.500000
  8
1
 62
7
  6
CONTINUOUS
  0
VERTEX
 10
6.200000
 20
40.200000
  8
1
 62
7
  6
CONTINUOUS
  0
VERTEX
 10
7.800000
 20
40.200000
  8
1
 62
7
  6
CONTINUOUS
  0
VERTEX
 10
7.800000
 20
40.400000
  8
1
 62
7
  6
CONTINUOUS
  0
VERTEX
 10
6.400000
 20
40.400000
  8
1
 62
7
  6
CONTINUOUS
  0
VERTEX
 10
6.400000
 20
41.300000
  8
1
 62
7
  6
CONTINUOUS
  0
VERTEX
 10
7.800000
 20
41.300000
  8
1
 62
7
  6
CONTINUOUS
  0
SEQEND
  0
POLYLINE
  8
1
 62
7
  6
CONTINUOUS
 70
1
 66
1
  0
VERTEX
 10
9.800000
 20
41.500000
  8
1
 62
7
  6
CONTINUOUS
  0
VERTEX
 10
8.200000
 20
41.500000
  8
1
 62
7
  6
CONTINUOUS
  0
VERTEX
 10
8.200000
 20
40.200000
  8
1
 62
7
  6
CONTINUOUS
  0
VERTEX
 10
9.800000
 20
40.200000
  8
1
 62
7
  6
CONTINUOUS
  0
VERTEX
 10
9.800000
 20
40.400000
  8
1
 62
7
  6
CONTINUOUS
  0
VERTEX
 10
8.400000
 20
40.400000
  8
1
 62
7
  6
CONTINUOUS
  0
VERTEX
 10
8.400000
 20
41.300000
  8
1
 62
7
  6
CONTINUOUS
  0
VERTEX
 10
9.800000
 20
41.300000
  8
1
 62
7
  6
CONTINUOUS
  0
SEQEND
  0
SOLID
  8
1
 62
254
  6
CONTINUOUS
 10
30.400000
 20
49.400000
 11
30.400000
 21
58.000000
 12
6.000000
 22
49.400000
 13
6.000000
 23
58.000000
  0
POLYLINE
  8
1
 62
7
  6
CONTINUOUS
 70
1
 66
1
  0
VERTEX
 10
30.400000
 20
49.400000
 30
0.000000
  8
1
 62
7
  6
CONTINUOUS
  0
VERTEX
 10
30.400000
 20
58.000000
 30
0.000000
  8
1
 62
7
  6
CONTINUOUS
  0
VERTEX
 10
6.000000
 20
58.000000
 30
0.000000
  8
1
 62
7
  6
CONTINUOUS
  0
VERTEX
 10
6.000000
 20
49.400000
 30
0.000000
  8
1
 62
7
  6
CONTINUOUS
  0
SEQEND
  0
CIRCLE
  8
1
 62
7
  6
CONTINUOUS
 10
6.700000
 20
53.700000
 30
0.0
 40
0.400000
  0
CIRCLE
  8
1
 62
7
  6
CONTINUOUS
 10
29.700000
 20
53.700000
 30
0.0
 40
0.400000
  0
CIRCLE
  8
1
 62
7
  6
CONTINUOUS
 10
6.700000
 20
56.300000
 30
0.0
 40
0.400000
  0
CIRCLE
  8
1
 62
7
  6
CONTINUOUS
 10
6.700000
 20
51.200000
 30
0.0
 40
0.400000
  0
CIRCLE
  8
1
 62
7
  6
CONTINUOUS
 10
29.700000
 20
56.200000
 30
0.0
 40
0.400000
  0
CIRCLE
  8
1
 62
7
  6
CONTINUOUS
 10
29.700000
 20
51.200000
 30
0.0
 40
0.400000
  0
POLYLINE
  8
1
 62
7
  6
L000000000000000000
 70
1
 66
1
  0
VERTEX
 10
28.500000
 20
55.400000
 30
0.000000
  8
1
 62
7
  6
L000000000000000000
  0
VERTEX
 10
28.500000
 20
56.700000
 30
0.000000
  8
1
 62
7
  6
L000000000000000000
  0
VERTEX
 10
27.200000
 20
56.700000
 30
0.000000
  8
1
 62
7
  6
L000000000000000000
  0
VERTEX
 10
27.200000
 20
55.400000
 30
0.000000
  8
1
 62
7
  6
L000000000000000000
  0
SEQEND
  0
POLYLINE
  8
1
 62
7
  6
L000000000000000000
 70
1
 66
1
  0
VERTEX
 10
28.500000
 20
52.700000
 30
0.000000
  8
1
 62
7
  6
L000000000000000000
  0
VERTEX
 10
28.500000
 20
54.000000
 30
0.000000
  8
1
 62
7
  6
L000000000000000000
  0
VERTEX
 10
27.200000
 20
54.000000
 30
0.000000
  8
1
 62
7
  6
L000000000000000000
  0
VERTEX
 10
27.200000
 20
52.700000
 30
0.000000
  8
1
 62
7
  6
L000000000000000000
  0
SEQEND
  0
POLYLINE
  8
1
 62
7
  6
L000000000000000000
 70
1
 66
1
  0
VERTEX
 10
28.500000
 20
50.400000
 30
0.000000
  8
1
 62
7
  6
L000000000000000000
  0
VERTEX
 10
28.500000
 20
51.700000
 30
0.000000
  8
1
 62
7
  6
L000000000000000000
  0
VERTEX
 10
27.200000
 20
51.700000
 30
0.000000
  8
1
 62
7
  6
L000000000000000000
  0
VERTEX
 10
27.200000
 20
50.400000
 30
0.000000
  8
1
 62
7
  6
L000000000000000000
  0
SEQEND
  0
POLYLINE
  8
1
 62
7
  6
L000000000000000000
 70
1
 66
1
  0
VERTEX
 10
8.900000
 20
55.400000
 30
0.000000
  8
1
 62
7
  6
L000000000000000000
  0
VERTEX
 10
8.900000
 20
56.700000
 30
0.000000
  8
1
 62
7
  6
L000000000000000000
  0
VERTEX
 10
7.600000
 20
56.700000
 30
0.000000
  8
1
 62
7
  6
L000000000000000000
  0
VERTEX
 10
7.600000
 20
55.400000
 30
0.000000
  8
1
 62
7
  6
L000000000000000000
  0
SEQEND
  0
POLYLINE
  8
1
 62
7
  6
L000000000000000000
 70
1
 66
1
  0
VERTEX
 10
8.900000
 20
52.700000
 30
0.000000
  8
1
 62
7
  6
L000000000000000000
  0
VERTEX
 10
8.900000
 20
54.000000
 30
0.000000
  8
1
 62
7
  6
L000000000000000000
  0
VERTEX
 10
7.600000
 20
54.000000
 30
0.000000
  8
1
 62
7
  6
L000000000000000000
  0
VERTEX
 10
7.600000
 20
52.700000
 30
0.000000
  8
1
 62
7
  6
L000000000000000000
  0
SEQEND
  0
POLYLINE
  8
1
 62
7
  6
L000000000000000000
 70
1
 66
1
  0
VERTEX
 10
8.900000
 20
50.400000
 30
0.000000
  8
1
 62
7
  6
L000000000000000000
  0
VERTEX
 10
8.900000
 20
51.700000
 30
0.000000
  8
1
 62
7
  6
L000000000000000000
  0
VERTEX
 10
7.600000
 20
51.700000
 30
0.000000
  8
1
 62
7
  6
L000000000000000000
  0
VERTEX
 10
7.600000
 20
50.400000
 30
0.000000
  8
1
 62
7
  6
L000000000000000000
  0
SEQEND
  0
POLYLINE
  8
1
 62
7
  6
L000000000000000000
 70
1
 66
1
  0
VERTEX
 10
18.700000
 20
56.100000
 30
0.000000
  8
1
 62
7
  6
L000000000000000000
  0
VERTEX
 10
18.700000
 20
57.400000
 30
0.000000
  8
1
 62
7
  6
L000000000000000000
  0
VERTEX
 10
17.400000
 20
57.400000
 30
0.000000
  8
1
 62
7
  6
L000000000000000000
  0
VERTEX
 10
17.400000
 20
56.100000
 30
0.000000
  8
1
 62
7
  6
L000000000000000000
  0
SEQEND
  0
POLYLINE
  8
1
 62
7
  6
L000000000000000000
 70
1
 66
1
  0
VERTEX
 10
24.500000
 20
56.100000
 30
0.000000
  8
1
 62
7
  6
L000000000000000000
  0
VERTEX
 10
24.500000
 20
57.400000
 30
0.000000
  8
1
 62
7
  6
L000000000000000000
  0
VERTEX
 10
23.200000
 20
57.400000
 30
0.000000
  8
1
 62
7
  6
L000000000000000000
  0
VERTEX
 10
23.200000
 20
56.100000
 30
0.000000
  8
1
 62
7
  6
L000000000000000000
  0
SEQEND
  0
POLYLINE
  8
1
 62
7
  6
L000000000000000000
 70
1
 66
1
  0
VERTEX
 10
12.900000
 20
56.100000
 30
0.000000
  8
1
 62
7
  6
L000000000000000000
  0
VERTEX
 10
12.900000
 20
57.400000
 30
0.000000
  8
1
 62
7
  6
L000000000000000000
  0
VERTEX
 10
11.600000
 20
57.400000
 30
0.000000
  8
1
 62
7
  6
L000000000000000000
  0
VERTEX
 10
11.600000
 20
56.100000
 30
0.000000
  8
1
 62
7
  6
L000000000000000000
  0
SEQEND
  0
POLYLINE
  8
1
 62
7
  6
CONTINUOUS
 70
1
 66
1
  0
VERTEX
 10
31.200000
 20
52.500000
 30
0.000000
  8
1
 62
7
  6
CONTINUOUS
  0
VERTEX
 10
31.200000
 20
54.200000
 30
0.000000
  8
1
 62
7
  6
CONTINUOUS
  0
VERTEX
 10
5.200000
 20
54.200000
 30
0.000000
  8
1
 62
7
  6
CONTINUOUS
  0
VERTEX
 10
5.200000
 20
52.500000
 30
0.000000
  8
1
 62
7
  6
CONTINUOUS
  0
SEQEND
  0
POLYLINE
  8
1
 62
7
  6
CONTINUOUS
 70
1
 66
1
  0
VERTEX
 10
31.000000
 20
52.700000
 30
0.000000
  8
1
 62
7
  6
CONTINUOUS
  0
VERTEX
 10
31.000000
 20
54.000000
 30
0.000000
  8
1
 62
7
  6
CONTINUOUS
  0
VERTEX
 10
5.400000
 20
54.000000
 30
0.000000
  8
1
 62
7
  6
CONTINUOUS
  0
VERTEX
 10
5.400000
 20
52.700000
 30
0.000000
  8
1
 62
7
  6
CONTINUOUS
  0
SEQEND
  0
SOLID
  8
1
 62
254
  6
CONTINUOUS
 10
9.100000
 20
52.700000
 11
9.100000
 21
54.000000
 12
6.900000
 22
52.700000
 13
6.900000
 23
54.000000
  0
POLYLINE
  8
1
 62
7
  6
CONTINUOUS
 70
1
 66
1
  0
VERTEX
 10
9.100000
 20
52.700000
 30
0.000000
  8
1
 62
7
  6
CONTINUOUS
  0
VERTEX
 10
9.100000
 20
54.000000
 30
0.000000
  8
1
 62
7
  6
CONTINUOUS
  0
VERTEX
 10
6.900000
 20
54.000000
 30
0.000000
  8
1
 62
7
  6
CONTINUOUS
  0
VERTEX
 10
6.900000
 20
52.700000
 30
0.000000
  8
1
 62
7
  6
CONTINUOUS
  0
SEQEND
  0
SOLID
  8
1
 62
254
  6
CONTINUOUS
 10
29.200000
 20
52.700000
 11
29.200000
 21
54.000000
 12
27.000000
 22
52.700000
 13
27.000000
 23
54.000000
  0
POLYLINE
  8
1
 62
7
  6
CONTINUOUS
 70
1
 66
1
  0
VERTEX
 10
29.200000
 20
52.700000
 30
0.000000
  8
1
 62
7
  6
CONTINUOUS
  0
VERTEX
 10
29.200000
 20
54.000000
 30
0.000000
  8
1
 62
7
  6
CONTINUOUS
  0
VERTEX
 10
27.000000
 20
54.000000
 30
0.000000
  8
1
 62
7
  6
CONTINUOUS
  0
VERTEX
 10
27.000000
 20
52.700000
 30
0.000000
  8
1
 62
7
  6
CONTINUOUS
  0
SEQEND
  0
POLYLINE
  8
1
 62
7
  6
CONTINUOUS
 70
1
 66
1
  0
VERTEX
 10
28.600000
 20
54.000000
  8
1
 62
7
  6
CONTINUOUS
  0
VERTEX
 10
30.200000
 20
54.000000
  8
1
 62
7
  6
CONTINUOUS
  0
VERTEX
 10
30.200000
 20
52.700000
  8
1
 62
7
  6
CONTINUOUS
  0
VERTEX
 10
28.600000
 20
52.700000
  8
1
 62
7
  6
CONTINUOUS
  0
VERTEX
 10
28.600000
 20
52.900000
  8
1
 62
7
  6
CONTINUOUS
  0
VERTEX
 10
30.000000
 20
52.900000
  8
1
 62
7
  6
CONTINUOUS
  0
VERTEX
 10
30.000000
 20
53.800000
  8
1
 62
7
  6
CONTINUOUS
  0
VERTEX
 10
28.600000
 20
53.800000
  8
1
 62
7
  6
CONTINUOUS
  0
SEQEND
  0
POLYLINE
  8
1
 62
7
  6
CONTINUOUS
 70
1
 66
1
  0
VERTEX
 10
29.600000
 20
54.200000
  8
1
 62
7
  6
CONTINUOUS
  0
VERTEX
 10
31.200000
 20
54.200000
  8
1
 62
7
  6
CONTINUOUS
  0
VERTEX
 10
31.200000
 20
52.500000
  8
1
 62
7
  6
CONTINUOUS
  0
VERTEX
 10
29.600000
 20
52.500000
  8
1
 62
7
  6
CONTINUOUS
  0
VERTEX
 10
29.600000
 20
52.700000
  8
1
 62
7
  6
CONTINUOUS
  0
VERTEX
 10
31.000000
 20
52.700000
  8
1
 62
7
  6
CONTINUOUS
  0
VERTEX
 10
31.000000
 20
54.000000
  8
1
 62
7
  6
CONTINUOUS
  0
VERTEX
 10
29.600000
 20
54.000000
  8
1
 62
7
  6
CONTINUOUS
  0
SEQEND
  0
POLYLINE
  8
1
 62
7
  6
CONTINUOUS
 70
1
 66
1
  0
VERTEX
 10
6.800000
 20
54.200000
  8
1
 62
7
  6
CONTINUOUS
  0
VERTEX
 10
5.200000
 20
54.200000
  8
1
 62
7
  6
CONTINUOUS
  0
VERTEX
 10
5.200000
 20
52.500000
  8
1
 62
7
  6
CONTINUOUS
  0
VERTEX
 10
6.800000
 20
52.500000
  8
1
 62
7
  6
CONTINUOUS
  0
VERTEX
 10
6.800000
 20
52.700000
  8
1
 62
7
  6
CONTINUOUS
  0
VERTEX
 10
5.400000
 20
52.700000
  8
1
 62
7
  6
CONTINUOUS
  0
VERTEX
 10
5.400000
 20
54.000000
  8
1
 62
7
  6
CONTINUOUS
  0
VERTEX
 10
6.800000
 20
54.000000
  8
1
 62
7
  6
CONTINUOUS
  0
SEQEND
  0
POLYLINE
  8
1
 62
7
  6
CONTINUOUS
 70
1
 66
1
  0
VERTEX
 10
26.600000
 20
54.000000
  8
1
 62
7
  6
CONTINUOUS
  0
VERTEX
 10
28.200000
 20
54.000000
  8
1
 62
7
  6
CONTINUOUS
  0
VERTEX
 10
28.200000
 20
52.700000
  8
1
 62
7
  6
CONTINUOUS
  0
VERTEX
 10
26.600000
 20
52.700000
  8
1
 62
7
  6
CONTINUOUS
  0
VERTEX
 10
26.600000
 20
52.900000
  8
1
 62
7
  6
CONTINUOUS
  0
VERTEX
 10
28.000000
 20
52.900000
  8
1
 62
7
  6
CONTINUOUS
  0
VERTEX
 10
28.000000
 20
53.800000
  8
1
 62
7
  6
CONTINUOUS
  0
VERTEX
 10
26.600000
 20
53.800000
  8
1
 62
7
  6
CONTINUOUS
  0
SEQEND
  0
POLYLINE
  8
1
 62
7
  6
CONTINUOUS
 70
1
 66
1
  0
VERTEX
 10
7.800000
 20
54.000000
  8
1
 62
7
  6
CONTINUOUS
  0
VERTEX
 10
6.200000
 20
54.000000
  8
1
 62
7
  6
CONTINUOUS
  0
VERTEX
 10
6.200000
 20
52.700000
  8
1
 62
7
  6
CONTINUOUS
  0
VERTEX
 10
7.800000
 20
52.700000
  8
1
 62
7
  6
CONTINUOUS
  0
VERTEX
 10
7.800000
 20
52.900000
  8
1
 62
7
  6
CONTINUOUS
  0
VERTEX
 10
6.400000
 20
52.900000
  8
1
 62
7
  6
CONTINUOUS
  0
VERTEX
 10
6.400000
 20
53.800000
  8
1
 62
7
  6
CONTINUOUS
  0
VERTEX
 10
7.800000
 20
53.800000
  8
1
 62
7
  6
CONTINUOUS
  0
SEQEND
  0
POLYLINE
  8
1
 62
7
  6
CONTINUOUS
 70
1
 66
1
  0
VERTEX
 10
9.800000
 20
54.000000
  8
1
 62
7
  6
CONTINUOUS
  0
VERTEX
 10
8.200000
 20
54.000000
  8
1
 62
7
  6
CONTINUOUS
  0
VERTEX
 10
8.200000
 20
52.700000
  8
1
 62
7
  6
CONTINUOUS
  0
VERTEX
 10
9.800000
 20
52.700000
  8
1
 62
7
  6
CONTINUOUS
  0
VERTEX
 10
9.800000
 20
52.900000
  8
1
 62
7
  6
CONTINUOUS
  0
VERTEX
 10
8.400000
 20
52.900000
  8
1
 62
7
  6
CONTINUOUS
  0
VERTEX
 10
8.400000
 20
53.800000
  8
1
 62
7
  6
CONTINUOUS
  0
VERTEX
 10
9.800000
 20
53.800000
  8
1
 62
7
  6
CONTINUOUS
  0
SEQEND
  0
SOLID
  8
1
 62
254
  6
CONTINUOUS
 10
30.400000
 20
24.400000
 11
30.400000
 21
33.000000
 12
6.000000
 22
24.400000
 13
6.000000
 23
33.000000
  0
POLYLINE
  8
1
 62
7
  6
CONTINUOUS
 70
1
 66
1
  0
VERTEX
 10
30.400000
 20
24.400000
 30
0.000000
  8
1
 62
7
  6
CONTINUOUS
  0
VERTEX
 10
30.400000
 20
33.000000
 30
0.000000
  8
1
 62
7
  6
CONTINUOUS
  0
VERTEX
 10
6.000000
 20
33.000000
 30
0.000000
  8
1
 62
7
  6
CONTINUOUS
  0
VERTEX
 10
6.000000
 20
24.400000
 30
0.000000
  8
1
 62
7
  6
CONTINUOUS
  0
SEQEND
  0
CIRCLE
  8
1
 62
7
  6
CONTINUOUS
 10
6.700000
 20
28.600000
 30
0.0
 40
0.400000
  0
CIRCLE
  8
1
 62
7
  6
CONTINUOUS
 10
29.700000
 20
28.600000
 30
0.0
 40
0.400000
  0
CIRCLE
  8
1
 62
7
  6
CONTINUOUS
 10
6.700000
 20
31.100000
 30
0.0
 40
0.400000
  0
CIRCLE
  8
1
 62
7
  6
CONTINUOUS
 10
6.700000
 20
26.100000
 30
0.0
 40
0.400000
  0
CIRCLE
  8
1
 62
7
  6
CONTINUOUS
 10
29.700000
 20
31.100000
 30
0.0
 40
0.400000
  0
CIRCLE
  8
1
 62
7
  6
CONTINUOUS
 10
29.700000
 20
26.100000
 30
0.0
 40
0.400000
  0
POLYLINE
  8
1
 62
7
  6
L000000000000000000
 70
1
 66
1
  0
VERTEX
 10
8.900000
 20
30.400000
 30
0.000000
  8
1
 62
7
  6
L000000000000000000
  0
VERTEX
 10
8.900000
 20
31.700000
 30
0.000000
  8
1
 62
7
  6
L000000000000000000
  0
VERTEX
 10
7.600000
 20
31.700000
 30
0.000000
  8
1
 62
7
  6
L000000000000000000
  0
VERTEX
 10
7.600000
 20
30.400000
 30
0.000000
  8
1
 62
7
  6
L000000000000000000
  0
SEQEND
  0
POLYLINE
  8
1
 62
7
  6
L000000000000000000
 70
1
 66
1
  0
VERTEX
 10
12.900000
 20
31.100000
 30
0.000000
  8
1
 62
7
  6
L000000000000000000
  0
VERTEX
 10
12.900000
 20
32.400000
 30
0.000000
  8
1
 62
7
  6
L000000000000000000
  0
VERTEX
 10
11.600000
 20
32.400000
 30
0.000000
  8
1
 62
7
  6
L000000000000000000
  0
VERTEX
 10
11.600000
 20
31.100000
 30
0.000000
  8
1
 62
7
  6
L000000000000000000
  0
SEQEND
  0
POLYLINE
  8
1
 62
7
  6
L000000000000000000
 70
1
 66
1
  0
VERTEX
 10
18.700000
 20
31.100000
 30
0.000000
  8
1
 62
7
  6
L000000000000000000
  0
VERTEX
 10
18.700000
 20
32.400000
 30
0.000000
  8
1
 62
7
  6
L000000000000000000
  0
VERTEX
 10
17.400000
 20
32.400000
 30
0.000000
  8
1
 62
7
  6
L000000000000000000
  0
VERTEX
 10
17.400000
 20
31.100000
 30
0.000000
  8
1
 62
7
  6
L000000000000000000
  0
SEQEND
  0
POLYLINE
  8
1
 62
7
  6
L000000000000000000
 70
1
 66
1
  0
VERTEX
 10
24.500000
 20
31.100000
 30
0.000000
  8
1
 62
7
  6
L000000000000000000
  0
VERTEX
 10
24.500000
 20
32.400000
 30
0.000000
  8
1
 62
7
  6
L000000000000000000
  0
VERTEX
 10
23.200000
 20
32.400000
 30
0.000000
  8
1
 62
7
  6
L000000000000000000
  0
VERTEX
 10
23.200000
 20
31.100000
 30
0.000000
  8
1
 62
7
  6
L000000000000000000
  0
SEQEND
  0
POLYLINE
  8
1
 62
7
  6
L000000000000000000
 70
1
 66
1
  0
VERTEX
 10
28.500000
 20
30.400000
 30
0.000000
  8
1
 62
7
  6
L000000000000000000
  0
VERTEX
 10
28.500000
 20
31.700000
 30
0.000000
  8
1
 62
7
  6
L000000000000000000
  0
VERTEX
 10
27.200000
 20
31.700000
 30
0.000000
  8
1
 62
7
  6
L000000000000000000
  0
VERTEX
 10
27.200000
 20
30.400000
 30
0.000000
  8
1
 62
7
  6
L000000000000000000
  0
SEQEND
  0
POLYLINE
  8
1
 62
7
  6
L000000000000000000
 70
1
 66
1
  0
VERTEX
 10
28.500000
 20
27.700000
 30
0.000000
  8
1
 62
7
  6
L000000000000000000
  0
VERTEX
 10
28.500000
 20
29.000000
 30
0.000000
  8
1
 62
7
  6
L000000000000000000
  0
VERTEX
 10
27.200000
 20
29.000000
 30
0.000000
  8
1
 62
7
  6
L000000000000000000
  0
VERTEX
 10
27.200000
 20
27.700000
 30
0.000000
  8
1
 62
7
  6
L000000000000000000
  0
SEQEND
  0
POLYLINE
  8
1
 62
7
  6
L000000000000000000
 70
1
 66
1
  0
VERTEX
 10
28.500000
 20
25.400000
 30
0.000000
  8
1
 62
7
  6
L000000000000000000
  0
VERTEX
 10
28.500000
 20
26.700000
 30
0.000000
  8
1
 62
7
  6
L000000000000000000
  0
VERTEX
 10
27.200000
 20
26.700000
 30
0.000000
  8
1
 62
7
  6
L000000000000000000
  0
VERTEX
 10
27.200000
 20
25.400000
 30
0.000000
  8
1
 62
7
  6
L000000000000000000
  0
SEQEND
  0
POLYLINE
  8
1
 62
7
  6
L000000000000000000
 70
1
 66
1
  0
VERTEX
 10
8.900000
 20
27.700000
 30
0.000000
  8
1
 62
7
  6
L000000000000000000
  0
VERTEX
 10
8.900000
 20
29.000000
 30
0.000000
  8
1
 62
7
  6
L000000000000000000
  0
VERTEX
 10
7.600000
 20
29.000000
 30
0.000000
  8
1
 62
7
  6
L000000000000000000
  0
VERTEX
 10
7.600000
 20
27.700000
 30
0.000000
  8
1
 62
7
  6
L000000000000000000
  0
SEQEND
  0
POLYLINE
  8
1
 62
7
  6
L000000000000000000
 70
1
 66
1
  0
VERTEX
 10
8.900000
 20
25.400000
 30
0.000000
  8
1
 62
7
  6
L000000000000000000
  0
VERTEX
 10
8.900000
 20
26.700000
 30
0.000000
  8
1
 62
7
  6
L000000000000000000
  0
VERTEX
 10
7.600000
 20
26.700000
 30
0.000000
  8
1
 62
7
  6
L000000000000000000
  0
VERTEX
 10
7.600000
 20
25.400000
 30
0.000000
  8
1
 62
7
  6
L000000000000000000
  0
SEQEND
  0
SOLID
  8
1
 62
255
  6
CONTINUOUS
 10
31.000000
 20
64.400000
 11
31.000000
 21
68.000000
 12
5.400000
 22
64.400000
 13
5.400000
 23
68.000000
  0
POLYLINE
  8
1
 62
7
  6
CONTINUOUS
 70
1
 66
1
  0
VERTEX
 10
31.000000
 20
64.400000
 30
0.000000
  8
1
 62
7
  6
CONTINUOUS
  0
VERTEX
 10
31.000000
 20
68.000000
 30
0.000000
  8
1
 62
7
  6
CONTINUOUS
  0
VERTEX
 10
5.400000
 20
68.000000
 30
0.000000
  8
1
 62
7
  6
CONTINUOUS
  0
VERTEX
 10
5.400000
 20
64.400000
 30
0.000000
  8
1
 62
7
  6
CONTINUOUS
  0
SEQEND
  0
POLYLINE
  8
1
 62
7
  6
CONTINUOUS
 70
1
 66
1
  0
VERTEX
 10
31.000000
 20
64.900000
 30
0.000000
  8
1
 62
7
  6
CONTINUOUS
  0
VERTEX
 10
31.000000
 20
67.500000
 30
0.000000
  8
1
 62
7
  6
CONTINUOUS
  0
VERTEX
 10
5.400000
 20
67.500000
 30
0.000000
  8
1
 62
7
  6
CONTINUOUS
  0
VERTEX
 10
5.400000
 20
64.900000
 30
0.000000
  8
1
 62
7
  6
CONTINUOUS
  0
SEQEND
  0
POLYLINE
  8
1
 62
7
  6
L000000000000000000
 70
1
 66
1
  0
VERTEX
 10
31.000000
 20
64.800000
 30
0.000000
  8
1
 62
7
  6
L000000000000000000
  0
VERTEX
 10
31.000000
 20
67.600000
 30
0.000000
  8
1
 62
7
  6
L000000000000000000
  0
VERTEX
 10
5.400000
 20
67.600000
 30
0.000000
  8
1
 62
7
  6
L000000000000000000
  0
VERTEX
 10
5.400000
 20
64.800000
 30
0.000000
  8
1
 62
7
  6
L000000000000000000
  0
SEQEND
  0
CIRCLE
  8
1
 62
7
  6
CONTINUOUS
 10
6.700000
 20
66.200000
 30
0.0
 40
0.400000
  0
CIRCLE
  8
1
 62
7
  6
CONTINUOUS
 10
29.700000
 20
66.200000
 30
0.0
 40
0.400000
  0
POLYLINE
  8
1
 62
7
  6
CONTINUOUS
 70
1
 66
1
  0
VERTEX
 10
31.000000
 20
64.400000
 30
0.000000
  8
1
 62
7
  6
CONTINUOUS
  0
VERTEX
 10
31.000000
 20
68.000000
 30
0.000000
  8
1
 62
7
  6
CONTINUOUS
  0
VERTEX
 10
5.400000
 20
68.000000
 30
0.000000
  8
1
 62
7
  6
CONTINUOUS
  0
VERTEX
 10
5.400000
 20
64.400000
 30
0.000000
  8
1
 62
7
  6
CONTINUOUS
  0
SEQEND
  0
CIRCLE
  8
1
 62
7
  6
CONTINUOUS
 10
6.700000
 20
66.200000
 30
0.0
 40
0.400000
  0
CIRCLE
  8
1
 62
7
  6
CONTINUOUS
 10
29.700000
 20
66.200000
 30
0.0
 40
0.400000
  0
POLYLINE
  8
1
 62
7
  6
CONTINUOUS
 70
1
 66
1
  0
VERTEX
 10
7.300000
 20
70.400000
  8
1
 62
7
  6
CONTINUOUS
  0
VERTEX
 10
29.100000
 20
70.400000
  8
1
 62
7
  6
CONTINUOUS
  0
VERTEX
 10
29.100000
 20
68.300000
  8
1
 62
7
  6
CONTINUOUS
  0
VERTEX
 10
30.700000
 20
68.300000
  8
1
 62
7
  6
CONTINUOUS
  0
VERTEX
 10
30.700000
 20
66.200000
  8
1
 62
7
  6
CONTINUOUS
  0
VERTEX
 10
5.700000
 20
66.200000
  8
1
 62
7
  6
CONTINUOUS
  0
VERTEX
 10
5.700000
 20
68.300000
  8
1
 62
7
  6
CONTINUOUS
  0
VERTEX
 10
7.300000
 20
68.300000
  8
1
 62
7
  6
CONTINUOUS
  0
SEQEND
  0
CIRCLE
  8
1
 62
7
  6
CONTINUOUS
 10
6.700000
 20
67.400000
 30
0.0
 40
0.400000
  0
CIRCLE
  8
1
 62
7
  6
CONTINUOUS
 10
29.700000
 20
67.400000
 30
0.0
 40
0.400000
  0
POLYLINE
  8
1
 62
7
  6
CONTINUOUS
 70
1
 66
1
  0
VERTEX
 10
9.000000
 20
66.600000
 30
0.000000
  8
1
 62
7
  6
CONTINUOUS
  0
VERTEX
 10
9.000000
 20
68.000000
 30
0.000000
  8
1
 62
7
  6
CONTINUOUS
  0
VERTEX
 10
7.600000
 20
68.000000
 30
0.000000
  8
1
 62
7
  6
CONTINUOUS
  0
VERTEX
 10
7.600000
 20
66.600000
 30
0.000000
  8
1
 62
7
  6
CONTINUOUS
  0
SEQEND
  0
POLYLINE
  8
1
 62
7
  6
CONTINUOUS
 70
1
 66
1
  0
VERTEX
 10
10.800000
 20
66.600000
 30
0.000000
  8
1
 62
7
  6
CONTINUOUS
  0
VERTEX
 10
10.800000
 20
68.000000
 30
0.000000
  8
1
 62
7
  6
CONTINUOUS
  0
VERTEX
 10
9.400000
 20
68.000000
 30
0.000000
  8
1
 62
7
  6
CONTINUOUS
  0
VERTEX
 10
9.400000
 20
66.600000
 30
0.000000
  8
1
 62
7
  6
CONTINUOUS
  0
SEQEND
  0
POLYLINE
  8
1
 62
7
  6
CONTINUOUS
 70
1
 66
1
  0
VERTEX
 10
14.400000
 20
66.600000
 30
0.000000
  8
1
 62
7
  6
CONTINUOUS
  0
VERTEX
 10
14.400000
 20
68.000000
 30
0.000000
  8
1
 62
7
  6
CONTINUOUS
  0
VERTEX
 10
13.000000
 20
68.000000
 30
0.000000
  8
1
 62
7
  6
CONTINUOUS
  0
VERTEX
 10
13.000000
 20
66.600000
 30
0.000000
  8
1
 62
7
  6
CONTINUOUS
  0
SEQEND
  0
POLYLINE
  8
1
 62
7
  6
CONTINUOUS
 70
1
 66
1
  0
VERTEX
 10
12.600000
 20
66.600000
 30
0.000000
  8
1
 62
7
  6
CONTINUOUS
  0
VERTEX
 10
12.600000
 20
68.000000
 30
0.000000
  8
1
 62
7
  6
CONTINUOUS
  0
VERTEX
 10
11.200000
 20
68.000000
 30
0.000000
  8
1
 62
7
  6
CONTINUOUS
  0
VERTEX
 10
11.200000
 20
66.600000
 30
0.000000
  8
1
 62
7
  6
CONTINUOUS
  0
SEQEND
  0
POLYLINE
  8
1
 62
7
  6
CONTINUOUS
 70
1
 66
1
  0
VERTEX
 10
16.200000
 20
66.600000
 30
0.000000
  8
1
 62
7
  6
CONTINUOUS
  0
VERTEX
 10
16.200000
 20
68.000000
 30
0.000000
  8
1
 62
7
  6
CONTINUOUS
  0
VERTEX
 10
14.800000
 20
68.000000
 30
0.000000
  8
1
 62
7
  6
CONTINUOUS
  0
VERTEX
 10
14.800000
 20
66.600000
 30
0.000000
  8
1
 62
7
  6
CONTINUOUS
  0
SEQEND
  0
POLYLINE
  8
1
 62
7
  6
CONTINUOUS
 70
1
 66
1
  0
VERTEX
 10
18.000000
 20
66.600000
 30
0.000000
  8
1
 62
7
  6
CONTINUOUS
  0
VERTEX
 10
18.000000
 20
68.000000
 30
0.000000
  8
1
 62
7
  6
CONTINUOUS
  0
VERTEX
 10
16.600000
 20
68.000000
 30
0.000000
  8
1
 62
7
  6
CONTINUOUS
  0
VERTEX
 10
16.600000
 20
66.600000
 30
0.000000
  8
1
 62
7
  6
CONTINUOUS
  0
SEQEND
  0
POLYLINE
  8
1
 62
7
  6
CONTINUOUS
 70
1
 66
1
  0
VERTEX
 10
19.800000
 20
66.600000
 30
0.000000
  8
1
 62
7
  6
CONTINUOUS
  0
VERTEX
 10
19.800000
 20
68.000000
 30
0.000000
  8
1
 62
7
  6
CONTINUOUS
  0
VERTEX
 10
18.400000
 20
68.000000
 30
0.000000
  8
1
 62
7
  6
CONTINUOUS
  0
VERTEX
 10
18.400000
 20
66.600000
 30
0.000000
  8
1
 62
7
  6
CONTINUOUS
  0
SEQEND
  0
POLYLINE
  8
1
 62
7
  6
CONTINUOUS
 70
1
 66
1
  0
VERTEX
 10
21.600000
 20
66.600000
 30
0.000000
  8
1
 62
7
  6
CONTINUOUS
  0
VERTEX
 10
21.600000
 20
68.000000
 30
0.000000
  8
1
 62
7
  6
CONTINUOUS
  0
VERTEX
 10
20.200000
 20
68.000000
 30
0.000000
  8
1
 62
7
  6
CONTINUOUS
  0
VERTEX
 10
20.200000
 20
66.600000
 30
0.000000
  8
1
 62
7
  6
CONTINUOUS
  0
SEQEND
  0
POLYLINE
  8
1
 62
7
  6
CONTINUOUS
 70
1
 66
1
  0
VERTEX
 10
23.400000
 20
66.600000
 30
0.000000
  8
1
 62
7
  6
CONTINUOUS
  0
VERTEX
 10
23.400000
 20
68.000000
 30
0.000000
  8
1
 62
7
  6
CONTINUOUS
  0
VERTEX
 10
22.000000
 20
68.000000
 30
0.000000
  8
1
 62
7
  6
CONTINUOUS
  0
VERTEX
 10
22.000000
 20
66.600000
 30
0.000000
  8
1
 62
7
  6
CONTINUOUS
  0
SEQEND
  0
POLYLINE
  8
1
 62
7
  6
CONTINUOUS
 70
1
 66
1
  0
VERTEX
 10
25.200000
 20
66.600000
 30
0.000000
  8
1
 62
7
  6
CONTINUOUS
  0
VERTEX
 10
25.200000
 20
68.000000
 30
0.000000
  8
1
 62
7
  6
CONTINUOUS
  0
VERTEX
 10
23.800000
 20
68.000000
 30
0.000000
  8
1
 62
7
  6
CONTINUOUS
  0
VERTEX
 10
23.800000
 20
66.600000
 30
0.000000
  8
1
 62
7
  6
CONTINUOUS
  0
SEQEND
  0
POLYLINE
  8
1
 62
7
  6
CONTINUOUS
 70
1
 66
1
  0
VERTEX
 10
27.000000
 20
66.600000
 30
0.000000
  8
1
 62
7
  6
CONTINUOUS
  0
VERTEX
 10
27.000000
 20
68.000000
 30
0.000000
  8
1
 62
7
  6
CONTINUOUS
  0
VERTEX
 10
25.600000
 20
68.000000
 30
0.000000
  8
1
 62
7
  6
CONTINUOUS
  0
VERTEX
 10
25.600000
 20
66.600000
 30
0.000000
  8
1
 62
7
  6
CONTINUOUS
  0
SEQEND
  0
POLYLINE
  8
1
 62
7
  6
CONTINUOUS
 70
1
 66
1
  0
VERTEX
 10
28.800000
 20
66.600000
 30
0.000000
  8
1
 62
7
  6
CONTINUOUS
  0
VERTEX
 10
28.800000
 20
68.000000
 30
0.000000
  8
1
 62
7
  6
CONTINUOUS
  0
VERTEX
 10
27.400000
 20
68.000000
 30
0.000000
  8
1
 62
7
  6
CONTINUOUS
  0
VERTEX
 10
27.400000
 20
66.600000
 30
0.000000
  8
1
 62
7
  6
CONTINUOUS
  0
SEQEND
  0
POLYLINE
  8
1
 62
7
  6
CONTINUOUS
 70
0
 66
1
  0
VERTEX
 10
7.100000
 20
68.300000
  8
1
 62
7
  6
CONTINUOUS
  0
VERTEX
 10
29.300000
 20
68.300000
  8
1
 62
7
  6
CONTINUOUS
  0
SEQEND
  0
POLYLINE
  8
1
 62
7
  6
L000000000000000000
 70
0
 66
1
  0
VERTEX
 10
7.300000
 20
68.500000
  8
1
 62
7
  6
L000000000000000000
  0
VERTEX
 10
29.100000
 20
68.500000
  8
1
 62
7
  6
L000000000000000000
  0
SEQEND
  0
POLYLINE
  8
1
 62
7
  6
CONTINUOUS
 70
0
 66
1
  0
VERTEX
 10
7.300000
 20
68.400000
  8
1
 62
7
  6
CONTINUOUS
  0
VERTEX
 10
7.300000
 20
66.800000
  8
1
 62
7
  6
CONTINUOUS
  0
VERTEX
 10
5.700000
 20
66.800000
  8
1
 62
7
  6
CONTINUOUS
  0
SEQEND
  0
POLYLINE
  8
1
 62
7
  6
CONTINUOUS
 70
0
 66
1
  0
VERTEX
 10
29.100000
 20
68.300000
  8
1
 62
7
  6
CONTINUOUS
  0
VERTEX
 10
29.100000
 20
66.700000
  8
1
 62
7
  6
CONTINUOUS
  0
VERTEX
 10
30.700000
 20
66.700000
  8
1
 62
7
  6
CONTINUOUS
  0
SEQEND
  0
SOLID
  8
29
 62
254
  6
CONTINUOUS
 10
30.400000
 20
11.900000
 11
30.400000
 21
20.500000
 12
6.000000
 22
11.900000
 13
6.000000
 23
20.500000
  0
POLYLINE
  8
29
 62
7
  6
CONTINUOUS
 70
1
 66
1
  0
VERTEX
 10
30.400000
 20
11.900000
 30
0.000000
  8
29
 62
7
  6
CONTINUOUS
  0
VERTEX
 10
30.400000
 20
20.500000
 30
0.000000
  8
29
 62
7
  6
CONTINUOUS
  0
VERTEX
 10
6.000000
 20
20.500000
 30
0.000000
  8
29
 62
7
  6
CONTINUOUS
  0
VERTEX
 10
6.000000
 20
11.900000
 30
0.000000
  8
29
 62
7
  6
CONTINUOUS
  0
SEQEND
  0
CIRCLE
  8
29
 62
7
  6
CONTINUOUS
 10
6.700000
 20
16.100000
 30
0.0
 40
0.400000
  0
CIRCLE
  8
29
 62
7
  6
CONTINUOUS
 10
29.700000
 20
16.100000
 30
0.0
 40
0.400000
  0
CIRCLE
  8
29
 62
7
  6
CONTINUOUS
 10
6.700000
 20
18.600000
 30
0.0
 40
0.400000
  0
CIRCLE
  8
29
 62
7
  6
CONTINUOUS
 10
6.700000
 20
13.600000
 30
0.0
 40
0.400000
  0
CIRCLE
  8
29
 62
7
  6
CONTINUOUS
 10
29.700000
 20
18.600000
 30
0.0
 40
0.400000
  0
CIRCLE
  8
29
 62
7
  6
CONTINUOUS
 10
29.700000
 20
13.600000
 30
0.0
 40
0.400000
  0
POLYLINE
  8
29
 62
7
  6
L000000000000000000
 70
1
 66
1
  0
VERTEX
 10
8.900000
 20
17.900000
 30
0.000000
  8
29
 62
7
  6
L000000000000000000
  0
VERTEX
 10
8.900000
 20
19.200000
 30
0.000000
  8
29
 62
7
  6
L000000000000000000
  0
VERTEX
 10
7.600000
 20
19.200000
 30
0.000000
  8
29
 62
7
  6
L000000000000000000
  0
VERTEX
 10
7.600000
 20
17.900000
 30
0.000000
  8
29
 62
7
  6
L000000000000000000
  0
SEQEND
  0
POLYLINE
  8
29
 62
7
  6
L000000000000000000
 70
1
 66
1
  0
VERTEX
 10
12.900000
 20
18.600000
 30
0.000000
  8
29
 62
7
  6
L000000000000000000
  0
VERTEX
 10
12.900000
 20
19.900000
 30
0.000000
  8
29
 62
7
  6
L000000000000000000
  0
VERTEX
 10
11.600000
 20
19.900000
 30
0.000000
  8
29
 62
7
  6
L000000000000000000
  0
VERTEX
 10
11.600000
 20
18.600000
 30
0.000000
  8
29
 62
7
  6
L000000000000000000
  0
SEQEND
  0
POLYLINE
  8
29
 62
7
  6
L000000000000000000
 70
1
 66
1
  0
VERTEX
 10
18.700000
 20
18.600000
 30
0.000000
  8
29
 62
7
  6
L000000000000000000
  0
VERTEX
 10
18.700000
 20
19.900000
 30
0.000000
  8
29
 62
7
  6
L000000000000000000
  0
VERTEX
 10
17.400000
 20
19.900000
 30
0.000000
  8
29
 62
7
  6
L000000000000000000
  0
VERTEX
 10
17.400000
 20
18.600000
 30
0.000000
  8
29
 62
7
  6
L000000000000000000
  0
SEQEND
  0
POLYLINE
  8
29
 62
7
  6
L000000000000000000
 70
1
 66
1
  0
VERTEX
 10
24.500000
 20
18.600000
 30
0.000000
  8
29
 62
7
  6
L000000000000000000
  0
VERTEX
 10
24.500000
 20
19.900000
 30
0.000000
  8
29
 62
7
  6
L000000000000000000
  0
VERTEX
 10
23.200000
 20
19.900000
 30
0.000000
  8
29
 62
7
  6
L000000000000000000
  0
VERTEX
 10
23.200000
 20
18.600000
 30
0.000000
  8
29
 62
7
  6
L000000000000000000
  0
SEQEND
  0
POLYLINE
  8
29
 62
7
  6
L000000000000000000
 70
1
 66
1
  0
VERTEX
 10
28.500000
 20
17.900000
 30
0.000000
  8
29
 62
7
  6
L000000000000000000
  0
VERTEX
 10
28.500000
 20
19.200000
 30
0.000000
  8
29
 62
7
  6
L000000000000000000
  0
VERTEX
 10
27.200000
 20
19.200000
 30
0.000000
  8
29
 62
7
  6
L000000000000000000
  0
VERTEX
 10
27.200000
 20
17.900000
 30
0.000000
  8
29
 62
7
  6
L000000000000000000
  0
SEQEND
  0
POLYLINE
  8
29
 62
7
  6
L000000000000000000
 70
1
 66
1
  0
VERTEX
 10
28.500000
 20
15.200000
 30
0.000000
  8
29
 62
7
  6
L000000000000000000
  0
VERTEX
 10
28.500000
 20
16.500000
 30
0.000000
  8
29
 62
7
  6
L000000000000000000
  0
VERTEX
 10
27.200000
 20
16.500000
 30
0.000000
  8
29
 62
7
  6
L000000000000000000
  0
VERTEX
 10
27.200000
 20
15.200000
 30
0.000000
  8
29
 62
7
  6
L000000000000000000
  0
SEQEND
  0
POLYLINE
  8
29
 62
7
  6
L000000000000000000
 70
1
 66
1
  0
VERTEX
 10
28.500000
 20
12.900000
 30
0.000000
  8
29
 62
7
  6
L000000000000000000
  0
VERTEX
 10
28.500000
 20
14.200000
 30
0.000000
  8
29
 62
7
  6
L000000000000000000
  0
VERTEX
 10
27.200000
 20
14.200000
 30
0.000000
  8
29
 62
7
  6
L000000000000000000
  0
VERTEX
 10
27.200000
 20
12.900000
 30
0.000000
  8
29
 62
7
  6
L000000000000000000
  0
SEQEND
  0
POLYLINE
  8
29
 62
7
  6
L000000000000000000
 70
1
 66
1
  0
VERTEX
 10
8.900000
 20
15.200000
 30
0.000000
  8
29
 62
7
  6
L000000000000000000
  0
VERTEX
 10
8.900000
 20
16.500000
 30
0.000000
  8
29
 62
7
  6
L000000000000000000
  0
VERTEX
 10
7.600000
 20
16.500000
 30
0.000000
  8
29
 62
7
  6
L000000000000000000
  0
VERTEX
 10
7.600000
 20
15.200000
 30
0.000000
  8
29
 62
7
  6
L000000000000000000
  0
SEQEND
  0
POLYLINE
  8
29
 62
7
  6
L000000000000000000
 70
1
 66
1
  0
VERTEX
 10
8.900000
 20
12.900000
 30
0.000000
  8
29
 62
7
  6
L000000000000000000
  0
VERTEX
 10
8.900000
 20
14.200000
 30
0.000000
  8
29
 62
7
  6
L000000000000000000
  0
VERTEX
 10
7.600000
 20
14.200000
 30
0.000000
  8
29
 62
7
  6
L000000000000000000
  0
VERTEX
 10
7.600000
 20
12.900000
 30
0.000000
  8
29
 62
7
  6
L000000000000000000
  0
SEQEND
  0
SOLID
  8
29
 62
254
  6
CONTINUOUS
 10
30.400000
 20
36.900000
 11
30.400000
 21
45.500000
 12
6.000000
 22
36.900000
 13
6.000000
 23
45.500000
  0
POLYLINE
  8
29
 62
7
  6
CONTINUOUS
 70
1
 66
1
  0
VERTEX
 10
30.400000
 20
36.900000
 30
0.000000
  8
29
 62
7
  6
CONTINUOUS
  0
VERTEX
 10
30.400000
 20
45.500000
 30
0.000000
  8
29
 62
7
  6
CONTINUOUS
  0
VERTEX
 10
6.000000
 20
45.500000
 30
0.000000
  8
29
 62
7
  6
CONTINUOUS
  0
VERTEX
 10
6.000000
 20
36.900000
 30
0.000000
  8
29
 62
7
  6
CONTINUOUS
  0
SEQEND
  0
CIRCLE
  8
29
 62
7
  6
CONTINUOUS
 10
6.700000
 20
41.200000
 30
0.0
 40
0.400000
  0
CIRCLE
  8
29
 62
7
  6
CONTINUOUS
 10
29.700000
 20
41.200000
 30
0.0
 40
0.400000
  0
CIRCLE
  8
29
 62
7
  6
CONTINUOUS
 10
6.700000
 20
43.800000
 30
0.0
 40
0.400000
  0
CIRCLE
  8
29
 62
7
  6
CONTINUOUS
 10
6.700000
 20
38.700000
 30
0.0
 40
0.400000
  0
CIRCLE
  8
29
 62
7
  6
CONTINUOUS
 10
29.700000
 20
43.700000
 30
0.0
 40
0.400000
  0
CIRCLE
  8
29
 62
7
  6
CONTINUOUS
 10
29.700000
 20
38.700000
 30
0.0
 40
0.400000
  0
POLYLINE
  8
29
 62
7
  6
L000000000000000000
 70
1
 66
1
  0
VERTEX
 10
28.500000
 20
42.900000
 30
0.000000
  8
29
 62
7
  6
L000000000000000000
  0
VERTEX
 10
28.500000
 20
44.200000
 30
0.000000
  8
29
 62
7
  6
L000000000000000000
  0
VERTEX
 10
27.200000
 20
44.200000
 30
0.000000
  8
29
 62
7
  6
L000000000000000000
  0
VERTEX
 10
27.200000
 20
42.900000
 30
0.000000
  8
29
 62
7
  6
L000000000000000000
  0
SEQEND
  0
POLYLINE
  8
29
 62
7
  6
L000000000000000000
 70
1
 66
1
  0
VERTEX
 10
28.500000
 20
40.200000
 30
0.000000
  8
29
 62
7
  6
L000000000000000000
  0
VERTEX
 10
28.500000
 20
41.500000
 30
0.000000
  8
29
 62
7
  6
L000000000000000000
  0
VERTEX
 10
27.200000
 20
41.500000
 30
0.000000
  8
29
 62
7
  6
L000000000000000000
  0
VERTEX
 10
27.200000
 20
40.200000
 30
0.000000
  8
29
 62
7
  6
L000000000000000000
  0
SEQEND
  0
POLYLINE
  8
29
 62
7
  6
L000000000000000000
 70
1
 66
1
  0
VERTEX
 10
28.500000
 20
37.900000
 30
0.000000
  8
29
 62
7
  6
L000000000000000000
  0
VERTEX
 10
28.500000
 20
39.200000
 30
0.000000
  8
29
 62
7
  6
L000000000000000000
  0
VERTEX
 10
27.200000
 20
39.200000
 30
0.000000
  8
29
 62
7
  6
L000000000000000000
  0
VERTEX
 10
27.200000
 20
37.900000
 30
0.000000
  8
29
 62
7
  6
L000000000000000000
  0
SEQEND
  0
POLYLINE
  8
29
 62
7
  6
L000000000000000000
 70
1
 66
1
  0
VERTEX
 10
8.900000
 20
42.900000
 30
0.000000
  8
29
 62
7
  6
L000000000000000000
  0
VERTEX
 10
8.900000
 20
44.200000
 30
0.000000
  8
29
 62
7
  6
L000000000000000000
  0
VERTEX
 10
7.600000
 20
44.200000
 30
0.000000
  8
29
 62
7
  6
L000000000000000000
  0
VERTEX
 10
7.600000
 20
42.900000
 30
0.000000
  8
29
 62
7
  6
L000000000000000000
  0
SEQEND
  0
POLYLINE
  8
29
 62
7
  6
L000000000000000000
 70
1
 66
1
  0
VERTEX
 10
8.900000
 20
40.200000
 30
0.000000
  8
29
 62
7
  6
L000000000000000000
  0
VERTEX
 10
8.900000
 20
41.500000
 30
0.000000
  8
29
 62
7
  6
L000000000000000000
  0
VERTEX
 10
7.600000
 20
41.500000
 30
0.000000
  8
29
 62
7
  6
L000000000000000000
  0
VERTEX
 10
7.600000
 20
40.200000
 30
0.000000
  8
29
 62
7
  6
L000000000000000000
  0
SEQEND
  0
POLYLINE
  8
29
 62
7
  6
L000000000000000000
 70
1
 66
1
  0
VERTEX
 10
8.900000
 20
37.900000
 30
0.000000
  8
29
 62
7
  6
L000000000000000000
  0
VERTEX
 10
8.900000
 20
39.200000
 30
0.000000
  8
29
 62
7
  6
L000000000000000000
  0
VERTEX
 10
7.600000
 20
39.200000
 30
0.000000
  8
29
 62
7
  6
L000000000000000000
  0
VERTEX
 10
7.600000
 20
37.900000
 30
0.000000
  8
29
 62
7
  6
L000000000000000000
  0
SEQEND
  0
POLYLINE
  8
29
 62
7
  6
L000000000000000000
 70
1
 66
1
  0
VERTEX
 10
18.700000
 20
43.600000
 30
0.000000
  8
29
 62
7
  6
L000000000000000000
  0
VERTEX
 10
18.700000
 20
44.900000
 30
0.000000
  8
29
 62
7
  6
L000000000000000000
  0
VERTEX
 10
17.400000
 20
44.900000
 30
0.000000
  8
29
 62
7
  6
L000000000000000000
  0
VERTEX
 10
17.400000
 20
43.600000
 30
0.000000
  8
29
 62
7
  6
L000000000000000000
  0
SEQEND
  0
POLYLINE
  8
29
 62
7
  6
L000000000000000000
 70
1
 66
1
  0
VERTEX
 10
24.500000
 20
43.600000
 30
0.000000
  8
29
 62
7
  6
L000000000000000000
  0
VERTEX
 10
24.500000
 20
44.900000
 30
0.000000
  8
29
 62
7
  6
L000000000000000000
  0
VERTEX
 10
23.200000
 20
44.900000
 30
0.000000
  8
29
 62
7
  6
L000000000000000000
  0
VERTEX
 10
23.200000
 20
43.600000
 30
0.000000
  8
29
 62
7
  6
L000000000000000000
  0
SEQEND
  0
POLYLINE
  8
29
 62
7
  6
L000000000000000000
 70
1
 66
1
  0
VERTEX
 10
12.900000
 20
43.600000
 30
0.000000
  8
29
 62
7
  6
L000000000000000000
  0
VERTEX
 10
12.900000
 20
44.900000
 30
0.000000
  8
29
 62
7
  6
L000000000000000000
  0
VERTEX
 10
11.600000
 20
44.900000
 30
0.000000
  8
29
 62
7
  6
L000000000000000000
  0
VERTEX
 10
11.600000
 20
43.600000
 30
0.000000
  8
29
 62
7
  6
L000000000000000000
  0
SEQEND
  0
POLYLINE
  8
29
 62
7
  6
CONTINUOUS
 70
1
 66
1
  0
VERTEX
 10
31.200000
 20
40.000000
 30
0.000000
  8
29
 62
7
  6
CONTINUOUS
  0
VERTEX
 10
31.200000
 20
41.700000
 30
0.000000
  8
29
 62
7
  6
CONTINUOUS
  0
VERTEX
 10
5.200000
 20
41.700000
 30
0.000000
  8
29
 62
7
  6
CONTINUOUS
  0
VERTEX
 10
5.200000
 20
40.000000
 30
0.000000
  8
29
 62
7
  6
CONTINUOUS
  0
SEQEND
  0
POLYLINE
  8
29
 62
7
  6
CONTINUOUS
 70
1
 66
1
  0
VERTEX
 10
31.000000
 20
40.200000
 30
0.000000
  8
29
 62
7
  6
CONTINUOUS
  0
VERTEX
 10
31.000000
 20
41.500000
 30
0.000000
  8
29
 62
7
  6
CONTINUOUS
  0
VERTEX
 10
5.400000
 20
41.500000
 30
0.000000
  8
29
 62
7
  6
CONTINUOUS
  0
VERTEX
 10
5.400000
 20
40.200000
 30
0.000000
  8
29
 62
7
  6
CONTINUOUS
  0
SEQEND
  0
SOLID
  8
29
 62
254
  6
CONTINUOUS
 10
9.100000
 20
40.200000
 11
9.100000
 21
41.500000
 12
6.900000
 22
40.200000
 13
6.900000
 23
41.500000
  0
POLYLINE
  8
29
 62
7
  6
CONTINUOUS
 70
1
 66
1
  0
VERTEX
 10
9.100000
 20
40.200000
 30
0.000000
  8
29
 62
7
  6
CONTINUOUS
  0
VERTEX
 10
9.100000
 20
41.500000
 30
0.000000
  8
29
 62
7
  6
CONTINUOUS
  0
VERTEX
 10
6.900000
 20
41.500000
 30
0.000000
  8
29
 62
7
  6
CONTINUOUS
  0
VERTEX
 10
6.900000
 20
40.200000
 30
0.000000
  8
29
 62
7
  6
CONTINUOUS
  0
SEQEND
  0
SOLID
  8
29
 62
254
  6
CONTINUOUS
 10
29.200000
 20
40.200000
 11
29.200000
 21
41.500000
 12
27.000000
 22
40.200000
 13
27.000000
 23
41.500000
  0
POLYLINE
  8
29
 62
7
  6
CONTINUOUS
 70
1
 66
1
  0
VERTEX
 10
29.200000
 20
40.200000
 30
0.000000
  8
29
 62
7
  6
CONTINUOUS
  0
VERTEX
 10
29.200000
 20
41.500000
 30
0.000000
  8
29
 62
7
  6
CONTINUOUS
  0
VERTEX
 10
27.000000
 20
41.500000
 30
0.000000
  8
29
 62
7
  6
CONTINUOUS
  0
VERTEX
 10
27.000000
 20
40.200000
 30
0.000000
  8
29
 62
7
  6
CONTINUOUS
  0
SEQEND
  0
POLYLINE
  8
29
 62
7
  6
CONTINUOUS
 70
1
 66
1
  0
VERTEX
 10
28.600000
 20
41.500000
  8
29
 62
7
  6
CONTINUOUS
  0
VERTEX
 10
30.200000
 20
41.500000
  8
29
 62
7
  6
CONTINUOUS
  0
VERTEX
 10
30.200000
 20
40.200000
  8
29
 62
7
  6
CONTINUOUS
  0
VERTEX
 10
28.600000
 20
40.200000
  8
29
 62
7
  6
CONTINUOUS
  0
VERTEX
 10
28.600000
 20
40.400000
  8
29
 62
7
  6
CONTINUOUS
  0
VERTEX
 10
30.000000
 20
40.400000
  8
29
 62
7
  6
CONTINUOUS
  0
VERTEX
 10
30.000000
 20
41.300000
  8
29
 62
7
  6
CONTINUOUS
  0
VERTEX
 10
28.600000
 20
41.300000
  8
29
 62
7
  6
CONTINUOUS
  0
SEQEND
  0
POLYLINE
  8
29
 62
7
  6
CONTINUOUS
 70
1
 66
1
  0
VERTEX
 10
29.600000
 20
41.700000
  8
29
 62
7
  6
CONTINUOUS
  0
VERTEX
 10
31.200000
 20
41.700000
  8
29
 62
7
  6
CONTINUOUS
  0
VERTEX
 10
31.200000
 20
40.000000
  8
29
 62
7
  6
CONTINUOUS
  0
VERTEX
 10
29.600000
 20
40.000000
  8
29
 62
7
  6
CONTINUOUS
  0
VERTEX
 10
29.600000
 20
40.200000
  8
29
 62
7
  6
CONTINUOUS
  0
VERTEX
 10
31.000000
 20
40.200000
  8
29
 62
7
  6
CONTINUOUS
  0
VERTEX
 10
31.000000
 20
41.500000
  8
29
 62
7
  6
CONTINUOUS
  0
VERTEX
 10
29.600000
 20
41.500000
  8
29
 62
7
  6
CONTINUOUS
  0
SEQEND
  0
POLYLINE
  8
29
 62
7
  6
CONTINUOUS
 70
1
 66
1
  0
VERTEX
 10
6.800000
 20
41.700000
  8
29
 62
7
  6
CONTINUOUS
  0
VERTEX
 10
5.200000
 20
41.700000
  8
29
 62
7
  6
CONTINUOUS
  0
VERTEX
 10
5.200000
 20
40.000000
  8
29
 62
7
  6
CONTINUOUS
  0
VERTEX
 10
6.800000
 20
40.000000
  8
29
 62
7
  6
CONTINUOUS
  0
VERTEX
 10
6.800000
 20
40.200000
  8
29
 62
7
  6
CONTINUOUS
  0
VERTEX
 10
5.400000
 20
40.200000
  8
29
 62
7
  6
CONTINUOUS
  0
VERTEX
 10
5.400000
 20
41.500000
  8
29
 62
7
  6
CONTINUOUS
  0
VERTEX
 10
6.800000
 20
41.500000
  8
29
 62
7
  6
CONTINUOUS
  0
SEQEND
  0
POLYLINE
  8
29
 62
7
  6
CONTINUOUS
 70
1
 66
1
  0
VERTEX
 10
26.600000
 20
41.500000
  8
29
 62
7
  6
CONTINUOUS
  0
VERTEX
 10
28.200000
 20
41.500000
  8
29
 62
7
  6
CONTINUOUS
  0
VERTEX
 10
28.200000
 20
40.200000
  8
29
 62
7
  6
CONTINUOUS
  0
VERTEX
 10
26.600000
 20
40.200000
  8
29
 62
7
  6
CONTINUOUS
  0
VERTEX
 10
26.600000
 20
40.400000
  8
29
 62
7
  6
CONTINUOUS
  0
VERTEX
 10
28.000000
 20
40.400000
  8
29
 62
7
  6
CONTINUOUS
  0
VERTEX
 10
28.000000
 20
41.300000
  8
29
 62
7
  6
CONTINUOUS
  0
VERTEX
 10
26.600000
 20
41.300000
  8
29
 62
7
  6
CONTINUOUS
  0
SEQEND
  0
POLYLINE
  8
29
 62
7
  6
CONTINUOUS
 70
1
 66
1
  0
VERTEX
 10
7.800000
 20
41.500000
  8
29
 62
7
  6
CONTINUOUS
  0
VERTEX
 10
6.200000
 20
41.500000
  8
29
 62
7
  6
CONTINUOUS
  0
VERTEX
 10
6.200000
 20
40.200000
  8
29
 62
7
  6
CONTINUOUS
  0
VERTEX
 10
7.800000
 20
40.200000
  8
29
 62
7
  6
CONTINUOUS
  0
VERTEX
 10
7.800000
 20
40.400000
  8
29
 62
7
  6
CONTINUOUS
  0
VERTEX
 10
6.400000
 20
40.400000
  8
29
 62
7
  6
CONTINUOUS
  0
VERTEX
 10
6.400000
 20
41.300000
  8
29
 62
7
  6
CONTINUOUS
  0
VERTEX
 10
7.800000
 20
41.300000
  8
29
 62
7
  6
CONTINUOUS
  0
SEQEND
  0
POLYLINE
  8
29
 62
7
  6
CONTINUOUS
 70
1
 66
1
  0
VERTEX
 10
9.800000
 20
41.500000
  8
29
 62
7
  6
CONTINUOUS
  0
VERTEX
 10
8.200000
 20
41.500000
  8
29
 62
7
  6
CONTINUOUS
  0
VERTEX
 10
8.200000
 20
40.200000
  8
29
 62
7
  6
CONTINUOUS
  0
VERTEX
 10
9.800000
 20
40.200000
  8
29
 62
7
  6
CONTINUOUS
  0
VERTEX
 10
9.800000
 20
40.400000
  8
29
 62
7
  6
CONTINUOUS
  0
VERTEX
 10
8.400000
 20
40.400000
  8
29
 62
7
  6
CONTINUOUS
  0
VERTEX
 10
8.400000
 20
41.300000
  8
29
 62
7
  6
CONTINUOUS
  0
VERTEX
 10
9.800000
 20
41.300000
  8
29
 62
7
  6
CONTINUOUS
  0
SEQEND
  0
SOLID
  8
29
 62
254
  6
CONTINUOUS
 10
30.400000
 20
49.400000
 11
30.400000
 21
58.000000
 12
6.000000
 22
49.400000
 13
6.000000
 23
58.000000
  0
POLYLINE
  8
29
 62
7
  6
CONTINUOUS
 70
1
 66
1
  0
VERTEX
 10
30.400000
 20
49.400000
 30
0.000000
  8
29
 62
7
  6
CONTINUOUS
  0
VERTEX
 10
30.400000
 20
58.000000
 30
0.000000
  8
29
 62
7
  6
CONTINUOUS
  0
VERTEX
 10
6.000000
 20
58.000000
 30
0.000000
  8
29
 62
7
  6
CONTINUOUS
  0
VERTEX
 10
6.000000
 20
49.400000
 30
0.000000
  8
29
 62
7
  6
CONTINUOUS
  0
SEQEND
  0
CIRCLE
  8
29
 62
7
  6
CONTINUOUS
 10
6.700000
 20
53.700000
 30
0.0
 40
0.400000
  0
CIRCLE
  8
29
 62
7
  6
CONTINUOUS
 10
29.700000
 20
53.700000
 30
0.0
 40
0.400000
  0
CIRCLE
  8
29
 62
7
  6
CONTINUOUS
 10
6.700000
 20
56.300000
 30
0.0
 40
0.400000
  0
CIRCLE
  8
29
 62
7
  6
CONTINUOUS
 10
6.700000
 20
51.200000
 30
0.0
 40
0.400000
  0
CIRCLE
  8
29
 62
7
  6
CONTINUOUS
 10
29.700000
 20
56.200000
 30
0.0
 40
0.400000
  0
CIRCLE
  8
29
 62
7
  6
CONTINUOUS
 10
29.700000
 20
51.200000
 30
0.0
 40
0.400000
  0
POLYLINE
  8
29
 62
7
  6
L000000000000000000
 70
1
 66
1
  0
VERTEX
 10
28.500000
 20
55.400000
 30
0.000000
  8
29
 62
7
  6
L000000000000000000
  0
VERTEX
 10
28.500000
 20
56.700000
 30
0.000000
  8
29
 62
7
  6
L000000000000000000
  0
VERTEX
 10
27.200000
 20
56.700000
 30
0.000000
  8
29
 62
7
  6
L000000000000000000
  0
VERTEX
 10
27.200000
 20
55.400000
 30
0.000000
  8
29
 62
7
  6
L000000000000000000
  0
SEQEND
  0
POLYLINE
  8
29
 62
7
  6
L000000000000000000
 70
1
 66
1
  0
VERTEX
 10
28.500000
 20
52.700000
 30
0.000000
  8
29
 62
7
  6
L000000000000000000
  0
VERTEX
 10
28.500000
 20
54.000000
 30
0.000000
  8
29
 62
7
  6
L000000000000000000
  0
VERTEX
 10
27.200000
 20
54.000000
 30
0.000000
  8
29
 62
7
  6
L000000000000000000
  0
VERTEX
 10
27.200000
 20
52.700000
 30
0.000000
  8
29
 62
7
  6
L000000000000000000
  0
SEQEND
  0
POLYLINE
  8
29
 62
7
  6
L000000000000000000
 70
1
 66
1
  0
VERTEX
 10
28.500000
 20
50.400000
 30
0.000000
  8
29
 62
7
  6
L000000000000000000
  0
VERTEX
 10
28.500000
 20
51.700000
 30
0.000000
  8
29
 62
7
  6
L000000000000000000
  0
VERTEX
 10
27.200000
 20
51.700000
 30
0.000000
  8
29
 62
7
  6
L000000000000000000
  0
VERTEX
 10
27.200000
 20
50.400000
 30
0.000000
  8
29
 62
7
  6
L000000000000000000
  0
SEQEND
  0
POLYLINE
  8
29
 62
7
  6
L000000000000000000
 70
1
 66
1
  0
VERTEX
 10
8.900000
 20
55.400000
 30
0.000000
  8
29
 62
7
  6
L000000000000000000
  0
VERTEX
 10
8.900000
 20
56.700000
 30
0.000000
  8
29
 62
7
  6
L000000000000000000
  0
VERTEX
 10
7.600000
 20
56.700000
 30
0.000000
  8
29
 62
7
  6
L000000000000000000
  0
VERTEX
 10
7.600000
 20
55.400000
 30
0.000000
  8
29
 62
7
  6
L000000000000000000
  0
SEQEND
  0
POLYLINE
  8
29
 62
7
  6
L000000000000000000
 70
1
 66
1
  0
VERTEX
 10
8.900000
 20
52.700000
 30
0.000000
  8
29
 62
7
  6
L000000000000000000
  0
VERTEX
 10
8.900000
 20
54.000000
 30
0.000000
  8
29
 62
7
  6
L000000000000000000
  0
VERTEX
 10
7.600000
 20
54.000000
 30
0.000000
  8
29
 62
7
  6
L000000000000000000
  0
VERTEX
 10
7.600000
 20
52.700000
 30
0.000000
  8
29
 62
7
  6
L000000000000000000
  0
SEQEND
  0
POLYLINE
  8
29
 62
7
  6
L000000000000000000
 70
1
 66
1
  0
VERTEX
 10
8.900000
 20
50.400000
 30
0.000000
  8
29
 62
7
  6
L000000000000000000
  0
VERTEX
 10
8.900000
 20
51.700000
 30
0.000000
  8
29
 62
7
  6
L000000000000000000
  0
VERTEX
 10
7.600000
 20
51.700000
 30
0.000000
  8
29
 62
7
  6
L000000000000000000
  0
VERTEX
 10
7.600000
 20
50.400000
 30
0.000000
  8
29
 62
7
  6
L000000000000000000
  0
SEQEND
  0
POLYLINE
  8
29
 62
7
  6
L000000000000000000
 70
1
 66
1
  0
VERTEX
 10
18.700000
 20
56.100000
 30
0.000000
  8
29
 62
7
  6
L000000000000000000
  0
VERTEX
 10
18.700000
 20
57.400000
 30
0.000000
  8
29
 62
7
  6
L000000000000000000
  0
VERTEX
 10
17.400000
 20
57.400000
 30
0.000000
  8
29
 62
7
  6
L000000000000000000
  0
VERTEX
 10
17.400000
 20
56.100000
 30
0.000000
  8
29
 62
7
  6
L000000000000000000
  0
SEQEND
  0
POLYLINE
  8
29
 62
7
  6
L000000000000000000
 70
1
 66
1
  0
VERTEX
 10
24.500000
 20
56.100000
 30
0.000000
  8
29
 62
7
  6
L000000000000000000
  0
VERTEX
 10
24.500000
 20
57.400000
 30
0.000000
  8
29
 62
7
  6
L000000000000000000
  0
VERTEX
 10
23.200000
 20
57.400000
 30
0.000000
  8
29
 62
7
  6
L000000000000000000
  0
VERTEX
 10
23.200000
 20
56.100000
 30
0.000000
  8
29
 62
7
  6
L000000000000000000
  0
SEQEND
  0
POLYLINE
  8
29
 62
7
  6
L000000000000000000
 70
1
 66
1
  0
VERTEX
 10
12.900000
 20
56.100000
 30
0.000000
  8
29
 62
7
  6
L000000000000000000
  0
VERTEX
 10
12.900000
 20
57.400000
 30
0.000000
  8
29
 62
7
  6
L000000000000000000
  0
VERTEX
 10
11.600000
 20
57.400000
 30
0.000000
  8
29
 62
7
  6
L000000000000000000
  0
VERTEX
 10
11.600000
 20
56.100000
 30
0.000000
  8
29
 62
7
  6
L000000000000000000
  0
SEQEND
  0
POLYLINE
  8
29
 62
7
  6
CONTINUOUS
 70
1
 66
1
  0
VERTEX
 10
31.200000
 20
52.500000
 30
0.000000
  8
29
 62
7
  6
CONTINUOUS
  0
VERTEX
 10
31.200000
 20
54.200000
 30
0.000000
  8
29
 62
7
  6
CONTINUOUS
  0
VERTEX
 10
5.200000
 20
54.200000
 30
0.000000
  8
29
 62
7
  6
CONTINUOUS
  0
VERTEX
 10
5.200000
 20
52.500000
 30
0.000000
  8
29
 62
7
  6
CONTINUOUS
  0
SEQEND
  0
POLYLINE
  8
29
 62
7
  6
CONTINUOUS
 70
1
 66
1
  0
VERTEX
 10
31.000000
 20
52.700000
 30
0.000000
  8
29
 62
7
  6
CONTINUOUS
  0
VERTEX
 10
31.000000
 20
54.000000
 30
0.000000
  8
29
 62
7
  6
CONTINUOUS
  0
VERTEX
 10
5.400000
 20
54.000000
 30
0.000000
  8
29
 62
7
  6
CONTINUOUS
  0
VERTEX
 10
5.400000
 20
52.700000
 30
0.000000
  8
29
 62
7
  6
CONTINUOUS
  0
SEQEND
  0
SOLID
  8
29
 62
254
  6
CONTINUOUS
 10
9.100000
 20
52.700000
 11
9.100000
 21
54.000000
 12
6.900000
 22
52.700000
 13
6.900000
 23
54.000000
  0
POLYLINE
  8
29
 62
7
  6
CONTINUOUS
 70
1
 66
1
  0
VERTEX
 10
9.100000
 20
52.700000
 30
0.000000
  8
29
 62
7
  6
CONTINUOUS
  0
VERTEX
 10
9.100000
 20
54.000000
 30
0.000000
  8
29
 62
7
  6
CONTINUOUS
  0
VERTEX
 10
6.900000
 20
54.000000
 30
0.000000
  8
29
 62
7
  6
CONTINUOUS
  0
VERTEX
 10
6.900000
 20
52.700000
 30
0.000000
  8
29
 62
7
  6
CONTINUOUS
  0
SEQEND
  0
SOLID
  8
29
 62
254
  6
CONTINUOUS
 10
29.200000
 20
52.700000
 11
29.200000
 21
54.000000
 12
27.000000
 22
52.700000
 13
27.000000
 23
54.000000
  0
POLYLINE
  8
29
 62
7
  6
CONTINUOUS
 70
1
 66
1
  0
VERTEX
 10
29.200000
 20
52.700000
 30
0.000000
  8
29
 62
7
  6
CONTINUOUS
  0
VERTEX
 10
29.200000
 20
54.000000
 30
0.000000
  8
29
 62
7
  6
CONTINUOUS
  0
VERTEX
 10
27.000000
 20
54.000000
 30
0.000000
  8
29
 62
7
  6
CONTINUOUS
  0
VERTEX
 10
27.000000
 20
52.700000
 30
0.000000
  8
29
 62
7
  6
CONTINUOUS
  0
SEQEND
  0
POLYLINE
  8
29
 62
7
  6
CONTINUOUS
 70
1
 66
1
  0
VERTEX
 10
28.600000
 20
54.000000
  8
29
 62
7
  6
CONTINUOUS
  0
VERTEX
 10
30.200000
 20
54.000000
  8
29
 62
7
  6
CONTINUOUS
  0
VERTEX
 10
30.200000
 20
52.700000
  8
29
 62
7
  6
CONTINUOUS
  0
VERTEX
 10
28.600000
 20
52.700000
  8
29
 62
7
  6
CONTINUOUS
  0
VERTEX
 10
28.600000
 20
52.900000
  8
29
 62
7
  6
CONTINUOUS
  0
VERTEX
 10
30.000000
 20
52.900000
  8
29
 62
7
  6
CONTINUOUS
  0
VERTEX
 10
30.000000
 20
53.800000
  8
29
 62
7
  6
CONTINUOUS
  0
VERTEX
 10
28.600000
 20
53.800000
  8
29
 62
7
  6
CONTINUOUS
  0
SEQEND
  0
POLYLINE
  8
29
 62
7
  6
CONTINUOUS
 70
1
 66
1
  0
VERTEX
 10
29.600000
 20
54.200000
  8
29
 62
7
  6
CONTINUOUS
  0
VERTEX
 10
31.200000
 20
54.200000
  8
29
 62
7
  6
CONTINUOUS
  0
VERTEX
 10
31.200000
 20
52.500000
  8
29
 62
7
  6
CONTINUOUS
  0
VERTEX
 10
29.600000
 20
52.500000
  8
29
 62
7
  6
CONTINUOUS
  0
VERTEX
 10
29.600000
 20
52.700000
  8
29
 62
7
  6
CONTINUOUS
  0
VERTEX
 10
31.000000
 20
52.700000
  8
29
 62
7
  6
CONTINUOUS
  0
VERTEX
 10
31.000000
 20
54.000000
  8
29
 62
7
  6
CONTINUOUS
  0
VERTEX
 10
29.600000
 20
54.000000
  8
29
 62
7
  6
CONTINUOUS
  0
SEQEND
  0
POLYLINE
  8
29
 62
7
  6
CONTINUOUS
 70
1
 66
1
  0
VERTEX
 10
6.800000
 20
54.200000
  8
29
 62
7
  6
CONTINUOUS
  0
VERTEX
 10
5.200000
 20
54.200000
  8
29
 62
7
  6
CONTINUOUS
  0
VERTEX
 10
5.200000
 20
52.500000
  8
29
 62
7
  6
CONTINUOUS
  0
VERTEX
 10
6.800000
 20
52.500000
  8
29
 62
7
  6
CONTINUOUS
  0
VERTEX
 10
6.800000
 20
52.700000
  8
29
 62
7
  6
CONTINUOUS
  0
VERTEX
 10
5.400000
 20
52.700000
  8
29
 62
7
  6
CONTINUOUS
  0
VERTEX
 10
5.400000
 20
54.000000
  8
29
 62
7
  6
CONTINUOUS
  0
VERTEX
 10
6.800000
 20
54.000000
  8
29
 62
7
  6
CONTINUOUS
  0
SEQEND
  0
POLYLINE
  8
29
 62
7
  6
CONTINUOUS
 70
1
 66
1
  0
VERTEX
 10
26.600000
 20
54.000000
  8
29
 62
7
  6
CONTINUOUS
  0
VERTEX
 10
28.200000
 20
54.000000
  8
29
 62
7
  6
CONTINUOUS
  0
VERTEX
 10
28.200000
 20
52.700000
  8
29
 62
7
  6
CONTINUOUS
  0
VERTEX
 10
26.600000
 20
52.700000
  8
29
 62
7
  6
CONTINUOUS
  0
VERTEX
 10
26.600000
 20
52.900000
  8
29
 62
7
  6
CONTINUOUS
  0
VERTEX
 10
28.000000
 20
52.900000
  8
29
 62
7
  6
CONTINUOUS
  0
VERTEX
 10
28.000000
 20
53.800000
  8
29
 62
7
  6
CONTINUOUS
  0
VERTEX
 10
26.600000
 20
53.800000
  8
29
 62
7
  6
CONTINUOUS
  0
SEQEND
  0
POLYLINE
  8
29
 62
7
  6
CONTINUOUS
 70
1
 66
1
  0
VERTEX
 10
7.800000
 20
54.000000
  8
29
 62
7
  6
CONTINUOUS
  0
VERTEX
 10
6.200000
 20
54.000000
  8
29
 62
7
  6
CONTINUOUS
  0
VERTEX
 10
6.200000
 20
52.700000
  8
29
 62
7
  6
CONTINUOUS
  0
VERTEX
 10
7.800000
 20
52.700000
  8
29
 62
7
  6
CONTINUOUS
  0
VERTEX
 10
7.800000
 20
52.900000
  8
29
 62
7
  6
CONTINUOUS
  0
VERTEX
 10
6.400000
 20
52.900000
  8
29
 62
7
  6
CONTINUOUS
  0
VERTEX
 10
6.400000
 20
53.800000
  8
29
 62
7
  6
CONTINUOUS
  0
VERTEX
 10
7.800000
 20
53.800000
  8
29
 62
7
  6
CONTINUOUS
  0
SEQEND
  0
POLYLINE
  8
29
 62
7
  6
CONTINUOUS
 70
1
 66
1
  0
VERTEX
 10
9.800000
 20
54.000000
  8
29
 62
7
  6
CONTINUOUS
  0
VERTEX
 10
8.200000
 20
54.000000
  8
29
 62
7
  6
CONTINUOUS
  0
VERTEX
 10
8.200000
 20
52.700000
  8
29
 62
7
  6
CONTINUOUS
  0
VERTEX
 10
9.800000
 20
52.700000
  8
29
 62
7
  6
CONTINUOUS
  0
VERTEX
 10
9.800000
 20
52.900000
  8
29
 62
7
  6
CONTINUOUS
  0
VERTEX
 10
8.400000
 20
52.900000
  8
29
 62
7
  6
CONTINUOUS
  0
VERTEX
 10
8.400000
 20
53.800000
  8
29
 62
7
  6
CONTINUOUS
  0
VERTEX
 10
9.800000
 20
53.800000
  8
29
 62
7
  6
CONTINUOUS
  0
SEQEND
  0
SOLID
  8
29
 62
254
  6
CONTINUOUS
 10
30.400000
 20
24.400000
 11
30.400000
 21
33.000000
 12
6.000000
 22
24.400000
 13
6.000000
 23
33.000000
  0
POLYLINE
  8
29
 62
7
  6
CONTINUOUS
 70
1
 66
1
  0
VERTEX
 10
30.400000
 20
24.400000
 30
0.000000
  8
29
 62
7
  6
CONTINUOUS
  0
VERTEX
 10
30.400000
 20
33.000000
 30
0.000000
  8
29
 62
7
  6
CONTINUOUS
  0
VERTEX
 10
6.000000
 20
33.000000
 30
0.000000
  8
29
 62
7
  6
CONTINUOUS
  0
VERTEX
 10
6.000000
 20
24.400000
 30
0.000000
  8
29
 62
7
  6
CONTINUOUS
  0
SEQEND
  0
CIRCLE
  8
29
 62
7
  6
CONTINUOUS
 10
6.700000
 20
28.600000
 30
0.0
 40
0.400000
  0
CIRCLE
  8
29
 62
7
  6
CONTINUOUS
 10
29.700000
 20
28.600000
 30
0.0
 40
0.400000
  0
CIRCLE
  8
29
 62
7
  6
CONTINUOUS
 10
6.700000
 20
31.100000
 30
0.0
 40
0.400000
  0
CIRCLE
  8
29
 62
7
  6
CONTINUOUS
 10
6.700000
 20
26.100000
 30
0.0
 40
0.400000
  0
CIRCLE
  8
29
 62
7
  6
CONTINUOUS
 10
29.700000
 20
31.100000
 30
0.0
 40
0.400000
  0
CIRCLE
  8
29
 62
7
  6
CONTINUOUS
 10
29.700000
 20
26.100000
 30
0.0
 40
0.400000
  0
POLYLINE
  8
29
 62
7
  6
L000000000000000000
 70
1
 66
1
  0
VERTEX
 10
8.900000
 20
30.400000
 30
0.000000
  8
29
 62
7
  6
L000000000000000000
  0
VERTEX
 10
8.900000
 20
31.700000
 30
0.000000
  8
29
 62
7
  6
L000000000000000000
  0
VERTEX
 10
7.600000
 20
31.700000
 30
0.000000
  8
29
 62
7
  6
L000000000000000000
  0
VERTEX
 10
7.600000
 20
30.400000
 30
0.000000
  8
29
 62
7
  6
L000000000000000000
  0
SEQEND
  0
POLYLINE
  8
29
 62
7
  6
L000000000000000000
 70
1
 66
1
  0
VERTEX
 10
12.900000
 20
31.100000
 30
0.000000
  8
29
 62
7
  6
L000000000000000000
  0
VERTEX
 10
12.900000
 20
32.400000
 30
0.000000
  8
29
 62
7
  6
L000000000000000000
  0
VERTEX
 10
11.600000
 20
32.400000
 30
0.000000
  8
29
 62
7
  6
L000000000000000000
  0
VERTEX
 10
11.600000
 20
31.100000
 30
0.000000
  8
29
 62
7
  6
L000000000000000000
  0
SEQEND
  0
POLYLINE
  8
29
 62
7
  6
L000000000000000000
 70
1
 66
1
  0
VERTEX
 10
18.700000
 20
31.100000
 30
0.000000
  8
29
 62
7
  6
L000000000000000000
  0
VERTEX
 10
18.700000
 20
32.400000
 30
0.000000
  8
29
 62
7
  6
L000000000000000000
  0
VERTEX
 10
17.400000
 20
32.400000
 30
0.000000
  8
29
 62
7
  6
L000000000000000000
  0
VERTEX
 10
17.400000
 20
31.100000
 30
0.000000
  8
29
 62
7
  6
L000000000000000000
  0
SEQEND
  0
POLYLINE
  8
29
 62
7
  6
L000000000000000000
 70
1
 66
1
  0
VERTEX
 10
24.500000
 20
31.100000
 30
0.000000
  8
29
 62
7
  6
L000000000000000000
  0
VERTEX
 10
24.500000
 20
32.400000
 30
0.000000
  8
29
 62
7
  6
L000000000000000000
  0
VERTEX
 10
23.200000
 20
32.400000
 30
0.000000
  8
29
 62
7
  6
L000000000000000000
  0
VERTEX
 10
23.200000
 20
31.100000
 30
0.000000
  8
29
 62
7
  6
L000000000000000000
  0
SEQEND
  0
POLYLINE
  8
29
 62
7
  6
L000000000000000000
 70
1
 66
1
  0
VERTEX
 10
28.500000
 20
30.400000
 30
0.000000
  8
29
 62
7
  6
L000000000000000000
  0
VERTEX
 10
28.500000
 20
31.700000
 30
0.000000
  8
29
 62
7
  6
L000000000000000000
  0
VERTEX
 10
27.200000
 20
31.700000
 30
0.000000
  8
29
 62
7
  6
L000000000000000000
  0
VERTEX
 10
27.200000
 20
30.400000
 30
0.000000
  8
29
 62
7
  6
L000000000000000000
  0
SEQEND
  0
POLYLINE
  8
29
 62
7
  6
L000000000000000000
 70
1
 66
1
  0
VERTEX
 10
28.500000
 20
27.700000
 30
0.000000
  8
29
 62
7
  6
L000000000000000000
  0
VERTEX
 10
28.500000
 20
29.000000
 30
0.000000
  8
29
 62
7
  6
L000000000000000000
  0
VERTEX
 10
27.200000
 20
29.000000
 30
0.000000
  8
29
 62
7
  6
L000000000000000000
  0
VERTEX
 10
27.200000
 20
27.700000
 30
0.000000
  8
29
 62
7
  6
L000000000000000000
  0
SEQEND
  0
POLYLINE
  8
29
 62
7
  6
L000000000000000000
 70
1
 66
1
  0
VERTEX
 10
28.500000
 20
25.400000
 30
0.000000
  8
29
 62
7
  6
L000000000000000000
  0
VERTEX
 10
28.500000
 20
26.700000
 30
0.000000
  8
29
 62
7
  6
L000000000000000000
  0
VERTEX
 10
27.200000
 20
26.700000
 30
0.000000
  8
29
 62
7
  6
L000000000000000000
  0
VERTEX
 10
27.200000
 20
25.400000
 30
0.000000
  8
29
 62
7
  6
L000000000000000000
  0
SEQEND
  0
POLYLINE
  8
29
 62
7
  6
L000000000000000000
 70
1
 66
1
  0
VERTEX
 10
8.900000
 20
27.700000
 30
0.000000
  8
29
 62
7
  6
L000000000000000000
  0
VERTEX
 10
8.900000
 20
29.000000
 30
0.000000
  8
29
 62
7
  6
L000000000000000000
  0
VERTEX
 10
7.600000
 20
29.000000
 30
0.000000
  8
29
 62
7
  6
L000000000000000000
  0
VERTEX
 10
7.600000
 20
27.700000
 30
0.000000
  8
29
 62
7
  6
L000000000000000000
  0
SEQEND
  0
POLYLINE
  8
29
 62
7
  6
L000000000000000000
 70
1
 66
1
  0
VERTEX
 10
8.900000
 20
25.400000
 30
0.000000
  8
29
 62
7
  6
L000000000000000000
  0
VERTEX
 10
8.900000
 20
26.700000
 30
0.000000
  8
29
 62
7
  6
L000000000000000000
  0
VERTEX
 10
7.600000
 20
26.700000
 30
0.000000
  8
29
 62
7
  6
L000000000000000000
  0
VERTEX
 10
7.600000
 20
25.400000
 30
0.000000
  8
29
 62
7
  6
L000000000000000000
  0
SEQEND
  0
SOLID
  8
29
 62
255
  6
CONTINUOUS
 10
31.000000
 20
64.400000
 11
31.000000
 21
68.000000
 12
5.400000
 22
64.400000
 13
5.400000
 23
68.000000
  0
POLYLINE
  8
29
 62
7
  6
CONTINUOUS
 70
1
 66
1
  0
VERTEX
 10
31.000000
 20
64.400000
 30
0.000000
  8
29
 62
7
  6
CONTINUOUS
  0
VERTEX
 10
31.000000
 20
68.000000
 30
0.000000
  8
29
 62
7
  6
CONTINUOUS
  0
VERTEX
 10
5.400000
 20
68.000000
 30
0.000000
  8
29
 62
7
  6
CONTINUOUS
  0
VERTEX
 10
5.400000
 20
64.400000
 30
0.000000
  8
29
 62
7
  6
CONTINUOUS
  0
SEQEND
  0
POLYLINE
  8
29
 62
7
  6
CONTINUOUS
 70
1
 66
1
  0
VERTEX
 10
31.000000
 20
64.900000
 30
0.000000
  8
29
 62
7
  6
CONTINUOUS
  0
VERTEX
 10
31.000000
 20
67.500000
 30
0.000000
  8
29
 62
7
  6
CONTINUOUS
  0
VERTEX
 10
5.400000
 20
67.500000
 30
0.000000
  8
29
 62
7
  6
CONTINUOUS
  0
VERTEX
 10
5.400000
 20
64.900000
 30
0.000000
  8
29
 62
7
  6
CONTINUOUS
  0
SEQEND
  0
POLYLINE
  8
29
 62
7
  6
L000000000000000000
 70
1
 66
1
  0
VERTEX
 10
31.000000
 20
64.800000
 30
0.000000
  8
29
 62
7
  6
L000000000000000000
  0
VERTEX
 10
31.000000
 20
67.600000
 30
0.000000
  8
29
 62
7
  6
L000000000000000000
  0
VERTEX
 10
5.400000
 20
67.600000
 30
0.000000
  8
29
 62
7
  6
L000000000000000000
  0
VERTEX
 10
5.400000
 20
64.800000
 30
0.000000
  8
29
 62
7
  6
L000000000000000000
  0
SEQEND
  0
CIRCLE
  8
29
 62
7
  6
CONTINUOUS
 10
6.700000
 20
66.200000
 30
0.0
 40
0.400000
  0
CIRCLE
  8
29
 62
7
  6
CONTINUOUS
 10
29.700000
 20
66.200000
 30
0.0
 40
0.400000
  0
POLYLINE
  8
29
 62
7
  6
CONTINUOUS
 70
1
 66
1
  0
VERTEX
 10
31.000000
 20
64.400000
 30
0.000000
  8
29
 62
7
  6
CONTINUOUS
  0
VERTEX
 10
31.000000
 20
68.000000
 30
0.000000
  8
29
 62
7
  6
CONTINUOUS
  0
VERTEX
 10
5.400000
 20
68.000000
 30
0.000000
  8
29
 62
7
  6
CONTINUOUS
  0
VERTEX
 10
5.400000
 20
64.400000
 30
0.000000
  8
29
 62
7
  6
CONTINUOUS
  0
SEQEND
  0
CIRCLE
  8
29
 62
7
  6
CONTINUOUS
 10
6.700000
 20
66.200000
 30
0.0
 40
0.400000
  0
CIRCLE
  8
29
 62
7
  6
CONTINUOUS
 10
29.700000
 20
66.200000
 30
0.0
 40
0.400000
  0
POLYLINE
  8
29
 62
7
  6
CONTINUOUS
 70
1
 66
1
  0
VERTEX
 10
7.300000
 20
70.400000
  8
29
 62
7
  6
CONTINUOUS
  0
VERTEX
 10
29.100000
 20
70.400000
  8
29
 62
7
  6
CONTINUOUS
  0
VERTEX
 10
29.100000
 20
68.300000
  8
29
 62
7
  6
CONTINUOUS
  0
VERTEX
 10
30.700000
 20
68.300000
  8
29
 62
7
  6
CONTINUOUS
  0
VERTEX
 10
30.700000
 20
66.200000
  8
29
 62
7
  6
CONTINUOUS
  0
VERTEX
 10
5.700000
 20
66.200000
  8
29
 62
7
  6
CONTINUOUS
  0
VERTEX
 10
5.700000
 20
68.300000
  8
29
 62
7
  6
CONTINUOUS
  0
VERTEX
 10
7.300000
 20
68.300000
  8
29
 62
7
  6
CONTINUOUS
  0
SEQEND
  0
CIRCLE
  8
29
 62
7
  6
CONTINUOUS
 10
6.700000
 20
67.400000
 30
0.0
 40
0.400000
  0
CIRCLE
  8
29
 62
7
  6
CONTINUOUS
 10
29.700000
 20
67.400000
 30
0.0
 40
0.400000
  0
POLYLINE
  8
29
 62
7
  6
CONTINUOUS
 70
1
 66
1
  0
VERTEX
 10
9.000000
 20
66.600000
 30
0.000000
  8
29
 62
7
  6
CONTINUOUS
  0
VERTEX
 10
9.000000
 20
68.000000
 30
0.000000
  8
29
 62
7
  6
CONTINUOUS
  0
VERTEX
 10
7.600000
 20
68.000000
 30
0.000000
  8
29
 62
7
  6
CONTINUOUS
  0
VERTEX
 10
7.600000
 20
66.600000
 30
0.000000
  8
29
 62
7
  6
CONTINUOUS
  0
SEQEND
  0
POLYLINE
  8
29
 62
7
  6
CONTINUOUS
 70
1
 66
1
  0
VERTEX
 10
10.800000
 20
66.600000
 30
0.000000
  8
29
 62
7
  6
CONTINUOUS
  0
VERTEX
 10
10.800000
 20
68.000000
 30
0.000000
  8
29
 62
7
  6
CONTINUOUS
  0
VERTEX
 10
9.400000
 20
68.000000
 30
0.000000
  8
29
 62
7
  6
CONTINUOUS
  0
VERTEX
 10
9.400000
 20
66.600000
 30
0.000000
  8
29
 62
7
  6
CONTINUOUS
  0
SEQEND
  0
POLYLINE
  8
29
 62
7
  6
CONTINUOUS
 70
1
 66
1
  0
VERTEX
 10
14.400000
 20
66.600000
 30
0.000000
  8
29
 62
7
  6
CONTINUOUS
  0
VERTEX
 10
14.400000
 20
68.000000
 30
0.000000
  8
29
 62
7
  6
CONTINUOUS
  0
VERTEX
 10
13.000000
 20
68.000000
 30
0.000000
  8
29
 62
7
  6
CONTINUOUS
  0
VERTEX
 10
13.000000
 20
66.600000
 30
0.000000
  8
29
 62
7
  6
CONTINUOUS
  0
SEQEND
  0
POLYLINE
  8
29
 62
7
  6
CONTINUOUS
 70
1
 66
1
  0
VERTEX
 10
12.600000
 20
66.600000
 30
0.000000
  8
29
 62
7
  6
CONTINUOUS
  0
VERTEX
 10
12.600000
 20
68.000000
 30
0.000000
  8
29
 62
7
  6
CONTINUOUS
  0
VERTEX
 10
11.200000
 20
68.000000
 30
0.000000
  8
29
 62
7
  6
CONTINUOUS
  0
VERTEX
 10
11.200000
 20
66.600000
 30
0.000000
  8
29
 62
7
  6
CONTINUOUS
  0
SEQEND
  0
POLYLINE
  8
29
 62
7
  6
CONTINUOUS
 70
1
 66
1
  0
VERTEX
 10
16.200000
 20
66.600000
 30
0.000000
  8
29
 62
7
  6
CONTINUOUS
  0
VERTEX
 10
16.200000
 20
68.000000
 30
0.000000
  8
29
 62
7
  6
CONTINUOUS
  0
VERTEX
 10
14.800000
 20
68.000000
 30
0.000000
  8
29
 62
7
  6
CONTINUOUS
  0
VERTEX
 10
14.800000
 20
66.600000
 30
0.000000
  8
29
 62
7
  6
CONTINUOUS
  0
SEQEND
  0
POLYLINE
  8
29
 62
7
  6
CONTINUOUS
 70
1
 66
1
  0
VERTEX
 10
18.000000
 20
66.600000
 30
0.000000
  8
29
 62
7
  6
CONTINUOUS
  0
VERTEX
 10
18.000000
 20
68.000000
 30
0.000000
  8
29
 62
7
  6
CONTINUOUS
  0
VERTEX
 10
16.600000
 20
68.000000
 30
0.000000
  8
29
 62
7
  6
CONTINUOUS
  0
VERTEX
 10
16.600000
 20
66.600000
 30
0.000000
  8
29
 62
7
  6
CONTINUOUS
  0
SEQEND
  0
POLYLINE
  8
29
 62
7
  6
CONTINUOUS
 70
1
 66
1
  0
VERTEX
 10
19.800000
 20
66.600000
 30
0.000000
  8
29
 62
7
  6
CONTINUOUS
  0
VERTEX
 10
19.800000
 20
68.000000
 30
0.000000
  8
29
 62
7
  6
CONTINUOUS
  0
VERTEX
 10
18.400000
 20
68.000000
 30
0.000000
  8
29
 62
7
  6
CONTINUOUS
  0
VERTEX
 10
18.400000
 20
66.600000
 30
0.000000
  8
29
 62
7
  6
CONTINUOUS
  0
SEQEND
  0
POLYLINE
  8
29
 62
7
  6
CONTINUOUS
 70
1
 66
1
  0
VERTEX
 10
21.600000
 20
66.600000
 30
0.000000
  8
29
 62
7
  6
CONTINUOUS
  0
VERTEX
 10
21.600000
 20
68.000000
 30
0.000000
  8
29
 62
7
  6
CONTINUOUS
  0
VERTEX
 10
20.200000
 20
68.000000
 30
0.000000
  8
29
 62
7
  6
CONTINUOUS
  0
VERTEX
 10
20.200000
 20
66.600000
 30
0.000000
  8
29
 62
7
  6
CONTINUOUS
  0
SEQEND
  0
POLYLINE
  8
29
 62
7
  6
CONTINUOUS
 70
1
 66
1
  0
VERTEX
 10
23.400000
 20
66.600000
 30
0.000000
  8
29
 62
7
  6
CONTINUOUS
  0
VERTEX
 10
23.400000
 20
68.000000
 30
0.000000
  8
29
 62
7
  6
CONTINUOUS
  0
VERTEX
 10
22.000000
 20
68.000000
 30
0.000000
  8
29
 62
7
  6
CONTINUOUS
  0
VERTEX
 10
22.000000
 20
66.600000
 30
0.000000
  8
29
 62
7
  6
CONTINUOUS
  0
SEQEND
  0
POLYLINE
  8
29
 62
7
  6
CONTINUOUS
 70
1
 66
1
  0
VERTEX
 10
25.200000
 20
66.600000
 30
0.000000
  8
29
 62
7
  6
CONTINUOUS
  0
VERTEX
 10
25.200000
 20
68.000000
 30
0.000000
  8
29
 62
7
  6
CONTINUOUS
  0
VERTEX
 10
23.800000
 20
68.000000
 30
0.000000
  8
29
 62
7
  6
CONTINUOUS
  0
VERTEX
 10
23.800000
 20
66.600000
 30
0.000000
  8
29
 62
7
  6
CONTINUOUS
  0
SEQEND
  0
POLYLINE
  8
29
 62
7
  6
CONTINUOUS
 70
1
 66
1
  0
VERTEX
 10
27.000000
 20
66.600000
 30
0.000000
  8
29
 62
7
  6
CONTINUOUS
  0
VERTEX
 10
27.000000
 20
68.000000
 30
0.000000
  8
29
 62
7
  6
CONTINUOUS
  0
VERTEX
 10
25.600000
 20
68.000000
 30
0.000000
  8
29
 62
7
  6
CONTINUOUS
  0
VERTEX
 10
25.600000
 20
66.600000
 30
0.000000
  8
29
 62
7
  6
CONTINUOUS
  0
SEQEND
  0
POLYLINE
  8
29
 62
7
  6
CONTINUOUS
 70
1
 66
1
  0
VERTEX
 10
28.800000
 20
66.600000
 30
0.000000
  8
29
 62
7
  6
CONTINUOUS
  0
VERTEX
 10
28.800000
 20
68.000000
 30
0.000000
  8
29
 62
7
  6
CONTINUOUS
  0
VERTEX
 10
27.400000
 20
68.000000
 30
0.000000
  8
29
 62
7
  6
CONTINUOUS
  0
VERTEX
 10
27.400000
 20
66.600000
 30
0.000000
  8
29
 62
7
  6
CONTINUOUS
  0
SEQEND
  0
POLYLINE
  8
29
 62
7
  6
CONTINUOUS
 70
0
 66
1
  0
VERTEX
 10
7.100000
 20
68.300000
  8
29
 62
7
  6
CONTINUOUS
  0
VERTEX
 10
29.300000
 20
68.300000
  8
29
 62
7
  6
CONTINUOUS
  0
SEQEND
  0
POLYLINE
  8
29
 62
7
  6
L000000000000000000
 70
0
 66
1
  0
VERTEX
 10
7.300000
 20
68.500000
  8
29
 62
7
  6
L000000000000000000
  0
VERTEX
 10
29.100000
 20
68.500000
  8
29
 62
7
  6
L000000000000000000
  0
SEQEND
  0
POLYLINE
  8
29
 62
7
  6
CONTINUOUS
 70
0
 66
1
  0
VERTEX
 10
7.300000
 20
68.400000
  8
29
 62
7
  6
CONTINUOUS
  0
VERTEX
 10
7.300000
 20
66.800000
  8
29
 62
7
  6
CONTINUOUS
  0
VERTEX
 10
5.700000
 20
66.800000
  8
29
 62
7
  6
CONTINUOUS
  0
SEQEND
  0
POLYLINE
  8
29
 62
7
  6
CONTINUOUS
 70
0
 66
1
  0
VERTEX
 10
29.100000
 20
68.300000
  8
29
 62
7
  6
CONTINUOUS
  0
VERTEX
 10
29.100000
 20
66.700000
  8
29
 62
7
  6
CONTINUOUS
  0
VERTEX
 10
30.700000
 20
66.700000
  8
29
 62
7
  6
CONTINUOUS
  0
SEQEND
  0
ENDBLK
  0
BLOCK
  8
2
  2
ze226_v
 70
 0
 10
0.0
 20
0.0
 30
0.0
  0
POLYLINE
  8
2
 62
7
  6
CONTINUOUS
 70
1
 66
1
  0
VERTEX
 10
0.000000
 20
5.200000
  8
2
 62
7
  6
CONTINUOUS
  0
VERTEX
 10
18.800000
 20
5.200000
  8
2
 62
7
  6
CONTINUOUS
  0
VERTEX
 10
19.200000
 20
4.700000
  8
2
 62
7
  6
CONTINUOUS
  0
VERTEX
 10
20.300000
 20
0.500000
  8
2
 62
7
  6
CONTINUOUS
  0
VERTEX
 10
20.300000
 20
0.200000
  8
2
 62
7
  6
CONTINUOUS
  0
VERTEX
 10
-1.500000
 20
0.200000
  8
2
 62
7
  6
CONTINUOUS
  0
VERTEX
 10
-1.500000
 20
0.500000
  8
2
 62
7
  6
CONTINUOUS
  0
VERTEX
 10
-0.400000
 20
4.700000
  8
2
 62
7
  6
CONTINUOUS
  0
SEQEND
  0
SOLID
  8
2
 62
255
  6
CONTINUOUS
 10
0.000000
 20
4.900000
 11
0.000000
 21
0.000000
 12
18.800000
 22
4.900000
 13
18.800000
 23
0.000000
  0
POLYLINE
  8
2
 62
7
  6
CONTINUOUS
 70
1
 66
1
  0
VERTEX
 10
0.000000
 20
4.900000
 30
0.000000
  8
2
 62
7
  6
CONTINUOUS
  0
VERTEX
 10
0.000000
 20
0.000000
 30
0.000000
  8
2
 62
7
  6
CONTINUOUS
  0
VERTEX
 10
18.800000
 20
0.000000
 30
0.000000
  8
2
 62
7
  6
CONTINUOUS
  0
VERTEX
 10
18.800000
 20
4.900000
 30
0.000000
  8
2
 62
7
  6
CONTINUOUS
  0
SEQEND
  0
SOLID
  8
2
 62
255
  6
CONTINUOUS
 10
-0.500000
 20
-1.200000
 11
-0.500000
 21
0.000000
 12
-1.500000
 22
-1.200000
 13
-1.500000
 23
0.000000
  0
POLYLINE
  8
2
 62
7
  6
CONTINUOUS
 70
1
 66
1
  0
VERTEX
 10
-0.500000
 20
-1.200000
 30
0.000000
  8
2
 62
7
  6
CONTINUOUS
  0
VERTEX
 10
-0.500000
 20
0.000000
 30
0.000000
  8
2
 62
7
  6
CONTINUOUS
  0
VERTEX
 10
-1.500000
 20
0.000000
 30
0.000000
  8
2
 62
7
  6
CONTINUOUS
  0
VERTEX
 10
-1.500000
 20
-1.200000
 30
0.000000
  8
2
 62
7
  6
CONTINUOUS
  0
SEQEND
  0
POLYLINE
  8
2
 62
7
  6
CONTINUOUS
 70
0
 66
1
  0
VERTEX
 10
-1.500000
 20
0.200000
  8
2
 62
7
  6
CONTINUOUS
  0
VERTEX
 10
20.200000
 20
0.200000
  8
2
 62
7
  6
CONTINUOUS
  0
SEQEND
  0
SOLID
  8
2
 62
255
  6
CONTINUOUS
 10
9.800000
 20
-0.900000
 11
9.800000
 21
0.000000
 12
9.000000
 22
-0.900000
 13
9.000000
 23
0.000000
  0
POLYLINE
  8
2
 62
7
  6
CONTINUOUS
 70
1
 66
1
  0
VERTEX
 10
9.800000
 20
-0.900000
 30
0.000000
  8
2
 62
7
  6
CONTINUOUS
  0
VERTEX
 10
9.800000
 20
0.000000
 30
0.000000
  8
2
 62
7
  6
CONTINUOUS
  0
VERTEX
 10
9.000000
 20
0.000000
 30
0.000000
  8
2
 62
7
  6
CONTINUOUS
  0
VERTEX
 10
9.000000
 20
-0.900000
 30
0.000000
  8
2
 62
7
  6
CONTINUOUS
  0
SEQEND
  0
SOLID
  8
2
 62
255
  6
CONTINUOUS
 10
2.000000
 20
-1.200000
 11
2.000000
 21
0.000000
 12
1.800000
 22
-1.200000
 13
1.800000
 23
0.000000
  0
POLYLINE
  8
2
 62
7
  6
CONTINUOUS
 70
1
 66
1
  0
VERTEX
 10
2.000000
 20
-1.200000
 30
0.000000
  8
2
 62
7
  6
CONTINUOUS
  0
VERTEX
 10
2.000000
 20
0.000000
 30
0.000000
  8
2
 62
7
  6
CONTINUOUS
  0
VERTEX
 10
1.800000
 20
0.000000
 30
0.000000
  8
2
 62
7
  6
CONTINUOUS
  0
VERTEX
 10
1.800000
 20
-1.200000
 30
0.000000
  8
2
 62
7
  6
CONTINUOUS
  0
SEQEND
  0
SOLID
  8
2
 62
255
  6
CONTINUOUS
 10
17.000000
 20
-1.200000
 11
17.000000
 21
0.000000
 12
16.800000
 22
-1.200000
 13
16.800000
 23
0.000000
  0
POLYLINE
  8
2
 62
7
  6
CONTINUOUS
 70
1
 66
1
  0
VERTEX
 10
17.000000
 20
-1.200000
 30
0.000000
  8
2
 62
7
  6
CONTINUOUS
  0
VERTEX
 10
17.000000
 20
0.000000
 30
0.000000
  8
2
 62
7
  6
CONTINUOUS
  0
VERTEX
 10
16.800000
 20
0.000000
 30
0.000000
  8
2
 62
7
  6
CONTINUOUS
  0
VERTEX
 10
16.800000
 20
-1.200000
 30
0.000000
  8
2
 62
7
  6
CONTINUOUS
  0
SEQEND
  0
POLYLINE
  8
2
 62
7
  6
CONTINUOUS
 70
0
 66
1
  0
VERTEX
 10
0.000000
 20
4.600000
  8
2
 62
7
  6
CONTINUOUS
  0
VERTEX
 10
18.800000
 20
4.600000
  8
2
 62
7
  6
CONTINUOUS
  0
SEQEND
  0
POLYLINE
  8
2
 62
7
  6
CONTINUOUS
 70
1
 66
1
  0
VERTEX
 10
18.400000
 20
0.200000
 30
0.000000
  8
2
 62
7
  6
CONTINUOUS
  0
VERTEX
 10
18.400000
 20
4.900000
 30
0.000000
  8
2
 62
7
  6
CONTINUOUS
  0
VERTEX
 10
0.400000
 20
4.900000
 30
0.000000
  8
2
 62
7
  6
CONTINUOUS
  0
VERTEX
 10
0.400000
 20
0.200000
 30
0.000000
  8
2
 62
7
  6
CONTINUOUS
  0
SEQEND
  0
POLYLINE
  8
2
 62
7
  6
CONTINUOUS
 70
0
 66
1
  0
VERTEX
 10
4.400000
 20
4.900000
  8
2
 62
7
  6
CONTINUOUS
  0
VERTEX
 10
4.400000
 20
1.500000
  8
2
 62
7
  6
CONTINUOUS
  0
SEQEND
  0
POLYLINE
  8
2
 62
7
  6
CONTINUOUS
 70
0
 66
1
  0
VERTEX
 10
0.000000
 20
1.500000
  8
2
 62
7
  6
CONTINUOUS
  0
VERTEX
 10
18.800000
 20
1.500000
  8
2
 62
7
  6
CONTINUOUS
  0
SEQEND
  0
POLYLINE
  8
2
 62
7
  6
CONTINUOUS
 70
1
 66
1
  0
VERTEX
 10
20.300000
 20
0.000000
 30
0.000000
  8
2
 62
7
  6
CONTINUOUS
  0
VERTEX
 10
20.300000
 20
0.200000
 30
0.000000
  8
2
 62
7
  6
CONTINUOUS
  0
VERTEX
 10
-1.500000
 20
0.200000
 30
0.000000
  8
2
 62
7
  6
CONTINUOUS
  0
VERTEX
 10
-1.500000
 20
0.000000
 30
0.000000
  8
2
 62
7
  6
CONTINUOUS
  0
SEQEND
  0
SOLID
  8
2
 62
255
  6
CONTINUOUS
 10
20.300000
 20
-1.200000
 11
20.300000
 21
0.000000
 12
19.300000
 22
-1.200000
 13
19.300000
 23
0.000000
  0
POLYLINE
  8
2
 62
7
  6
CONTINUOUS
 70
1
 66
1
  0
VERTEX
 10
20.300000
 20
-1.200000
 30
0.000000
  8
2
 62
7
  6
CONTINUOUS
  0
VERTEX
 10
20.300000
 20
0.000000
 30
0.000000
  8
2
 62
7
  6
CONTINUOUS
  0
VERTEX
 10
19.300000
 20
0.000000
 30
0.000000
  8
2
 62
7
  6
CONTINUOUS
  0
VERTEX
 10
19.300000
 20
-1.200000
 30
0.000000
  8
2
 62
7
  6
CONTINUOUS
  0
SEQEND
  0
CIRCLE
  8
2
 62
7
  6
CONTINUOUS
 10
-0.500000
 20
2.100000
 30
0.0
 40
0.300000
  0
CIRCLE
  8
2
 62
7
  6
CONTINUOUS
 10
19.400000
 20
2.100000
 30
0.0
 40
0.300000
  0
POLYLINE
  8
2
 62
7
  6
CONTINUOUS
 70
1
 66
1
  0
VERTEX
 10
-0.200000
 20
0.600000
 30
0.000000
  8
2
 62
7
  6
CONTINUOUS
  0
VERTEX
 10
-0.200000
 20
1.000000
 30
0.000000
  8
2
 62
7
  6
CONTINUOUS
  0
VERTEX
 10
-1.100000
 20
1.000000
 30
0.000000
  8
2
 62
7
  6
CONTINUOUS
  0
VERTEX
 10
-1.100000
 20
0.600000
 30
0.000000
  8
2
 62
7
  6
CONTINUOUS
  0
SEQEND
  0
POLYLINE
  8
2
 62
7
  6
CONTINUOUS
 70
1
 66
1
  0
VERTEX
 10
19.900000
 20
0.600000
 30
0.000000
  8
2
 62
7
  6
CONTINUOUS
  0
VERTEX
 10
19.900000
 20
1.000000
 30
0.000000
  8
2
 62
7
  6
CONTINUOUS
  0
VERTEX
 10
19.000000
 20
1.000000
 30
0.000000
  8
2
 62
7
  6
CONTINUOUS
  0
VERTEX
 10
19.000000
 20
0.600000
 30
0.000000
  8
2
 62
7
  6
CONTINUOUS
  0
SEQEND
  0
ENDBLK
  0
BLOCK
  8
3
  2
bl650v
 70
 0
 10
0.0
 20
0.0
 30
0.0
  0
SOLID
  8
3
 62
255
  6
CONTINUOUS
 10
37.400000
 20
-1.300000
 11
37.400000
 21
86.000000
 12
-1.000000
 22
-1.300000
 13
-1.000000
 23
86.000000
  0
POLYLINE
  8
3
 62
7
  6
CONTINUOUS
 70
1
 66
1
  0
VERTEX
 10
37.400000
 20
-1.300000
 30
0.000000
  8
3
 62
7
  6
CONTINUOUS
  0
VERTEX
 10
37.400000
 20
86.000000
 30
0.000000
  8
3
 62
7
  6
CONTINUOUS
  0
VERTEX
 10
-1.000000
 20
86.000000
 30
0.000000
  8
3
 62
7
  6
CONTINUOUS
  0
VERTEX
 10
-1.000000
 20
-1.300000
 30
0.000000
  8
3
 62
7
  6
CONTINUOUS
  0
SEQEND
  0
POLYLINE
  8
3
 62
7
  6
CONTINUOUS
 70
1
 66
1
  0
VERTEX
 10
33.900000
 20
2.200000
 30
0.000000
  8
3
 62
7
  6
CONTINUOUS
  0
VERTEX
 10
33.900000
 20
82.500000
 30
0.000000
  8
3
 62
7
  6
CONTINUOUS
  0
VERTEX
 10
2.500000
 20
82.500000
 30
0.000000
  8
3
 62
7
  6
CONTINUOUS
  0
VERTEX
 10
2.500000
 20
2.200000
 30
0.000000
  8
3
 62
7
  6
CONTINUOUS
  0
SEQEND
  0
POLYLINE
  8
3
 62
7
  6
CONTINUOUS
 70
1
 66
1
  0
VERTEX
 10
37.400000
 20
-1.300000
 30
0.000000
  8
3
 62
7
  6
CONTINUOUS
  0
VERTEX
 10
37.400000
 20
86.000000
 30
0.000000
  8
3
 62
7
  6
CONTINUOUS
  0
VERTEX
 10
-1.000000
 20
86.000000
 30
0.000000
  8
3
 62
7
  6
CONTINUOUS
  0
VERTEX
 10
-1.000000
 20
-1.300000
 30
0.000000
  8
3
 62
7
  6
CONTINUOUS
  0
SEQEND
  0
SOLID
  8
3
 62
255
  6
CONTINUOUS
 10
-1.000000
 20
-1.300000
 11
37.400000
 21
-1.300000
 12
2.500000
 22
2.200000
 13
33.900000
 23
2.200000
  0
POLYLINE
  8
3
 62
7
  6
CONTINUOUS
 70
1
 66
1
  0
VERTEX
 10
-1.000000
 20
-1.300000
  8
3
 62
7
  6
CONTINUOUS
  0
VERTEX
 10
2.500000
 20
2.200000
  8
3
 62
7
  6
CONTINUOUS
  0
VERTEX
 10
33.900000
 20
2.200000
  8
3
 62
7
  6
CONTINUOUS
  0
VERTEX
 10
37.400000
 20
-1.300000
  8
3
 62
7
  6
CONTINUOUS
  0
SEQEND
  0
SOLID
  8
3
 62
255
  6
CONTINUOUS
 10
37.400000
 20
86.000000
 11
37.400000
 21
-1.300000
 12
33.900000
 22
82.500000
 13
33.900000
 23
2.200000
  0
POLYLINE
  8
3
 62
7
  6
CONTINUOUS
 70
1
 66
1
  0
VERTEX
 10
37.400000
 20
86.000000
  8
3
 62
7
  6
CONTINUOUS
  0
VERTEX
 10
33.900000
 20
82.500000
  8
3
 62
7
  6
CONTINUOUS
  0
VERTEX
 10
33.900000
 20
2.200000
  8
3
 62
7
  6
CONTINUOUS
  0
VERTEX
 10
37.400000
 20
-1.300000
  8
3
 62
7
  6
CONTINUOUS
  0
SEQEND
  0
SOLID
  8
3
 62
255
  6
CONTINUOUS
 10
-1.000000
 20
86.000000
 11
-1.000000
 21
-1.300000
 12
2.500000
 22
82.500000
 13
2.500000
 23
2.200000
  0
POLYLINE
  8
3
 62
7
  6
CONTINUOUS
 70
1
 66
1
  0
VERTEX
 10
-1.000000
 20
86.000000
  8
3
 62
7
  6
CONTINUOUS
  0
VERTEX
 10
2.500000
 20
82.500000
  8
3
 62
7
  6
CONTINUOUS
  0
VERTEX
 10
2.500000
 20
2.200000
  8
3
 62
7
  6
CONTINUOUS
  0
VERTEX
 10
-1.000000
 20
-1.300000
  8
3
 62
7
  6
CONTINUOUS
  0
SEQEND
  0
SOLID
  8
3
 62
255
  6
CONTINUOUS
 10
-1.000000
 20
86.000000
 11
37.400000
 21
86.000000
 12
2.500000
 22
82.500000
 13
33.900000
 23
82.500000
  0
POLYLINE
  8
3
 62
7
  6
CONTINUOUS
 70
1
 66
1
  0
VERTEX
 10
-1.000000
 20
86.000000
  8
3
 62
7
  6
CONTINUOUS
  0
VERTEX
 10
2.500000
 20
82.500000
  8
3
 62
7
  6
CONTINUOUS
  0
VERTEX
 10
33.900000
 20
82.500000
  8
3
 62
7
  6
CONTINUOUS
  0
VERTEX
 10
37.400000
 20
86.000000
  8
3
 62
7
  6
CONTINUOUS
  0
SEQEND
  0
SOLID
  8
3
 62
255
  6
CONTINUOUS
 10
33.800000
 20
2.300000
 11
33.800000
 21
82.400000
 12
2.600000
 22
2.300000
 13
2.600000
 23
82.400000
  0
POLYLINE
  8
3
 62
7
  6
CONTINUOUS
 70
1
 66
1
  0
VERTEX
 10
33.800000
 20
2.300000
 30
0.000000
  8
3
 62
7
  6
CONTINUOUS
  0
VERTEX
 10
33.800000
 20
82.400000
 30
0.000000
  8
3
 62
7
  6
CONTINUOUS
  0
VERTEX
 10
2.600000
 20
82.400000
 30
0.000000
  8
3
 62
7
  6
CONTINUOUS
  0
VERTEX
 10
2.600000
 20
2.300000
 30
0.000000
  8
3
 62
7
  6
CONTINUOUS
  0
SEQEND
  0
POLYLINE
  8
3
 62
7
  6
CONTINUOUS
 70
1
 66
1
  0
VERTEX
 10
33.700000
 20
2.400000
 30
0.000000
  8
3
 62
7
  6
CONTINUOUS
  0
VERTEX
 10
33.700000
 20
82.300000
 30
0.000000
  8
3
 62
7
  6
CONTINUOUS
  0
VERTEX
 10
2.700000
 20
82.300000
 30
0.000000
  8
3
 62
7
  6
CONTINUOUS
  0
VERTEX
 10
2.700000
 20
2.400000
 30
0.000000
  8
3
 62
7
  6
CONTINUOUS
  0
SEQEND
  0
POLYLINE
  8
3
 62
7
  6
CONTINUOUS
 70
1
 66
1
  0
VERTEX
 10
7.000000
 20
34.600000
 30
0.000000
  8
3
 62
7
  6
CONTINUOUS
  0
VERTEX
 10
7.000000
 20
40.200000
 30
0.000000
  8
3
 62
7
  6
CONTINUOUS
  0
VERTEX
 10
3.200000
 20
40.200000
 30
0.000000
  8
3
 62
7
  6
CONTINUOUS
  0
VERTEX
 10
3.200000
 20
34.600000
 30
0.000000
  8
3
 62
7
  6
CONTINUOUS
  0
SEQEND
  0
POLYLINE
  8
3
 62
7
  6
CONTINUOUS
 70
1
 66
1
  0
VERTEX
 10
25.700000
 20
12.900000
 30
0.000000
  8
3
 62
7
  6
CONTINUOUS
  0
VERTEX
 10
25.700000
 20
13.000000
 30
0.000000
  8
3
 62
7
  6
CONTINUOUS
  0
VERTEX
 10
23.700000
 20
13.000000
 30
0.000000
  8
3
 62
7
  6
CONTINUOUS
  0
VERTEX
 10
23.700000
 20
12.900000
 30
0.000000
  8
3
 62
7
  6
CONTINUOUS
  0
SEQEND
  0
POLYLINE
  8
3
 62
7
  6
CONTINUOUS
 70
1
 66
1
  0
VERTEX
 10
25.700000
 20
11.900000
 30
0.000000
  8
3
 62
7
  6
CONTINUOUS
  0
VERTEX
 10
25.700000
 20
12.000000
 30
0.000000
  8
3
 62
7
  6
CONTINUOUS
  0
VERTEX
 10
23.700000
 20
12.000000
 30
0.000000
  8
3
 62
7
  6
CONTINUOUS
  0
VERTEX
 10
23.700000
 20
11.900000
 30
0.000000
  8
3
 62
7
  6
CONTINUOUS
  0
SEQEND
  0
POLYLINE
  8
3
 62
7
  6
CONTINUOUS
 70
1
 66
1
  0
VERTEX
 10
25.700000
 20
11.400000
 30
0.000000
  8
3
 62
7
  6
CONTINUOUS
  0
VERTEX
 10
25.700000
 20
11.500000
 30
0.000000
  8
3
 62
7
  6
CONTINUOUS
  0
VERTEX
 10
23.700000
 20
11.500000
 30
0.000000
  8
3
 62
7
  6
CONTINUOUS
  0
VERTEX
 10
23.700000
 20
11.400000
 30
0.000000
  8
3
 62
7
  6
CONTINUOUS
  0
SEQEND
  0
POLYLINE
  8
3
 62
7
  6
CONTINUOUS
 70
1
 66
1
  0
VERTEX
 10
25.700000
 20
10.900000
 30
0.000000
  8
3
 62
7
  6
CONTINUOUS
  0
VERTEX
 10
25.700000
 20
11.000000
 30
0.000000
  8
3
 62
7
  6
CONTINUOUS
  0
VERTEX
 10
23.700000
 20
11.000000
 30
0.000000
  8
3
 62
7
  6
CONTINUOUS
  0
VERTEX
 10
23.700000
 20
10.900000
 30
0.000000
  8
3
 62
7
  6
CONTINUOUS
  0
SEQEND
  0
POLYLINE
  8
3
 62
7
  6
CONTINUOUS
 70
1
 66
1
  0
VERTEX
 10
25.700000
 20
10.400000
 30
0.000000
  8
3
 62
7
  6
CONTINUOUS
  0
VERTEX
 10
25.700000
 20
10.500000
 30
0.000000
  8
3
 62
7
  6
CONTINUOUS
  0
VERTEX
 10
23.700000
 20
10.500000
 30
0.000000
  8
3
 62
7
  6
CONTINUOUS
  0
VERTEX
 10
23.700000
 20
10.400000
 30
0.000000
  8
3
 62
7
  6
CONTINUOUS
  0
SEQEND
  0
POLYLINE
  8
3
 62
7
  6
CONTINUOUS
 70
1
 66
1
  0
VERTEX
 10
25.700000
 20
9.900000
 30
0.000000
  8
3
 62
7
  6
CONTINUOUS
  0
VERTEX
 10
25.700000
 20
10.000000
 30
0.000000
  8
3
 62
7
  6
CONTINUOUS
  0
VERTEX
 10
23.700000
 20
10.000000
 30
0.000000
  8
3
 62
7
  6
CONTINUOUS
  0
VERTEX
 10
23.700000
 20
9.900000
 30
0.000000
  8
3
 62
7
  6
CONTINUOUS
  0
SEQEND
  0
POLYLINE
  8
3
 62
7
  6
CONTINUOUS
 70
1
 66
1
  0
VERTEX
 10
25.700000
 20
12.400000
 30
0.000000
  8
3
 62
7
  6
CONTINUOUS
  0
VERTEX
 10
25.700000
 20
12.500000
 30
0.000000
  8
3
 62
7
  6
CONTINUOUS
  0
VERTEX
 10
23.700000
 20
12.500000
 30
0.000000
  8
3
 62
7
  6
CONTINUOUS
  0
VERTEX
 10
23.700000
 20
12.400000
 30
0.000000
  8
3
 62
7
  6
CONTINUOUS
  0
SEQEND
  0
POLYLINE
  8
3
 62
7
  6
CONTINUOUS
 70
1
 66
1
  0
VERTEX
 10
12.700000
 20
12.900000
 30
0.000000
  8
3
 62
7
  6
CONTINUOUS
  0
VERTEX
 10
12.700000
 20
13.000000
 30
0.000000
  8
3
 62
7
  6
CONTINUOUS
  0
VERTEX
 10
10.700000
 20
13.000000
 30
0.000000
  8
3
 62
7
  6
CONTINUOUS
  0
VERTEX
 10
10.700000
 20
12.900000
 30
0.000000
  8
3
 62
7
  6
CONTINUOUS
  0
SEQEND
  0
POLYLINE
  8
3
 62
7
  6
CONTINUOUS
 70
1
 66
1
  0
VERTEX
 10
12.700000
 20
10.400000
 30
0.000000
  8
3
 62
7
  6
CONTINUOUS
  0
VERTEX
 10
12.700000
 20
10.500000
 30
0.000000
  8
3
 62
7
  6
CONTINUOUS
  0
VERTEX
 10
10.700000
 20
10.500000
 30
0.000000
  8
3
 62
7
  6
CONTINUOUS
  0
VERTEX
 10
10.700000
 20
10.400000
 30
0.000000
  8
3
 62
7
  6
CONTINUOUS
  0
SEQEND
  0
POLYLINE
  8
3
 62
7
  6
CONTINUOUS
 70
1
 66
1
  0
VERTEX
 10
12.700000
 20
11.400000
 30
0.000000
  8
3
 62
7
  6
CONTINUOUS
  0
VERTEX
 10
12.700000
 20
11.500000
 30
0.000000
  8
3
 62
7
  6
CONTINUOUS
  0
VERTEX
 10
10.700000
 20
11.500000
 30
0.000000
  8
3
 62
7
  6
CONTINUOUS
  0
VERTEX
 10
10.700000
 20
11.400000
 30
0.000000
  8
3
 62
7
  6
CONTINUOUS
  0
SEQEND
  0
POLYLINE
  8
3
 62
7
  6
CONTINUOUS
 70
1
 66
1
  0
VERTEX
 10
12.700000
 20
11.900000
 30
0.000000
  8
3
 62
7
  6
CONTINUOUS
  0
VERTEX
 10
12.700000
 20
12.000000
 30
0.000000
  8
3
 62
7
  6
CONTINUOUS
  0
VERTEX
 10
10.700000
 20
12.000000
 30
0.000000
  8
3
 62
7
  6
CONTINUOUS
  0
VERTEX
 10
10.700000
 20
11.900000
 30
0.000000
  8
3
 62
7
  6
CONTINUOUS
  0
SEQEND
  0
POLYLINE
  8
3
 62
7
  6
CONTINUOUS
 70
1
 66
1
  0
VERTEX
 10
12.700000
 20
12.400000
 30
0.000000
  8
3
 62
7
  6
CONTINUOUS
  0
VERTEX
 10
12.700000
 20
12.500000
 30
0.000000
  8
3
 62
7
  6
CONTINUOUS
  0
VERTEX
 10
10.700000
 20
12.500000
 30
0.000000
  8
3
 62
7
  6
CONTINUOUS
  0
VERTEX
 10
10.700000
 20
12.400000
 30
0.000000
  8
3
 62
7
  6
CONTINUOUS
  0
SEQEND
  0
POLYLINE
  8
3
 62
7
  6
CONTINUOUS
 70
1
 66
1
  0
VERTEX
 10
12.700000
 20
9.900000
 30
0.000000
  8
3
 62
7
  6
CONTINUOUS
  0
VERTEX
 10
12.700000
 20
10.000000
 30
0.000000
  8
3
 62
7
  6
CONTINUOUS
  0
VERTEX
 10
10.700000
 20
10.000000
 30
0.000000
  8
3
 62
7
  6
CONTINUOUS
  0
VERTEX
 10
10.700000
 20
9.900000
 30
0.000000
  8
3
 62
7
  6
CONTINUOUS
  0
SEQEND
  0
POLYLINE
  8
3
 62
7
  6
CONTINUOUS
 70
1
 66
1
  0
VERTEX
 10
12.700000
 20
10.900000
 30
0.000000
  8
3
 62
7
  6
CONTINUOUS
  0
VERTEX
 10
12.700000
 20
11.000000
 30
0.000000
  8
3
 62
7
  6
CONTINUOUS
  0
VERTEX
 10
10.700000
 20
11.000000
 30
0.000000
  8
3
 62
7
  6
CONTINUOUS
  0
VERTEX
 10
10.700000
 20
10.900000
 30
0.000000
  8
3
 62
7
  6
CONTINUOUS
  0
SEQEND
  0
POLYLINE
  8
3
 62
7
  6
CONTINUOUS
 70
1
 66
1
  0
VERTEX
 10
15.300000
 20
12.900000
 30
0.000000
  8
3
 62
7
  6
CONTINUOUS
  0
VERTEX
 10
15.300000
 20
13.000000
 30
0.000000
  8
3
 62
7
  6
CONTINUOUS
  0
VERTEX
 10
13.300000
 20
13.000000
 30
0.000000
  8
3
 62
7
  6
CONTINUOUS
  0
VERTEX
 10
13.300000
 20
12.900000
 30
0.000000
  8
3
 62
7
  6
CONTINUOUS
  0
SEQEND
  0
POLYLINE
  8
3
 62
7
  6
CONTINUOUS
 70
1
 66
1
  0
VERTEX
 10
15.300000
 20
10.400000
 30
0.000000
  8
3
 62
7
  6
CONTINUOUS
  0
VERTEX
 10
15.300000
 20
10.500000
 30
0.000000
  8
3
 62
7
  6
CONTINUOUS
  0
VERTEX
 10
13.300000
 20
10.500000
 30
0.000000
  8
3
 62
7
  6
CONTINUOUS
  0
VERTEX
 10
13.300000
 20
10.400000
 30
0.000000
  8
3
 62
7
  6
CONTINUOUS
  0
SEQEND
  0
POLYLINE
  8
3
 62
7
  6
CONTINUOUS
 70
1
 66
1
  0
VERTEX
 10
15.300000
 20
11.400000
 30
0.000000
  8
3
 62
7
  6
CONTINUOUS
  0
VERTEX
 10
15.300000
 20
11.500000
 30
0.000000
  8
3
 62
7
  6
CONTINUOUS
  0
VERTEX
 10
13.300000
 20
11.500000
 30
0.000000
  8
3
 62
7
  6
CONTINUOUS
  0
VERTEX
 10
13.300000
 20
11.400000
 30
0.000000
  8
3
 62
7
  6
CONTINUOUS
  0
SEQEND
  0
POLYLINE
  8
3
 62
7
  6
CONTINUOUS
 70
1
 66
1
  0
VERTEX
 10
15.300000
 20
11.900000
 30
0.000000
  8
3
 62
7
  6
CONTINUOUS
  0
VERTEX
 10
15.300000
 20
12.000000
 30
0.000000
  8
3
 62
7
  6
CONTINUOUS
  0
VERTEX
 10
13.300000
 20
12.000000
 30
0.000000
  8
3
 62
7
  6
CONTINUOUS
  0
VERTEX
 10
13.300000
 20
11.900000
 30
0.000000
  8
3
 62
7
  6
CONTINUOUS
  0
SEQEND
  0
POLYLINE
  8
3
 62
7
  6
CONTINUOUS
 70
1
 66
1
  0
VERTEX
 10
15.300000
 20
12.400000
 30
0.000000
  8
3
 62
7
  6
CONTINUOUS
  0
VERTEX
 10
15.300000
 20
12.500000
 30
0.000000
  8
3
 62
7
  6
CONTINUOUS
  0
VERTEX
 10
13.300000
 20
12.500000
 30
0.000000
  8
3
 62
7
  6
CONTINUOUS
  0
VERTEX
 10
13.300000
 20
12.400000
 30
0.000000
  8
3
 62
7
  6
CONTINUOUS
  0
SEQEND
  0
POLYLINE
  8
3
 62
7
  6
CONTINUOUS
 70
1
 66
1
  0
VERTEX
 10
15.300000
 20
9.900000
 30
0.000000
  8
3
 62
7
  6
CONTINUOUS
  0
VERTEX
 10
15.300000
 20
10.000000
 30
0.000000
  8
3
 62
7
  6
CONTINUOUS
  0
VERTEX
 10
13.300000
 20
10.000000
 30
0.000000
  8
3
 62
7
  6
CONTINUOUS
  0
VERTEX
 10
13.300000
 20
9.900000
 30
0.000000
  8
3
 62
7
  6
CONTINUOUS
  0
SEQEND
  0
POLYLINE
  8
3
 62
7
  6
CONTINUOUS
 70
1
 66
1
  0
VERTEX
 10
15.300000
 20
10.900000
 30
0.000000
  8
3
 62
7
  6
CONTINUOUS
  0
VERTEX
 10
15.300000
 20
11.000000
 30
0.000000
  8
3
 62
7
  6
CONTINUOUS
  0
VERTEX
 10
13.300000
 20
11.000000
 30
0.000000
  8
3
 62
7
  6
CONTINUOUS
  0
VERTEX
 10
13.300000
 20
10.900000
 30
0.000000
  8
3
 62
7
  6
CONTINUOUS
  0
SEQEND
  0
POLYLINE
  8
3
 62
7
  6
CONTINUOUS
 70
1
 66
1
  0
VERTEX
 10
23.100000
 20
12.900000
 30
0.000000
  8
3
 62
7
  6
CONTINUOUS
  0
VERTEX
 10
23.100000
 20
13.000000
 30
0.000000
  8
3
 62
7
  6
CONTINUOUS
  0
VERTEX
 10
21.100000
 20
13.000000
 30
0.000000
  8
3
 62
7
  6
CONTINUOUS
  0
VERTEX
 10
21.100000
 20
12.900000
 30
0.000000
  8
3
 62
7
  6
CONTINUOUS
  0
SEQEND
  0
POLYLINE
  8
3
 62
7
  6
CONTINUOUS
 70
1
 66
1
  0
VERTEX
 10
23.100000
 20
10.400000
 30
0.000000
  8
3
 62
7
  6
CONTINUOUS
  0
VERTEX
 10
23.100000
 20
10.500000
 30
0.000000
  8
3
 62
7
  6
CONTINUOUS
  0
VERTEX
 10
21.100000
 20
10.500000
 30
0.000000
  8
3
 62
7
  6
CONTINUOUS
  0
VERTEX
 10
21.100000
 20
10.400000
 30
0.000000
  8
3
 62
7
  6
CONTINUOUS
  0
SEQEND
  0
POLYLINE
  8
3
 62
7
  6
CONTINUOUS
 70
1
 66
1
  0
VERTEX
 10
23.100000
 20
11.400000
 30
0.000000
  8
3
 62
7
  6
CONTINUOUS
  0
VERTEX
 10
23.100000
 20
11.500000
 30
0.000000
  8
3
 62
7
  6
CONTINUOUS
  0
VERTEX
 10
21.100000
 20
11.500000
 30
0.000000
  8
3
 62
7
  6
CONTINUOUS
  0
VERTEX
 10
21.100000
 20
11.400000
 30
0.000000
  8
3
 62
7
  6
CONTINUOUS
  0
SEQEND
  0
POLYLINE
  8
3
 62
7
  6
CONTINUOUS
 70
1
 66
1
  0
VERTEX
 10
23.100000
 20
11.900000
 30
0.000000
  8
3
 62
7
  6
CONTINUOUS
  0
VERTEX
 10
23.100000
 20
12.000000
 30
0.000000
  8
3
 62
7
  6
CONTINUOUS
  0
VERTEX
 10
21.100000
 20
12.000000
 30
0.000000
  8
3
 62
7
  6
CONTINUOUS
  0
VERTEX
 10
21.100000
 20
11.900000
 30
0.000000
  8
3
 62
7
  6
CONTINUOUS
  0
SEQEND
  0
POLYLINE
  8
3
 62
7
  6
CONTINUOUS
 70
1
 66
1
  0
VERTEX
 10
23.100000
 20
12.400000
 30
0.000000
  8
3
 62
7
  6
CONTINUOUS
  0
VERTEX
 10
23.100000
 20
12.500000
 30
0.000000
  8
3
 62
7
  6
CONTINUOUS
  0
VERTEX
 10
21.100000
 20
12.500000
 30
0.000000
  8
3
 62
7
  6
CONTINUOUS
  0
VERTEX
 10
21.100000
 20
12.400000
 30
0.000000
  8
3
 62
7
  6
CONTINUOUS
  0
SEQEND
  0
POLYLINE
  8
3
 62
7
  6
CONTINUOUS
 70
1
 66
1
  0
VERTEX
 10
23.100000
 20
9.900000
 30
0.000000
  8
3
 62
7
  6
CONTINUOUS
  0
VERTEX
 10
23.100000
 20
10.000000
 30
0.000000
  8
3
 62
7
  6
CONTINUOUS
  0
VERTEX
 10
21.100000
 20
10.000000
 30
0.000000
  8
3
 62
7
  6
CONTINUOUS
  0
VERTEX
 10
21.100000
 20
9.900000
 30
0.000000
  8
3
 62
7
  6
CONTINUOUS
  0
SEQEND
  0
POLYLINE
  8
3
 62
7
  6
CONTINUOUS
 70
1
 66
1
  0
VERTEX
 10
23.100000
 20
10.900000
 30
0.000000
  8
3
 62
7
  6
CONTINUOUS
  0
VERTEX
 10
23.100000
 20
11.000000
 30
0.000000
  8
3
 62
7
  6
CONTINUOUS
  0
VERTEX
 10
21.100000
 20
11.000000
 30
0.000000
  8
3
 62
7
  6
CONTINUOUS
  0
VERTEX
 10
21.100000
 20
10.900000
 30
0.000000
  8
3
 62
7
  6
CONTINUOUS
  0
SEQEND
  0
POLYLINE
  8
3
 62
7
  6
CONTINUOUS
 70
1
 66
1
  0
VERTEX
 10
17.900000
 20
12.900000
 30
0.000000
  8
3
 62
7
  6
CONTINUOUS
  0
VERTEX
 10
17.900000
 20
13.000000
 30
0.000000
  8
3
 62
7
  6
CONTINUOUS
  0
VERTEX
 10
15.900000
 20
13.000000
 30
0.000000
  8
3
 62
7
  6
CONTINUOUS
  0
VERTEX
 10
15.900000
 20
12.900000
 30
0.000000
  8
3
 62
7
  6
CONTINUOUS
  0
SEQEND
  0
POLYLINE
  8
3
 62
7
  6
CONTINUOUS
 70
1
 66
1
  0
VERTEX
 10
17.900000
 20
11.400000
 30
0.000000
  8
3
 62
7
  6
CONTINUOUS
  0
VERTEX
 10
17.900000
 20
11.500000
 30
0.000000
  8
3
 62
7
  6
CONTINUOUS
  0
VERTEX
 10
15.900000
 20
11.500000
 30
0.000000
  8
3
 62
7
  6
CONTINUOUS
  0
VERTEX
 10
15.900000
 20
11.400000
 30
0.000000
  8
3
 62
7
  6
CONTINUOUS
  0
SEQEND
  0
POLYLINE
  8
3
 62
7
  6
CONTINUOUS
 70
1
 66
1
  0
VERTEX
 10
17.900000
 20
11.900000
 30
0.000000
  8
3
 62
7
  6
CONTINUOUS
  0
VERTEX
 10
17.900000
 20
12.000000
 30
0.000000
  8
3
 62
7
  6
CONTINUOUS
  0
VERTEX
 10
15.900000
 20
12.000000
 30
0.000000
  8
3
 62
7
  6
CONTINUOUS
  0
VERTEX
 10
15.900000
 20
11.900000
 30
0.000000
  8
3
 62
7
  6
CONTINUOUS
  0
SEQEND
  0
POLYLINE
  8
3
 62
7
  6
CONTINUOUS
 70
1
 66
1
  0
VERTEX
 10
17.900000
 20
12.400000
 30
0.000000
  8
3
 62
7
  6
CONTINUOUS
  0
VERTEX
 10
17.900000
 20
12.500000
 30
0.000000
  8
3
 62
7
  6
CONTINUOUS
  0
VERTEX
 10
15.900000
 20
12.500000
 30
0.000000
  8
3
 62
7
  6
CONTINUOUS
  0
VERTEX
 10
15.900000
 20
12.400000
 30
0.000000
  8
3
 62
7
  6
CONTINUOUS
  0
SEQEND
  0
POLYLINE
  8
3
 62
7
  6
CONTINUOUS
 70
1
 66
1
  0
VERTEX
 10
17.900000
 20
10.900000
 30
0.000000
  8
3
 62
7
  6
CONTINUOUS
  0
VERTEX
 10
17.900000
 20
11.000000
 30
0.000000
  8
3
 62
7
  6
CONTINUOUS
  0
VERTEX
 10
15.900000
 20
11.000000
 30
0.000000
  8
3
 62
7
  6
CONTINUOUS
  0
VERTEX
 10
15.900000
 20
10.900000
 30
0.000000
  8
3
 62
7
  6
CONTINUOUS
  0
SEQEND
  0
POLYLINE
  8
3
 62
7
  6
CONTINUOUS
 70
1
 66
1
  0
VERTEX
 10
17.900000
 20
10.400000
 30
0.000000
  8
3
 62
7
  6
CONTINUOUS
  0
VERTEX
 10
17.900000
 20
10.500000
 30
0.000000
  8
3
 62
7
  6
CONTINUOUS
  0
VERTEX
 10
15.900000
 20
10.500000
 30
0.000000
  8
3
 62
7
  6
CONTINUOUS
  0
VERTEX
 10
15.900000
 20
10.400000
 30
0.000000
  8
3
 62
7
  6
CONTINUOUS
  0
SEQEND
  0
POLYLINE
  8
3
 62
7
  6
CONTINUOUS
 70
1
 66
1
  0
VERTEX
 10
17.900000
 20
9.900000
 30
0.000000
  8
3
 62
7
  6
CONTINUOUS
  0
VERTEX
 10
17.900000
 20
10.000000
 30
0.000000
  8
3
 62
7
  6
CONTINUOUS
  0
VERTEX
 10
15.900000
 20
10.000000
 30
0.000000
  8
3
 62
7
  6
CONTINUOUS
  0
VERTEX
 10
15.900000
 20
9.900000
 30
0.000000
  8
3
 62
7
  6
CONTINUOUS
  0
SEQEND
  0
POLYLINE
  8
3
 62
7
  6
CONTINUOUS
 70
1
 66
1
  0
VERTEX
 10
20.500000
 20
12.900000
 30
0.000000
  8
3
 62
7
  6
CONTINUOUS
  0
VERTEX
 10
20.500000
 20
13.000000
 30
0.000000
  8
3
 62
7
  6
CONTINUOUS
  0
VERTEX
 10
18.500000
 20
13.000000
 30
0.000000
  8
3
 62
7
  6
CONTINUOUS
  0
VERTEX
 10
18.500000
 20
12.900000
 30
0.000000
  8
3
 62
7
  6
CONTINUOUS
  0
SEQEND
  0
POLYLINE
  8
3
 62
7
  6
CONTINUOUS
 70
1
 66
1
  0
VERTEX
 10
20.500000
 20
12.400000
 30
0.000000
  8
3
 62
7
  6
CONTINUOUS
  0
VERTEX
 10
20.500000
 20
12.500000
 30
0.000000
  8
3
 62
7
  6
CONTINUOUS
  0
VERTEX
 10
18.500000
 20
12.500000
 30
0.000000
  8
3
 62
7
  6
CONTINUOUS
  0
VERTEX
 10
18.500000
 20
12.400000
 30
0.000000
  8
3
 62
7
  6
CONTINUOUS
  0
SEQEND
  0
POLYLINE
  8
3
 62
7
  6
CONTINUOUS
 70
1
 66
1
  0
VERTEX
 10
20.500000
 20
11.900000
 30
0.000000
  8
3
 62
7
  6
CONTINUOUS
  0
VERTEX
 10
20.500000
 20
12.000000
 30
0.000000
  8
3
 62
7
  6
CONTINUOUS
  0
VERTEX
 10
18.500000
 20
12.000000
 30
0.000000
  8
3
 62
7
  6
CONTINUOUS
  0
VERTEX
 10
18.500000
 20
11.900000
 30
0.000000
  8
3
 62
7
  6
CONTINUOUS
  0
SEQEND
  0
POLYLINE
  8
3
 62
7
  6
CONTINUOUS
 70
1
 66
1
  0
VERTEX
 10
20.500000
 20
11.400000
 30
0.000000
  8
3
 62
7
  6
CONTINUOUS
  0
VERTEX
 10
20.500000
 20
11.500000
 30
0.000000
  8
3
 62
7
  6
CONTINUOUS
  0
VERTEX
 10
18.500000
 20
11.500000
 30
0.000000
  8
3
 62
7
  6
CONTINUOUS
  0
VERTEX
 10
18.500000
 20
11.400000
 30
0.000000
  8
3
 62
7
  6
CONTINUOUS
  0
SEQEND
  0
POLYLINE
  8
3
 62
7
  6
CONTINUOUS
 70
1
 66
1
  0
VERTEX
 10
20.500000
 20
10.900000
 30
0.000000
  8
3
 62
7
  6
CONTINUOUS
  0
VERTEX
 10
20.500000
 20
11.000000
 30
0.000000
  8
3
 62
7
  6
CONTINUOUS
  0
VERTEX
 10
18.500000
 20
11.000000
 30
0.000000
  8
3
 62
7
  6
CONTINUOUS
  0
VERTEX
 10
18.500000
 20
10.900000
 30
0.000000
  8
3
 62
7
  6
CONTINUOUS
  0
SEQEND
  0
POLYLINE
  8
3
 62
7
  6
CONTINUOUS
 70
1
 66
1
  0
VERTEX
 10
20.500000
 20
10.400000
 30
0.000000
  8
3
 62
7
  6
CONTINUOUS
  0
VERTEX
 10
20.500000
 20
10.500000
 30
0.000000
  8
3
 62
7
  6
CONTINUOUS
  0
VERTEX
 10
18.500000
 20
10.500000
 30
0.000000
  8
3
 62
7
  6
CONTINUOUS
  0
VERTEX
 10
18.500000
 20
10.400000
 30
0.000000
  8
3
 62
7
  6
CONTINUOUS
  0
SEQEND
  0
POLYLINE
  8
3
 62
7
  6
CONTINUOUS
 70
1
 66
1
  0
VERTEX
 10
20.500000
 20
9.900000
 30
0.000000
  8
3
 62
7
  6
CONTINUOUS
  0
VERTEX
 10
20.500000
 20
10.000000
 30
0.000000
  8
3
 62
7
  6
CONTINUOUS
  0
VERTEX
 10
18.500000
 20
10.000000
 30
0.000000
  8
3
 62
7
  6
CONTINUOUS
  0
VERTEX
 10
18.500000
 20
9.900000
 30
0.000000
  8
3
 62
7
  6
CONTINUOUS
  0
SEQEND
  0
POLYLINE
  8
3
 62
7
  6
CONTINUOUS
 70
1
 66
1
  0
VERTEX
 10
25.700000
 20
74.700000
 30
0.000000
  8
3
 62
7
  6
CONTINUOUS
  0
VERTEX
 10
25.700000
 20
74.800000
 30
0.000000
  8
3
 62
7
  6
CONTINUOUS
  0
VERTEX
 10
23.700000
 20
74.800000
 30
0.000000
  8
3
 62
7
  6
CONTINUOUS
  0
VERTEX
 10
23.700000
 20
74.700000
 30
0.000000
  8
3
 62
7
  6
CONTINUOUS
  0
SEQEND
  0
POLYLINE
  8
3
 62
7
  6
CONTINUOUS
 70
1
 66
1
  0
VERTEX
 10
25.700000
 20
73.700000
 30
0.000000
  8
3
 62
7
  6
CONTINUOUS
  0
VERTEX
 10
25.700000
 20
73.800000
 30
0.000000
  8
3
 62
7
  6
CONTINUOUS
  0
VERTEX
 10
23.700000
 20
73.800000
 30
0.000000
  8
3
 62
7
  6
CONTINUOUS
  0
VERTEX
 10
23.700000
 20
73.700000
 30
0.000000
  8
3
 62
7
  6
CONTINUOUS
  0
SEQEND
  0
POLYLINE
  8
3
 62
7
  6
CONTINUOUS
 70
1
 66
1
  0
VERTEX
 10
25.700000
 20
73.200000
 30
0.000000
  8
3
 62
7
  6
CONTINUOUS
  0
VERTEX
 10
25.700000
 20
73.300000
 30
0.000000
  8
3
 62
7
  6
CONTINUOUS
  0
VERTEX
 10
23.700000
 20
73.300000
 30
0.000000
  8
3
 62
7
  6
CONTINUOUS
  0
VERTEX
 10
23.700000
 20
73.200000
 30
0.000000
  8
3
 62
7
  6
CONTINUOUS
  0
SEQEND
  0
POLYLINE
  8
3
 62
7
  6
CONTINUOUS
 70
1
 66
1
  0
VERTEX
 10
25.700000
 20
72.700000
 30
0.000000
  8
3
 62
7
  6
CONTINUOUS
  0
VERTEX
 10
25.700000
 20
72.800000
 30
0.000000
  8
3
 62
7
  6
CONTINUOUS
  0
VERTEX
 10
23.700000
 20
72.800000
 30
0.000000
  8
3
 62
7
  6
CONTINUOUS
  0
VERTEX
 10
23.700000
 20
72.700000
 30
0.000000
  8
3
 62
7
  6
CONTINUOUS
  0
SEQEND
  0
POLYLINE
  8
3
 62
7
  6
CONTINUOUS
 70
1
 66
1
  0
VERTEX
 10
25.700000
 20
72.200000
 30
0.000000
  8
3
 62
7
  6
CONTINUOUS
  0
VERTEX
 10
25.700000
 20
72.300000
 30
0.000000
  8
3
 62
7
  6
CONTINUOUS
  0
VERTEX
 10
23.700000
 20
72.300000
 30
0.000000
  8
3
 62
7
  6
CONTINUOUS
  0
VERTEX
 10
23.700000
 20
72.200000
 30
0.000000
  8
3
 62
7
  6
CONTINUOUS
  0
SEQEND
  0
POLYLINE
  8
3
 62
7
  6
CONTINUOUS
 70
1
 66
1
  0
VERTEX
 10
25.700000
 20
71.700000
 30
0.000000
  8
3
 62
7
  6
CONTINUOUS
  0
VERTEX
 10
25.700000
 20
71.800000
 30
0.000000
  8
3
 62
7
  6
CONTINUOUS
  0
VERTEX
 10
23.700000
 20
71.800000
 30
0.000000
  8
3
 62
7
  6
CONTINUOUS
  0
VERTEX
 10
23.700000
 20
71.700000
 30
0.000000
  8
3
 62
7
  6
CONTINUOUS
  0
SEQEND
  0
POLYLINE
  8
3
 62
7
  6
CONTINUOUS
 70
1
 66
1
  0
VERTEX
 10
25.700000
 20
74.200000
 30
0.000000
  8
3
 62
7
  6
CONTINUOUS
  0
VERTEX
 10
25.700000
 20
74.300000
 30
0.000000
  8
3
 62
7
  6
CONTINUOUS
  0
VERTEX
 10
23.700000
 20
74.300000
 30
0.000000
  8
3
 62
7
  6
CONTINUOUS
  0
VERTEX
 10
23.700000
 20
74.200000
 30
0.000000
  8
3
 62
7
  6
CONTINUOUS
  0
SEQEND
  0
POLYLINE
  8
3
 62
7
  6
CONTINUOUS
 70
1
 66
1
  0
VERTEX
 10
12.700000
 20
74.700000
 30
0.000000
  8
3
 62
7
  6
CONTINUOUS
  0
VERTEX
 10
12.700000
 20
74.800000
 30
0.000000
  8
3
 62
7
  6
CONTINUOUS
  0
VERTEX
 10
10.700000
 20
74.800000
 30
0.000000
  8
3
 62
7
  6
CONTINUOUS
  0
VERTEX
 10
10.700000
 20
74.700000
 30
0.000000
  8
3
 62
7
  6
CONTINUOUS
  0
SEQEND
  0
POLYLINE
  8
3
 62
7
  6
CONTINUOUS
 70
1
 66
1
  0
VERTEX
 10
12.700000
 20
72.200000
 30
0.000000
  8
3
 62
7
  6
CONTINUOUS
  0
VERTEX
 10
12.700000
 20
72.300000
 30
0.000000
  8
3
 62
7
  6
CONTINUOUS
  0
VERTEX
 10
10.700000
 20
72.300000
 30
0.000000
  8
3
 62
7
  6
CONTINUOUS
  0
VERTEX
 10
10.700000
 20
72.200000
 30
0.000000
  8
3
 62
7
  6
CONTINUOUS
  0
SEQEND
  0
POLYLINE
  8
3
 62
7
  6
CONTINUOUS
 70
1
 66
1
  0
VERTEX
 10
12.700000
 20
73.200000
 30
0.000000
  8
3
 62
7
  6
CONTINUOUS
  0
VERTEX
 10
12.700000
 20
73.300000
 30
0.000000
  8
3
 62
7
  6
CONTINUOUS
  0
VERTEX
 10
10.700000
 20
73.300000
 30
0.000000
  8
3
 62
7
  6
CONTINUOUS
  0
VERTEX
 10
10.700000
 20
73.200000
 30
0.000000
  8
3
 62
7
  6
CONTINUOUS
  0
SEQEND
  0
POLYLINE
  8
3
 62
7
  6
CONTINUOUS
 70
1
 66
1
  0
VERTEX
 10
12.700000
 20
73.700000
 30
0.000000
  8
3
 62
7
  6
CONTINUOUS
  0
VERTEX
 10
12.700000
 20
73.800000
 30
0.000000
  8
3
 62
7
  6
CONTINUOUS
  0
VERTEX
 10
10.700000
 20
73.800000
 30
0.000000
  8
3
 62
7
  6
CONTINUOUS
  0
VERTEX
 10
10.700000
 20
73.700000
 30
0.000000
  8
3
 62
7
  6
CONTINUOUS
  0
SEQEND
  0
POLYLINE
  8
3
 62
7
  6
CONTINUOUS
 70
1
 66
1
  0
VERTEX
 10
12.700000
 20
74.200000
 30
0.000000
  8
3
 62
7
  6
CONTINUOUS
  0
VERTEX
 10
12.700000
 20
74.300000
 30
0.000000
  8
3
 62
7
  6
CONTINUOUS
  0
VERTEX
 10
10.700000
 20
74.300000
 30
0.000000
  8
3
 62
7
  6
CONTINUOUS
  0
VERTEX
 10
10.700000
 20
74.200000
 30
0.000000
  8
3
 62
7
  6
CONTINUOUS
  0
SEQEND
  0
POLYLINE
  8
3
 62
7
  6
CONTINUOUS
 70
1
 66
1
  0
VERTEX
 10
12.700000
 20
71.700000
 30
0.000000
  8
3
 62
7
  6
CONTINUOUS
  0
VERTEX
 10
12.700000
 20
71.800000
 30
0.000000
  8
3
 62
7
  6
CONTINUOUS
  0
VERTEX
 10
10.700000
 20
71.800000
 30
0.000000
  8
3
 62
7
  6
CONTINUOUS
  0
VERTEX
 10
10.700000
 20
71.700000
 30
0.000000
  8
3
 62
7
  6
CONTINUOUS
  0
SEQEND
  0
POLYLINE
  8
3
 62
7
  6
CONTINUOUS
 70
1
 66
1
  0
VERTEX
 10
12.700000
 20
72.700000
 30
0.000000
  8
3
 62
7
  6
CONTINUOUS
  0
VERTEX
 10
12.700000
 20
72.800000
 30
0.000000
  8
3
 62
7
  6
CONTINUOUS
  0
VERTEX
 10
10.700000
 20
72.800000
 30
0.000000
  8
3
 62
7
  6
CONTINUOUS
  0
VERTEX
 10
10.700000
 20
72.700000
 30
0.000000
  8
3
 62
7
  6
CONTINUOUS
  0
SEQEND
  0
POLYLINE
  8
3
 62
7
  6
CONTINUOUS
 70
1
 66
1
  0
VERTEX
 10
15.300000
 20
74.700000
 30
0.000000
  8
3
 62
7
  6
CONTINUOUS
  0
VERTEX
 10
15.300000
 20
74.800000
 30
0.000000
  8
3
 62
7
  6
CONTINUOUS
  0
VERTEX
 10
13.300000
 20
74.800000
 30
0.000000
  8
3
 62
7
  6
CONTINUOUS
  0
VERTEX
 10
13.300000
 20
74.700000
 30
0.000000
  8
3
 62
7
  6
CONTINUOUS
  0
SEQEND
  0
POLYLINE
  8
3
 62
7
  6
CONTINUOUS
 70
1
 66
1
  0
VERTEX
 10
15.300000
 20
72.200000
 30
0.000000
  8
3
 62
7
  6
CONTINUOUS
  0
VERTEX
 10
15.300000
 20
72.300000
 30
0.000000
  8
3
 62
7
  6
CONTINUOUS
  0
VERTEX
 10
13.300000
 20
72.300000
 30
0.000000
  8
3
 62
7
  6
CONTINUOUS
  0
VERTEX
 10
13.300000
 20
72.200000
 30
0.000000
  8
3
 62
7
  6
CONTINUOUS
  0
SEQEND
  0
POLYLINE
  8
3
 62
7
  6
CONTINUOUS
 70
1
 66
1
  0
VERTEX
 10
15.300000
 20
73.200000
 30
0.000000
  8
3
 62
7
  6
CONTINUOUS
  0
VERTEX
 10
15.300000
 20
73.300000
 30
0.000000
  8
3
 62
7
  6
CONTINUOUS
  0
VERTEX
 10
13.300000
 20
73.300000
 30
0.000000
  8
3
 62
7
  6
CONTINUOUS
  0
VERTEX
 10
13.300000
 20
73.200000
 30
0.000000
  8
3
 62
7
  6
CONTINUOUS
  0
SEQEND
  0
POLYLINE
  8
3
 62
7
  6
CONTINUOUS
 70
1
 66
1
  0
VERTEX
 10
15.300000
 20
73.700000
 30
0.000000
  8
3
 62
7
  6
CONTINUOUS
  0
VERTEX
 10
15.300000
 20
73.800000
 30
0.000000
  8
3
 62
7
  6
CONTINUOUS
  0
VERTEX
 10
13.300000
 20
73.800000
 30
0.000000
  8
3
 62
7
  6
CONTINUOUS
  0
VERTEX
 10
13.300000
 20
73.700000
 30
0.000000
  8
3
 62
7
  6
CONTINUOUS
  0
SEQEND
  0
POLYLINE
  8
3
 62
7
  6
CONTINUOUS
 70
1
 66
1
  0
VERTEX
 10
15.300000
 20
74.200000
 30
0.000000
  8
3
 62
7
  6
CONTINUOUS
  0
VERTEX
 10
15.300000
 20
74.300000
 30
0.000000
  8
3
 62
7
  6
CONTINUOUS
  0
VERTEX
 10
13.300000
 20
74.300000
 30
0.000000
  8
3
 62
7
  6
CONTINUOUS
  0
VERTEX
 10
13.300000
 20
74.200000
 30
0.000000
  8
3
 62
7
  6
CONTINUOUS
  0
SEQEND
  0
POLYLINE
  8
3
 62
7
  6
CONTINUOUS
 70
1
 66
1
  0
VERTEX
 10
15.300000
 20
71.700000
 30
0.000000
  8
3
 62
7
  6
CONTINUOUS
  0
VERTEX
 10
15.300000
 20
71.800000
 30
0.000000
  8
3
 62
7
  6
CONTINUOUS
  0
VERTEX
 10
13.300000
 20
71.800000
 30
0.000000
  8
3
 62
7
  6
CONTINUOUS
  0
VERTEX
 10
13.300000
 20
71.700000
 30
0.000000
  8
3
 62
7
  6
CONTINUOUS
  0
SEQEND
  0
POLYLINE
  8
3
 62
7
  6
CONTINUOUS
 70
1
 66
1
  0
VERTEX
 10
15.300000
 20
72.700000
 30
0.000000
  8
3
 62
7
  6
CONTINUOUS
  0
VERTEX
 10
15.300000
 20
72.800000
 30
0.000000
  8
3
 62
7
  6
CONTINUOUS
  0
VERTEX
 10
13.300000
 20
72.800000
 30
0.000000
  8
3
 62
7
  6
CONTINUOUS
  0
VERTEX
 10
13.300000
 20
72.700000
 30
0.000000
  8
3
 62
7
  6
CONTINUOUS
  0
SEQEND
  0
POLYLINE
  8
3
 62
7
  6
CONTINUOUS
 70
1
 66
1
  0
VERTEX
 10
23.100000
 20
74.700000
 30
0.000000
  8
3
 62
7
  6
CONTINUOUS
  0
VERTEX
 10
23.100000
 20
74.800000
 30
0.000000
  8
3
 62
7
  6
CONTINUOUS
  0
VERTEX
 10
21.100000
 20
74.800000
 30
0.000000
  8
3
 62
7
  6
CONTINUOUS
  0
VERTEX
 10
21.100000
 20
74.700000
 30
0.000000
  8
3
 62
7
  6
CONTINUOUS
  0
SEQEND
  0
POLYLINE
  8
3
 62
7
  6
CONTINUOUS
 70
1
 66
1
  0
VERTEX
 10
23.100000
 20
72.200000
 30
0.000000
  8
3
 62
7
  6
CONTINUOUS
  0
VERTEX
 10
23.100000
 20
72.300000
 30
0.000000
  8
3
 62
7
  6
CONTINUOUS
  0
VERTEX
 10
21.100000
 20
72.300000
 30
0.000000
  8
3
 62
7
  6
CONTINUOUS
  0
VERTEX
 10
21.100000
 20
72.200000
 30
0.000000
  8
3
 62
7
  6
CONTINUOUS
  0
SEQEND
  0
POLYLINE
  8
3
 62
7
  6
CONTINUOUS
 70
1
 66
1
  0
VERTEX
 10
23.100000
 20
73.200000
 30
0.000000
  8
3
 62
7
  6
CONTINUOUS
  0
VERTEX
 10
23.100000
 20
73.300000
 30
0.000000
  8
3
 62
7
  6
CONTINUOUS
  0
VERTEX
 10
21.100000
 20
73.300000
 30
0.000000
  8
3
 62
7
  6
CONTINUOUS
  0
VERTEX
 10
21.100000
 20
73.200000
 30
0.000000
  8
3
 62
7
  6
CONTINUOUS
  0
SEQEND
  0
POLYLINE
  8
3
 62
7
  6
CONTINUOUS
 70
1
 66
1
  0
VERTEX
 10
23.100000
 20
73.700000
 30
0.000000
  8
3
 62
7
  6
CONTINUOUS
  0
VERTEX
 10
23.100000
 20
73.800000
 30
0.000000
  8
3
 62
7
  6
CONTINUOUS
  0
VERTEX
 10
21.100000
 20
73.800000
 30
0.000000
  8
3
 62
7
  6
CONTINUOUS
  0
VERTEX
 10
21.100000
 20
73.700000
 30
0.000000
  8
3
 62
7
  6
CONTINUOUS
  0
SEQEND
  0
POLYLINE
  8
3
 62
7
  6
CONTINUOUS
 70
1
 66
1
  0
VERTEX
 10
23.100000
 20
74.200000
 30
0.000000
  8
3
 62
7
  6
CONTINUOUS
  0
VERTEX
 10
23.100000
 20
74.300000
 30
0.000000
  8
3
 62
7
  6
CONTINUOUS
  0
VERTEX
 10
21.100000
 20
74.300000
 30
0.000000
  8
3
 62
7
  6
CONTINUOUS
  0
VERTEX
 10
21.100000
 20
74.200000
 30
0.000000
  8
3
 62
7
  6
CONTINUOUS
  0
SEQEND
  0
POLYLINE
  8
3
 62
7
  6
CONTINUOUS
 70
1
 66
1
  0
VERTEX
 10
23.100000
 20
71.700000
 30
0.000000
  8
3
 62
7
  6
CONTINUOUS
  0
VERTEX
 10
23.100000
 20
71.800000
 30
0.000000
  8
3
 62
7
  6
CONTINUOUS
  0
VERTEX
 10
21.100000
 20
71.800000
 30
0.000000
  8
3
 62
7
  6
CONTINUOUS
  0
VERTEX
 10
21.100000
 20
71.700000
 30
0.000000
  8
3
 62
7
  6
CONTINUOUS
  0
SEQEND
  0
POLYLINE
  8
3
 62
7
  6
CONTINUOUS
 70
1
 66
1
  0
VERTEX
 10
23.100000
 20
72.700000
 30
0.000000
  8
3
 62
7
  6
CONTINUOUS
  0
VERTEX
 10
23.100000
 20
72.800000
 30
0.000000
  8
3
 62
7
  6
CONTINUOUS
  0
VERTEX
 10
21.100000
 20
72.800000
 30
0.000000
  8
3
 62
7
  6
CONTINUOUS
  0
VERTEX
 10
21.100000
 20
72.700000
 30
0.000000
  8
3
 62
7
  6
CONTINUOUS
  0
SEQEND
  0
POLYLINE
  8
3
 62
7
  6
CONTINUOUS
 70
1
 66
1
  0
VERTEX
 10
17.900000
 20
74.700000
 30
0.000000
  8
3
 62
7
  6
CONTINUOUS
  0
VERTEX
 10
17.900000
 20
74.800000
 30
0.000000
  8
3
 62
7
  6
CONTINUOUS
  0
VERTEX
 10
15.900000
 20
74.800000
 30
0.000000
  8
3
 62
7
  6
CONTINUOUS
  0
VERTEX
 10
15.900000
 20
74.700000
 30
0.000000
  8
3
 62
7
  6
CONTINUOUS
  0
SEQEND
  0
POLYLINE
  8
3
 62
7
  6
CONTINUOUS
 70
1
 66
1
  0
VERTEX
 10
17.900000
 20
73.200000
 30
0.000000
  8
3
 62
7
  6
CONTINUOUS
  0
VERTEX
 10
17.900000
 20
73.300000
 30
0.000000
  8
3
 62
7
  6
CONTINUOUS
  0
VERTEX
 10
15.900000
 20
73.300000
 30
0.000000
  8
3
 62
7
  6
CONTINUOUS
  0
VERTEX
 10
15.900000
 20
73.200000
 30
0.000000
  8
3
 62
7
  6
CONTINUOUS
  0
SEQEND
  0
POLYLINE
  8
3
 62
7
  6
CONTINUOUS
 70
1
 66
1
  0
VERTEX
 10
17.900000
 20
73.700000
 30
0.000000
  8
3
 62
7
  6
CONTINUOUS
  0
VERTEX
 10
17.900000
 20
73.800000
 30
0.000000
  8
3
 62
7
  6
CONTINUOUS
  0
VERTEX
 10
15.900000
 20
73.800000
 30
0.000000
  8
3
 62
7
  6
CONTINUOUS
  0
VERTEX
 10
15.900000
 20
73.700000
 30
0.000000
  8
3
 62
7
  6
CONTINUOUS
  0
SEQEND
  0
POLYLINE
  8
3
 62
7
  6
CONTINUOUS
 70
1
 66
1
  0
VERTEX
 10
17.900000
 20
74.200000
 30
0.000000
  8
3
 62
7
  6
CONTINUOUS
  0
VERTEX
 10
17.900000
 20
74.300000
 30
0.000000
  8
3
 62
7
  6
CONTINUOUS
  0
VERTEX
 10
15.900000
 20
74.300000
 30
0.000000
  8
3
 62
7
  6
CONTINUOUS
  0
VERTEX
 10
15.900000
 20
74.200000
 30
0.000000
  8
3
 62
7
  6
CONTINUOUS
  0
SEQEND
  0
POLYLINE
  8
3
 62
7
  6
CONTINUOUS
 70
1
 66
1
  0
VERTEX
 10
17.900000
 20
72.700000
 30
0.000000
  8
3
 62
7
  6
CONTINUOUS
  0
VERTEX
 10
17.900000
 20
72.800000
 30
0.000000
  8
3
 62
7
  6
CONTINUOUS
  0
VERTEX
 10
15.900000
 20
72.800000
 30
0.000000
  8
3
 62
7
  6
CONTINUOUS
  0
VERTEX
 10
15.900000
 20
72.700000
 30
0.000000
  8
3
 62
7
  6
CONTINUOUS
  0
SEQEND
  0
POLYLINE
  8
3
 62
7
  6
CONTINUOUS
 70
1
 66
1
  0
VERTEX
 10
17.900000
 20
72.200000
 30
0.000000
  8
3
 62
7
  6
CONTINUOUS
  0
VERTEX
 10
17.900000
 20
72.300000
 30
0.000000
  8
3
 62
7
  6
CONTINUOUS
  0
VERTEX
 10
15.900000
 20
72.300000
 30
0.000000
  8
3
 62
7
  6
CONTINUOUS
  0
VERTEX
 10
15.900000
 20
72.200000
 30
0.000000
  8
3
 62
7
  6
CONTINUOUS
  0
SEQEND
  0
POLYLINE
  8
3
 62
7
  6
CONTINUOUS
 70
1
 66
1
  0
VERTEX
 10
17.900000
 20
71.700000
 30
0.000000
  8
3
 62
7
  6
CONTINUOUS
  0
VERTEX
 10
17.900000
 20
71.800000
 30
0.000000
  8
3
 62
7
  6
CONTINUOUS
  0
VERTEX
 10
15.900000
 20
71.800000
 30
0.000000
  8
3
 62
7
  6
CONTINUOUS
  0
VERTEX
 10
15.900000
 20
71.700000
 30
0.000000
  8
3
 62
7
  6
CONTINUOUS
  0
SEQEND
  0
POLYLINE
  8
3
 62
7
  6
CONTINUOUS
 70
1
 66
1
  0
VERTEX
 10
20.500000
 20
74.700000
 30
0.000000
  8
3
 62
7
  6
CONTINUOUS
  0
VERTEX
 10
20.500000
 20
74.800000
 30
0.000000
  8
3
 62
7
  6
CONTINUOUS
  0
VERTEX
 10
18.500000
 20
74.800000
 30
0.000000
  8
3
 62
7
  6
CONTINUOUS
  0
VERTEX
 10
18.500000
 20
74.700000
 30
0.000000
  8
3
 62
7
  6
CONTINUOUS
  0
SEQEND
  0
POLYLINE
  8
3
 62
7
  6
CONTINUOUS
 70
1
 66
1
  0
VERTEX
 10
20.500000
 20
74.200000
 30
0.000000
  8
3
 62
7
  6
CONTINUOUS
  0
VERTEX
 10
20.500000
 20
74.300000
 30
0.000000
  8
3
 62
7
  6
CONTINUOUS
  0
VERTEX
 10
18.500000
 20
74.300000
 30
0.000000
  8
3
 62
7
  6
CONTINUOUS
  0
VERTEX
 10
18.500000
 20
74.200000
 30
0.000000
  8
3
 62
7
  6
CONTINUOUS
  0
SEQEND
  0
POLYLINE
  8
3
 62
7
  6
CONTINUOUS
 70
1
 66
1
  0
VERTEX
 10
20.500000
 20
73.700000
 30
0.000000
  8
3
 62
7
  6
CONTINUOUS
  0
VERTEX
 10
20.500000
 20
73.800000
 30
0.000000
  8
3
 62
7
  6
CONTINUOUS
  0
VERTEX
 10
18.500000
 20
73.800000
 30
0.000000
  8
3
 62
7
  6
CONTINUOUS
  0
VERTEX
 10
18.500000
 20
73.700000
 30
0.000000
  8
3
 62
7
  6
CONTINUOUS
  0
SEQEND
  0
POLYLINE
  8
3
 62
7
  6
CONTINUOUS
 70
1
 66
1
  0
VERTEX
 10
20.500000
 20
73.200000
 30
0.000000
  8
3
 62
7
  6
CONTINUOUS
  0
VERTEX
 10
20.500000
 20
73.300000
 30
0.000000
  8
3
 62
7
  6
CONTINUOUS
  0
VERTEX
 10
18.500000
 20
73.300000
 30
0.000000
  8
3
 62
7
  6
CONTINUOUS
  0
VERTEX
 10
18.500000
 20
73.200000
 30
0.000000
  8
3
 62
7
  6
CONTINUOUS
  0
SEQEND
  0
POLYLINE
  8
3
 62
7
  6
CONTINUOUS
 70
1
 66
1
  0
VERTEX
 10
20.500000
 20
72.700000
 30
0.000000
  8
3
 62
7
  6
CONTINUOUS
  0
VERTEX
 10
20.500000
 20
72.800000
 30
0.000000
  8
3
 62
7
  6
CONTINUOUS
  0
VERTEX
 10
18.500000
 20
72.800000
 30
0.000000
  8
3
 62
7
  6
CONTINUOUS
  0
VERTEX
 10
18.500000
 20
72.700000
 30
0.000000
  8
3
 62
7
  6
CONTINUOUS
  0
SEQEND
  0
POLYLINE
  8
3
 62
7
  6
CONTINUOUS
 70
1
 66
1
  0
VERTEX
 10
20.500000
 20
72.200000
 30
0.000000
  8
3
 62
7
  6
CONTINUOUS
  0
VERTEX
 10
20.500000
 20
72.300000
 30
0.000000
  8
3
 62
7
  6
CONTINUOUS
  0
VERTEX
 10
18.500000
 20
72.300000
 30
0.000000
  8
3
 62
7
  6
CONTINUOUS
  0
VERTEX
 10
18.500000
 20
72.200000
 30
0.000000
  8
3
 62
7
  6
CONTINUOUS
  0
SEQEND
  0
POLYLINE
  8
3
 62
7
  6
CONTINUOUS
 70
1
 66
1
  0
VERTEX
 10
20.500000
 20
71.700000
 30
0.000000
  8
3
 62
7
  6
CONTINUOUS
  0
VERTEX
 10
20.500000
 20
71.800000
 30
0.000000
  8
3
 62
7
  6
CONTINUOUS
  0
VERTEX
 10
18.500000
 20
71.800000
 30
0.000000
  8
3
 62
7
  6
CONTINUOUS
  0
VERTEX
 10
18.500000
 20
71.700000
 30
0.000000
  8
3
 62
7
  6
CONTINUOUS
  0
SEQEND
  0
SOLID
  8
47
 62
255
  6
CONTINUOUS
 10
7.100000
 20
34.500000
 11
7.100000
 21
40.300000
 12
3.100000
 22
34.500000
 13
3.100000
 23
40.300000
  0
POLYLINE
  8
47
 62
7
  6
CONTINUOUS
 70
1
 66
1
  0
VERTEX
 10
7.100000
 20
34.500000
 30
0.000000
  8
47
 62
7
  6
CONTINUOUS
  0
VERTEX
 10
7.100000
 20
40.300000
 30
0.000000
  8
47
 62
7
  6
CONTINUOUS
  0
VERTEX
 10
3.100000
 20
40.300000
 30
0.000000
  8
47
 62
7
  6
CONTINUOUS
  0
VERTEX
 10
3.100000
 20
34.500000
 30
0.000000
  8
47
 62
7
  6
CONTINUOUS
  0
SEQEND
  0
POLYLINE
  8
47
 62
7
  6
CONTINUOUS
 70
1
 66
1
  0
VERTEX
 10
6.800000
 20
34.800000
 30
0.000000
  8
47
 62
7
  6
CONTINUOUS
  0
VERTEX
 10
6.800000
 20
40.000000
 30
0.000000
  8
47
 62
7
  6
CONTINUOUS
  0
VERTEX
 10
3.400000
 20
40.000000
 30
0.000000
  8
47
 62
7
  6
CONTINUOUS
  0
VERTEX
 10
3.400000
 20
34.800000
 30
0.000000
  8
47
 62
7
  6
CONTINUOUS
  0
SEQEND
  0
POLYLINE
  8
47
 62
7
  6
CONTINUOUS
 70
0
 66
1
  0
VERTEX
 10
3.100000
 20
40.300000
  8
47
 62
7
  6
CONTINUOUS
  0
VERTEX
 10
3.400000
 20
40.000000
  8
47
 62
7
  6
CONTINUOUS
  0
SEQEND
  0
POLYLINE
  8
47
 62
7
  6
CONTINUOUS
 70
0
 66
1
  0
VERTEX
 10
7.100000
 20
40.300000
  8
47
 62
7
  6
CONTINUOUS
  0
VERTEX
 10
6.800000
 20
40.000000
  8
47
 62
7
  6
CONTINUOUS
  0
SEQEND
  0
POLYLINE
  8
47
 62
7
  6
CONTINUOUS
 70
0
 66
1
  0
VERTEX
 10
3.100000
 20
34.500000
  8
47
 62
7
  6
CONTINUOUS
  0
VERTEX
 10
3.400000
 20
34.800000
  8
47
 62
7
  6
CONTINUOUS
  0
SEQEND
  0
POLYLINE
  8
47
 62
7
  6
CONTINUOUS
 70
0
 66
1
  0
VERTEX
 10
6.800000
 20
34.800000
  8
47
 62
7
  6
CONTINUOUS
  0
VERTEX
 10
7.100000
 20
34.500000
  8
47
 62
7
  6
CONTINUOUS
  0
SEQEND
  0
TEXT
  8
47
 62
7
  6
CONTINUOUS
 10
4.433333
 20
37.400000
 40
1.000000
  1
ABB
 50
90.000000
 51
0.000000
 72
1
 73
0
 11
4.433333
 21
37.400000
  0
POLYLINE
  8
47
 62
7
  6
CONTINUOUS
 70
1
 66
1
  0
VERTEX
 10
5.500000
 20
39.700000
 30
0.000000
  8
47
 62
7
  6
CONTINUOUS
  0
VERTEX
 10
5.500000
 20
39.900000
 30
0.000000
  8
47
 62
7
  6
CONTINUOUS
  0
VERTEX
 10
5.300000
 20
39.900000
 30
0.000000
  8
47
 62
7
  6
CONTINUOUS
  0
VERTEX
 10
5.300000
 20
39.700000
 30
0.000000
  8
47
 62
7
  6
CONTINUOUS
  0
SEQEND
  0
POLYLINE
  8
47
 62
7
  6
CONTINUOUS
 70
1
 66
1
  0
VERTEX
 10
5.500000
 20
39.300000
 30
0.000000
  8
47
 62
7
  6
CONTINUOUS
  0
VERTEX
 10
5.500000
 20
39.500000
 30
0.000000
  8
47
 62
7
  6
CONTINUOUS
  0
VERTEX
 10
5.300000
 20
39.500000
 30
0.000000
  8
47
 62
7
  6
CONTINUOUS
  0
VERTEX
 10
5.300000
 20
39.300000
 30
0.000000
  8
47
 62
7
  6
CONTINUOUS
  0
SEQEND
  0
POLYLINE
  8
47
 62
7
  6
CONTINUOUS
 70
1
 66
1
  0
VERTEX
 10
5.500000
 20
38.900000
 30
0.000000
  8
47
 62
7
  6
CONTINUOUS
  0
VERTEX
 10
5.500000
 20
39.100000
 30
0.000000
  8
47
 62
7
  6
CONTINUOUS
  0
VERTEX
 10
5.300000
 20
39.100000
 30
0.000000
  8
47
 62
7
  6
CONTINUOUS
  0
VERTEX
 10
5.300000
 20
38.900000
 30
0.000000
  8
47
 62
7
  6
CONTINUOUS
  0
SEQEND
  0
POLYLINE
  8
47
 62
7
  6
CONTINUOUS
 70
1
 66
1
  0
VERTEX
 10
5.500000
 20
38.500000
 30
0.000000
  8
47
 62
7
  6
CONTINUOUS
  0
VERTEX
 10
5.500000
 20
38.700000
 30
0.000000
  8
47
 62
7
  6
CONTINUOUS
  0
VERTEX
 10
5.300000
 20
38.700000
 30
0.000000
  8
47
 62
7
  6
CONTINUOUS
  0
VERTEX
 10
5.300000
 20
38.500000
 30
0.000000
  8
47
 62
7
  6
CONTINUOUS
  0
SEQEND
  0
POLYLINE
  8
47
 62
7
  6
CONTINUOUS
 70
1
 66
1
  0
VERTEX
 10
5.500000
 20
38.100000
 30
0.000000
  8
47
 62
7
  6
CONTINUOUS
  0
VERTEX
 10
5.500000
 20
38.300000
 30
0.000000
  8
47
 62
7
  6
CONTINUOUS
  0
VERTEX
 10
5.300000
 20
38.300000
 30
0.000000
  8
47
 62
7
  6
CONTINUOUS
  0
VERTEX
 10
5.300000
 20
38.100000
 30
0.000000
  8
47
 62
7
  6
CONTINUOUS
  0
SEQEND
  0
POLYLINE
  8
47
 62
7
  6
CONTINUOUS
 70
1
 66
1
  0
VERTEX
 10
5.500000
 20
37.700000
 30
0.000000
  8
47
 62
7
  6
CONTINUOUS
  0
VERTEX
 10
5.500000
 20
37.900000
 30
0.000000
  8
47
 62
7
  6
CONTINUOUS
  0
VERTEX
 10
5.300000
 20
37.900000
 30
0.000000
  8
47
 62
7
  6
CONTINUOUS
  0
VERTEX
 10
5.300000
 20
37.700000
 30
0.000000
  8
47
 62
7
  6
CONTINUOUS
  0
SEQEND
  0
POLYLINE
  8
47
 62
7
  6
CONTINUOUS
 70
1
 66
1
  0
VERTEX
 10
5.500000
 20
37.300000
 30
0.000000
  8
47
 62
7
  6
CONTINUOUS
  0
VERTEX
 10
5.500000
 20
37.500000
 30
0.000000
  8
47
 62
7
  6
CONTINUOUS
  0
VERTEX
 10
5.300000
 20
37.500000
 30
0.000000
  8
47
 62
7
  6
CONTINUOUS
  0
VERTEX
 10
5.300000
 20
37.300000
 30
0.000000
  8
47
 62
7
  6
CONTINUOUS
  0
SEQEND
  0
POLYLINE
  8
47
 62
7
  6
CONTINUOUS
 70
1
 66
1
  0
VERTEX
 10
5.500000
 20
36.900000
 30
0.000000
  8
47
 62
7
  6
CONTINUOUS
  0
VERTEX
 10
5.500000
 20
37.100000
 30
0.000000
  8
47
 62
7
  6
CONTINUOUS
  0
VERTEX
 10
5.300000
 20
37.100000
 30
0.000000
  8
47
 62
7
  6
CONTINUOUS
  0
VERTEX
 10
5.300000
 20
36.900000
 30
0.000000
  8
47
 62
7
  6
CONTINUOUS
  0
SEQEND
  0
POLYLINE
  8
47
 62
7
  6
CONTINUOUS
 70
1
 66
1
  0
VERTEX
 10
5.500000
 20
36.500000
 30
0.000000
  8
47
 62
7
  6
CONTINUOUS
  0
VERTEX
 10
5.500000
 20
36.700000
 30
0.000000
  8
47
 62
7
  6
CONTINUOUS
  0
VERTEX
 10
5.300000
 20
36.700000
 30
0.000000
  8
47
 62
7
  6
CONTINUOUS
  0
VERTEX
 10
5.300000
 20
36.500000
 30
0.000000
  8
47
 62
7
  6
CONTINUOUS
  0
SEQEND
  0
POLYLINE
  8
47
 62
7
  6
CONTINUOUS
 70
1
 66
1
  0
VERTEX
 10
5.500000
 20
36.100000
 30
0.000000
  8
47
 62
7
  6
CONTINUOUS
  0
VERTEX
 10
5.500000
 20
36.300000
 30
0.000000
  8
47
 62
7
  6
CONTINUOUS
  0
VERTEX
 10
5.300000
 20
36.300000
 30
0.000000
  8
47
 62
7
  6
CONTINUOUS
  0
VERTEX
 10
5.300000
 20
36.100000
 30
0.000000
  8
47
 62
7
  6
CONTINUOUS
  0
SEQEND
  0
POLYLINE
  8
47
 62
7
  6
CONTINUOUS
 70
1
 66
1
  0
VERTEX
 10
5.500000
 20
35.700000
 30
0.000000
  8
47
 62
7
  6
CONTINUOUS
  0
VERTEX
 10
5.500000
 20
35.900000
 30
0.000000
  8
47
 62
7
  6
CONTINUOUS
  0
VERTEX
 10
5.300000
 20
35.900000
 30
0.000000
  8
47
 62
7
  6
CONTINUOUS
  0
VERTEX
 10
5.300000
 20
35.700000
 30
0.000000
  8
47
 62
7
  6
CONTINUOUS
  0
SEQEND
  0
POLYLINE
  8
47
 62
7
  6
CONTINUOUS
 70
1
 66
1
  0
VERTEX
 10
5.500000
 20
35.300000
 30
0.000000
  8
47
 62
7
  6
CONTINUOUS
  0
VERTEX
 10
5.500000
 20
35.500000
 30
0.000000
  8
47
 62
7
  6
CONTINUOUS
  0
VERTEX
 10
5.300000
 20
35.500000
 30
0.000000
  8
47
 62
7
  6
CONTINUOUS
  0
VERTEX
 10
5.300000
 20
35.300000
 30
0.000000
  8
47
 62
7
  6
CONTINUOUS
  0
SEQEND
  0
POLYLINE
  8
47
 62
7
  6
CONTINUOUS
 70
1
 66
1
  0
VERTEX
 10
5.500000
 20
34.900000
 30
0.000000
  8
47
 62
7
  6
CONTINUOUS
  0
VERTEX
 10
5.500000
 20
35.100000
 30
0.000000
  8
47
 62
7
  6
CONTINUOUS
  0
VERTEX
 10
5.300000
 20
35.100000
 30
0.000000
  8
47
 62
7
  6
CONTINUOUS
  0
VERTEX
 10
5.300000
 20
34.900000
 30
0.000000
  8
47
 62
7
  6
CONTINUOUS
  0
SEQEND
  0
POLYLINE
  8
47
 62
7
  6
CONTINUOUS
 70
1
 66
1
  0
VERTEX
 10
5.900000
 20
37.700000
 30
0.000000
  8
47
 62
7
  6
CONTINUOUS
  0
VERTEX
 10
5.900000
 20
37.900000
 30
0.000000
  8
47
 62
7
  6
CONTINUOUS
  0
VERTEX
 10
5.700000
 20
37.900000
 30
0.000000
  8
47
 62
7
  6
CONTINUOUS
  0
VERTEX
 10
5.700000
 20
37.700000
 30
0.000000
  8
47
 62
7
  6
CONTINUOUS
  0
SEQEND
  0
POLYLINE
  8
47
 62
7
  6
CONTINUOUS
 70
1
 66
1
  0
VERTEX
 10
5.900000
 20
39.700000
 30
0.000000
  8
47
 62
7
  6
CONTINUOUS
  0
VERTEX
 10
5.900000
 20
39.900000
 30
0.000000
  8
47
 62
7
  6
CONTINUOUS
  0
VERTEX
 10
5.700000
 20
39.900000
 30
0.000000
  8
47
 62
7
  6
CONTINUOUS
  0
VERTEX
 10
5.700000
 20
39.700000
 30
0.000000
  8
47
 62
7
  6
CONTINUOUS
  0
SEQEND
  0
POLYLINE
  8
47
 62
7
  6
CONTINUOUS
 70
1
 66
1
  0
VERTEX
 10
5.900000
 20
39.300000
 30
0.000000
  8
47
 62
7
  6
CONTINUOUS
  0
VERTEX
 10
5.900000
 20
39.500000
 30
0.000000
  8
47
 62
7
  6
CONTINUOUS
  0
VERTEX
 10
5.700000
 20
39.500000
 30
0.000000
  8
47
 62
7
  6
CONTINUOUS
  0
VERTEX
 10
5.700000
 20
39.300000
 30
0.000000
  8
47
 62
7
  6
CONTINUOUS
  0
SEQEND
  0
POLYLINE
  8
47
 62
7
  6
CONTINUOUS
 70
1
 66
1
  0
VERTEX
 10
5.900000
 20
38.900000
 30
0.000000
  8
47
 62
7
  6
CONTINUOUS
  0
VERTEX
 10
5.900000
 20
39.100000
 30
0.000000
  8
47
 62
7
  6
CONTINUOUS
  0
VERTEX
 10
5.700000
 20
39.100000
 30
0.000000
  8
47
 62
7
  6
CONTINUOUS
  0
VERTEX
 10
5.700000
 20
38.900000
 30
0.000000
  8
47
 62
7
  6
CONTINUOUS
  0
SEQEND
  0
POLYLINE
  8
47
 62
7
  6
CONTINUOUS
 70
1
 66
1
  0
VERTEX
 10
5.900000
 20
38.500000
 30
0.000000
  8
47
 62
7
  6
CONTINUOUS
  0
VERTEX
 10
5.900000
 20
38.700000
 30
0.000000
  8
47
 62
7
  6
CONTINUOUS
  0
VERTEX
 10
5.700000
 20
38.700000
 30
0.000000
  8
47
 62
7
  6
CONTINUOUS
  0
VERTEX
 10
5.700000
 20
38.500000
 30
0.000000
  8
47
 62
7
  6
CONTINUOUS
  0
SEQEND
  0
POLYLINE
  8
47
 62
7
  6
CONTINUOUS
 70
1
 66
1
  0
VERTEX
 10
5.900000
 20
38.100000
 30
0.000000
  8
47
 62
7
  6
CONTINUOUS
  0
VERTEX
 10
5.900000
 20
38.300000
 30
0.000000
  8
47
 62
7
  6
CONTINUOUS
  0
VERTEX
 10
5.700000
 20
38.300000
 30
0.000000
  8
47
 62
7
  6
CONTINUOUS
  0
VERTEX
 10
5.700000
 20
38.100000
 30
0.000000
  8
47
 62
7
  6
CONTINUOUS
  0
SEQEND
  0
POLYLINE
  8
47
 62
7
  6
CONTINUOUS
 70
1
 66
1
  0
VERTEX
 10
5.900000
 20
37.300000
 30
0.000000
  8
47
 62
7
  6
CONTINUOUS
  0
VERTEX
 10
5.900000
 20
37.500000
 30
0.000000
  8
47
 62
7
  6
CONTINUOUS
  0
VERTEX
 10
5.700000
 20
37.500000
 30
0.000000
  8
47
 62
7
  6
CONTINUOUS
  0
VERTEX
 10
5.700000
 20
37.300000
 30
0.000000
  8
47
 62
7
  6
CONTINUOUS
  0
SEQEND
  0
POLYLINE
  8
47
 62
7
  6
CONTINUOUS
 70
1
 66
1
  0
VERTEX
 10
5.900000
 20
36.900000
 30
0.000000
  8
47
 62
7
  6
CONTINUOUS
  0
VERTEX
 10
5.900000
 20
37.100000
 30
0.000000
  8
47
 62
7
  6
CONTINUOUS
  0
VERTEX
 10
5.700000
 20
37.100000
 30
0.000000
  8
47
 62
7
  6
CONTINUOUS
  0
VERTEX
 10
5.700000
 20
36.900000
 30
0.000000
  8
47
 62
7
  6
CONTINUOUS
  0
SEQEND
  0
POLYLINE
  8
47
 62
7
  6
CONTINUOUS
 70
1
 66
1
  0
VERTEX
 10
5.900000
 20
36.500000
 30
0.000000
  8
47
 62
7
  6
CONTINUOUS
  0
VERTEX
 10
5.900000
 20
36.700000
 30
0.000000
  8
47
 62
7
  6
CONTINUOUS
  0
VERTEX
 10
5.700000
 20
36.700000
 30
0.000000
  8
47
 62
7
  6
CONTINUOUS
  0
VERTEX
 10
5.700000
 20
36.500000
 30
0.000000
  8
47
 62
7
  6
CONTINUOUS
  0
SEQEND
  0
POLYLINE
  8
47
 62
7
  6
CONTINUOUS
 70
1
 66
1
  0
VERTEX
 10
5.900000
 20
36.100000
 30
0.000000
  8
47
 62
7
  6
CONTINUOUS
  0
VERTEX
 10
5.900000
 20
36.300000
 30
0.000000
  8
47
 62
7
  6
CONTINUOUS
  0
VERTEX
 10
5.700000
 20
36.300000
 30
0.000000
  8
47
 62
7
  6
CONTINUOUS
  0
VERTEX
 10
5.700000
 20
36.100000
 30
0.000000
  8
47
 62
7
  6
CONTINUOUS
  0
SEQEND
  0
POLYLINE
  8
47
 62
7
  6
CONTINUOUS
 70
1
 66
1
  0
VERTEX
 10
5.900000
 20
35.700000
 30
0.000000
  8
47
 62
7
  6
CONTINUOUS
  0
VERTEX
 10
5.900000
 20
35.900000
 30
0.000000
  8
47
 62
7
  6
CONTINUOUS
  0
VERTEX
 10
5.700000
 20
35.900000
 30
0.000000
  8
47
 62
7
  6
CONTINUOUS
  0
VERTEX
 10
5.700000
 20
35.700000
 30
0.000000
  8
47
 62
7
  6
CONTINUOUS
  0
SEQEND
  0
POLYLINE
  8
47
 62
7
  6
CONTINUOUS
 70
1
 66
1
  0
VERTEX
 10
5.900000
 20
35.300000
 30
0.000000
  8
47
 62
7
  6
CONTINUOUS
  0
VERTEX
 10
5.900000
 20
35.500000
 30
0.000000
  8
47
 62
7
  6
CONTINUOUS
  0
VERTEX
 10
5.700000
 20
35.500000
 30
0.000000
  8
47
 62
7
  6
CONTINUOUS
  0
VERTEX
 10
5.700000
 20
35.300000
 30
0.000000
  8
47
 62
7
  6
CONTINUOUS
  0
SEQEND
  0
POLYLINE
  8
47
 62
7
  6
CONTINUOUS
 70
1
 66
1
  0
VERTEX
 10
5.900000
 20
34.900000
 30
0.000000
  8
47
 62
7
  6
CONTINUOUS
  0
VERTEX
 10
5.900000
 20
35.100000
 30
0.000000
  8
47
 62
7
  6
CONTINUOUS
  0
VERTEX
 10
5.700000
 20
35.100000
 30
0.000000
  8
47
 62
7
  6
CONTINUOUS
  0
VERTEX
 10
5.700000
 20
34.900000
 30
0.000000
  8
47
 62
7
  6
CONTINUOUS
  0
SEQEND
  0
POLYLINE
  8
47
 62
7
  6
CONTINUOUS
 70
1
 66
1
  0
VERTEX
 10
6.300000
 20
37.700000
 30
0.000000
  8
47
 62
7
  6
CONTINUOUS
  0
VERTEX
 10
6.300000
 20
37.900000
 30
0.000000
  8
47
 62
7
  6
CONTINUOUS
  0
VERTEX
 10
6.100000
 20
37.900000
 30
0.000000
  8
47
 62
7
  6
CONTINUOUS
  0
VERTEX
 10
6.100000
 20
37.700000
 30
0.000000
  8
47
 62
7
  6
CONTINUOUS
  0
SEQEND
  0
POLYLINE
  8
47
 62
7
  6
CONTINUOUS
 70
1
 66
1
  0
VERTEX
 10
6.300000
 20
39.700000
 30
0.000000
  8
47
 62
7
  6
CONTINUOUS
  0
VERTEX
 10
6.300000
 20
39.900000
 30
0.000000
  8
47
 62
7
  6
CONTINUOUS
  0
VERTEX
 10
6.100000
 20
39.900000
 30
0.000000
  8
47
 62
7
  6
CONTINUOUS
  0
VERTEX
 10
6.100000
 20
39.700000
 30
0.000000
  8
47
 62
7
  6
CONTINUOUS
  0
SEQEND
  0
POLYLINE
  8
47
 62
7
  6
CONTINUOUS
 70
1
 66
1
  0
VERTEX
 10
6.300000
 20
39.300000
 30
0.000000
  8
47
 62
7
  6
CONTINUOUS
  0
VERTEX
 10
6.300000
 20
39.500000
 30
0.000000
  8
47
 62
7
  6
CONTINUOUS
  0
VERTEX
 10
6.100000
 20
39.500000
 30
0.000000
  8
47
 62
7
  6
CONTINUOUS
  0
VERTEX
 10
6.100000
 20
39.300000
 30
0.000000
  8
47
 62
7
  6
CONTINUOUS
  0
SEQEND
  0
POLYLINE
  8
47
 62
7
  6
CONTINUOUS
 70
1
 66
1
  0
VERTEX
 10
6.300000
 20
38.900000
 30
0.000000
  8
47
 62
7
  6
CONTINUOUS
  0
VERTEX
 10
6.300000
 20
39.100000
 30
0.000000
  8
47
 62
7
  6
CONTINUOUS
  0
VERTEX
 10
6.100000
 20
39.100000
 30
0.000000
  8
47
 62
7
  6
CONTINUOUS
  0
VERTEX
 10
6.100000
 20
38.900000
 30
0.000000
  8
47
 62
7
  6
CONTINUOUS
  0
SEQEND
  0
POLYLINE
  8
47
 62
7
  6
CONTINUOUS
 70
1
 66
1
  0
VERTEX
 10
6.300000
 20
38.500000
 30
0.000000
  8
47
 62
7
  6
CONTINUOUS
  0
VERTEX
 10
6.300000
 20
38.700000
 30
0.000000
  8
47
 62
7
  6
CONTINUOUS
  0
VERTEX
 10
6.100000
 20
38.700000
 30
0.000000
  8
47
 62
7
  6
CONTINUOUS
  0
VERTEX
 10
6.100000
 20
38.500000
 30
0.000000
  8
47
 62
7
  6
CONTINUOUS
  0
SEQEND
  0
POLYLINE
  8
47
 62
7
  6
CONTINUOUS
 70
1
 66
1
  0
VERTEX
 10
6.300000
 20
38.100000
 30
0.000000
  8
47
 62
7
  6
CONTINUOUS
  0
VERTEX
 10
6.300000
 20
38.300000
 30
0.000000
  8
47
 62
7
  6
CONTINUOUS
  0
VERTEX
 10
6.100000
 20
38.300000
 30
0.000000
  8
47
 62
7
  6
CONTINUOUS
  0
VERTEX
 10
6.100000
 20
38.100000
 30
0.000000
  8
47
 62
7
  6
CONTINUOUS
  0
SEQEND
  0
POLYLINE
  8
47
 62
7
  6
CONTINUOUS
 70
1
 66
1
  0
VERTEX
 10
6.300000
 20
37.300000
 30
0.000000
  8
47
 62
7
  6
CONTINUOUS
  0
VERTEX
 10
6.300000
 20
37.500000
 30
0.000000
  8
47
 62
7
  6
CONTINUOUS
  0
VERTEX
 10
6.100000
 20
37.500000
 30
0.000000
  8
47
 62
7
  6
CONTINUOUS
  0
VERTEX
 10
6.100000
 20
37.300000
 30
0.000000
  8
47
 62
7
  6
CONTINUOUS
  0
SEQEND
  0
POLYLINE
  8
47
 62
7
  6
CONTINUOUS
 70
1
 66
1
  0
VERTEX
 10
6.300000
 20
36.900000
 30
0.000000
  8
47
 62
7
  6
CONTINUOUS
  0
VERTEX
 10
6.300000
 20
37.100000
 30
0.000000
  8
47
 62
7
  6
CONTINUOUS
  0
VERTEX
 10
6.100000
 20
37.100000
 30
0.000000
  8
47
 62
7
  6
CONTINUOUS
  0
VERTEX
 10
6.100000
 20
36.900000
 30
0.000000
  8
47
 62
7
  6
CONTINUOUS
  0
SEQEND
  0
POLYLINE
  8
47
 62
7
  6
CONTINUOUS
 70
1
 66
1
  0
VERTEX
 10
6.300000
 20
36.500000
 30
0.000000
  8
47
 62
7
  6
CONTINUOUS
  0
VERTEX
 10
6.300000
 20
36.700000
 30
0.000000
  8
47
 62
7
  6
CONTINUOUS
  0
VERTEX
 10
6.100000
 20
36.700000
 30
0.000000
  8
47
 62
7
  6
CONTINUOUS
  0
VERTEX
 10
6.100000
 20
36.500000
 30
0.000000
  8
47
 62
7
  6
CONTINUOUS
  0
SEQEND
  0
POLYLINE
  8
47
 62
7
  6
CONTINUOUS
 70
1
 66
1
  0
VERTEX
 10
6.300000
 20
36.100000
 30
0.000000
  8
47
 62
7
  6
CONTINUOUS
  0
VERTEX
 10
6.300000
 20
36.300000
 30
0.000000
  8
47
 62
7
  6
CONTINUOUS
  0
VERTEX
 10
6.100000
 20
36.300000
 30
0.000000
  8
47
 62
7
  6
CONTINUOUS
  0
VERTEX
 10
6.100000
 20
36.100000
 30
0.000000
  8
47
 62
7
  6
CONTINUOUS
  0
SEQEND
  0
POLYLINE
  8
47
 62
7
  6
CONTINUOUS
 70
1
 66
1
  0
VERTEX
 10
6.300000
 20
35.700000
 30
0.000000
  8
47
 62
7
  6
CONTINUOUS
  0
VERTEX
 10
6.300000
 20
35.900000
 30
0.000000
  8
47
 62
7
  6
CONTINUOUS
  0
VERTEX
 10
6.100000
 20
35.900000
 30
0.000000
  8
47
 62
7
  6
CONTINUOUS
  0
VERTEX
 10
6.100000
 20
35.700000
 30
0.000000
  8
47
 62
7
  6
CONTINUOUS
  0
SEQEND
  0
POLYLINE
  8
47
 62
7
  6
CONTINUOUS
 70
1
 66
1
  0
VERTEX
 10
6.300000
 20
35.300000
 30
0.000000
  8
47
 62
7
  6
CONTINUOUS
  0
VERTEX
 10
6.300000
 20
35.500000
 30
0.000000
  8
47
 62
7
  6
CONTINUOUS
  0
VERTEX
 10
6.100000
 20
35.500000
 30
0.000000
  8
47
 62
7
  6
CONTINUOUS
  0
VERTEX
 10
6.100000
 20
35.300000
 30
0.000000
  8
47
 62
7
  6
CONTINUOUS
  0
SEQEND
  0
POLYLINE
  8
47
 62
7
  6
CONTINUOUS
 70
1
 66
1
  0
VERTEX
 10
6.300000
 20
34.900000
 30
0.000000
  8
47
 62
7
  6
CONTINUOUS
  0
VERTEX
 10
6.300000
 20
35.100000
 30
0.000000
  8
47
 62
7
  6
CONTINUOUS
  0
VERTEX
 10
6.100000
 20
35.100000
 30
0.000000
  8
47
 62
7
  6
CONTINUOUS
  0
VERTEX
 10
6.100000
 20
34.900000
 30
0.000000
  8
47
 62
7
  6
CONTINUOUS
  0
SEQEND
  0
POLYLINE
  8
47
 62
7
  6
CONTINUOUS
 70
1
 66
1
  0
VERTEX
 10
6.700000
 20
37.700000
 30
0.000000
  8
47
 62
7
  6
CONTINUOUS
  0
VERTEX
 10
6.700000
 20
37.900000
 30
0.000000
  8
47
 62
7
  6
CONTINUOUS
  0
VERTEX
 10
6.500000
 20
37.900000
 30
0.000000
  8
47
 62
7
  6
CONTINUOUS
  0
VERTEX
 10
6.500000
 20
37.700000
 30
0.000000
  8
47
 62
7
  6
CONTINUOUS
  0
SEQEND
  0
POLYLINE
  8
47
 62
7
  6
CONTINUOUS
 70
1
 66
1
  0
VERTEX
 10
6.700000
 20
39.700000
 30
0.000000
  8
47
 62
7
  6
CONTINUOUS
  0
VERTEX
 10
6.700000
 20
39.900000
 30
0.000000
  8
47
 62
7
  6
CONTINUOUS
  0
VERTEX
 10
6.500000
 20
39.900000
 30
0.000000
  8
47
 62
7
  6
CONTINUOUS
  0
VERTEX
 10
6.500000
 20
39.700000
 30
0.000000
  8
47
 62
7
  6
CONTINUOUS
  0
SEQEND
  0
POLYLINE
  8
47
 62
7
  6
CONTINUOUS
 70
1
 66
1
  0
VERTEX
 10
6.700000
 20
39.300000
 30
0.000000
  8
47
 62
7
  6
CONTINUOUS
  0
VERTEX
 10
6.700000
 20
39.500000
 30
0.000000
  8
47
 62
7
  6
CONTINUOUS
  0
VERTEX
 10
6.500000
 20
39.500000
 30
0.000000
  8
47
 62
7
  6
CONTINUOUS
  0
VERTEX
 10
6.500000
 20
39.300000
 30
0.000000
  8
47
 62
7
  6
CONTINUOUS
  0
SEQEND
  0
POLYLINE
  8
47
 62
7
  6
CONTINUOUS
 70
1
 66
1
  0
VERTEX
 10
6.700000
 20
38.900000
 30
0.000000
  8
47
 62
7
  6
CONTINUOUS
  0
VERTEX
 10
6.700000
 20
39.100000
 30
0.000000
  8
47
 62
7
  6
CONTINUOUS
  0
VERTEX
 10
6.500000
 20
39.100000
 30
0.000000
  8
47
 62
7
  6
CONTINUOUS
  0
VERTEX
 10
6.500000
 20
38.900000
 30
0.000000
  8
47
 62
7
  6
CONTINUOUS
  0
SEQEND
  0
POLYLINE
  8
47
 62
7
  6
CONTINUOUS
 70
1
 66
1
  0
VERTEX
 10
6.700000
 20
38.500000
 30
0.000000
  8
47
 62
7
  6
CONTINUOUS
  0
VERTEX
 10
6.700000
 20
38.700000
 30
0.000000
  8
47
 62
7
  6
CONTINUOUS
  0
VERTEX
 10
6.500000
 20
38.700000
 30
0.000000
  8
47
 62
7
  6
CONTINUOUS
  0
VERTEX
 10
6.500000
 20
38.500000
 30
0.000000
  8
47
 62
7
  6
CONTINUOUS
  0
SEQEND
  0
POLYLINE
  8
47
 62
7
  6
CONTINUOUS
 70
1
 66
1
  0
VERTEX
 10
6.700000
 20
38.100000
 30
0.000000
  8
47
 62
7
  6
CONTINUOUS
  0
VERTEX
 10
6.700000
 20
38.300000
 30
0.000000
  8
47
 62
7
  6
CONTINUOUS
  0
VERTEX
 10
6.500000
 20
38.300000
 30
0.000000
  8
47
 62
7
  6
CONTINUOUS
  0
VERTEX
 10
6.500000
 20
38.100000
 30
0.000000
  8
47
 62
7
  6
CONTINUOUS
  0
SEQEND
  0
POLYLINE
  8
47
 62
7
  6
CONTINUOUS
 70
1
 66
1
  0
VERTEX
 10
6.700000
 20
37.300000
 30
0.000000
  8
47
 62
7
  6
CONTINUOUS
  0
VERTEX
 10
6.700000
 20
37.500000
 30
0.000000
  8
47
 62
7
  6
CONTINUOUS
  0
VERTEX
 10
6.500000
 20
37.500000
 30
0.000000
  8
47
 62
7
  6
CONTINUOUS
  0
VERTEX
 10
6.500000
 20
37.300000
 30
0.000000
  8
47
 62
7
  6
CONTINUOUS
  0
SEQEND
  0
POLYLINE
  8
47
 62
7
  6
CONTINUOUS
 70
1
 66
1
  0
VERTEX
 10
6.700000
 20
36.900000
 30
0.000000
  8
47
 62
7
  6
CONTINUOUS
  0
VERTEX
 10
6.700000
 20
37.100000
 30
0.000000
  8
47
 62
7
  6
CONTINUOUS
  0
VERTEX
 10
6.500000
 20
37.100000
 30
0.000000
  8
47
 62
7
  6
CONTINUOUS
  0
VERTEX
 10
6.500000
 20
36.900000
 30
0.000000
  8
47
 62
7
  6
CONTINUOUS
  0
SEQEND
  0
POLYLINE
  8
47
 62
7
  6
CONTINUOUS
 70
1
 66
1
  0
VERTEX
 10
6.700000
 20
36.500000
 30
0.000000
  8
47
 62
7
  6
CONTINUOUS
  0
VERTEX
 10
6.700000
 20
36.700000
 30
0.000000
  8
47
 62
7
  6
CONTINUOUS
  0
VERTEX
 10
6.500000
 20
36.700000
 30
0.000000
  8
47
 62
7
  6
CONTINUOUS
  0
VERTEX
 10
6.500000
 20
36.500000
 30
0.000000
  8
47
 62
7
  6
CONTINUOUS
  0
SEQEND
  0
POLYLINE
  8
47
 62
7
  6
CONTINUOUS
 70
1
 66
1
  0
VERTEX
 10
6.700000
 20
36.100000
 30
0.000000
  8
47
 62
7
  6
CONTINUOUS
  0
VERTEX
 10
6.700000
 20
36.300000
 30
0.000000
  8
47
 62
7
  6
CONTINUOUS
  0
VERTEX
 10
6.500000
 20
36.300000
 30
0.000000
  8
47
 62
7
  6
CONTINUOUS
  0
VERTEX
 10
6.500000
 20
36.100000
 30
0.000000
  8
47
 62
7
  6
CONTINUOUS
  0
SEQEND
  0
POLYLINE
  8
47
 62
7
  6
CONTINUOUS
 70
1
 66
1
  0
VERTEX
 10
6.700000
 20
35.700000
 30
0.000000
  8
47
 62
7
  6
CONTINUOUS
  0
VERTEX
 10
6.700000
 20
35.900000
 30
0.000000
  8
47
 62
7
  6
CONTINUOUS
  0
VERTEX
 10
6.500000
 20
35.900000
 30
0.000000
  8
47
 62
7
  6
CONTINUOUS
  0
VERTEX
 10
6.500000
 20
35.700000
 30
0.000000
  8
47
 62
7
  6
CONTINUOUS
  0
SEQEND
  0
POLYLINE
  8
47
 62
7
  6
CONTINUOUS
 70
1
 66
1
  0
VERTEX
 10
6.700000
 20
35.300000
 30
0.000000
  8
47
 62
7
  6
CONTINUOUS
  0
VERTEX
 10
6.700000
 20
35.500000
 30
0.000000
  8
47
 62
7
  6
CONTINUOUS
  0
VERTEX
 10
6.500000
 20
35.500000
 30
0.000000
  8
47
 62
7
  6
CONTINUOUS
  0
VERTEX
 10
6.500000
 20
35.300000
 30
0.000000
  8
47
 62
7
  6
CONTINUOUS
  0
SEQEND
  0
POLYLINE
  8
47
 62
7
  6
CONTINUOUS
 70
1
 66
1
  0
VERTEX
 10
6.700000
 20
34.900000
 30
0.000000
  8
47
 62
7
  6
CONTINUOUS
  0
VERTEX
 10
6.700000
 20
35.100000
 30
0.000000
  8
47
 62
7
  6
CONTINUOUS
  0
VERTEX
 10
6.500000
 20
35.100000
 30
0.000000
  8
47
 62
7
  6
CONTINUOUS
  0
VERTEX
 10
6.500000
 20
34.900000
 30
0.000000
  8
47
 62
7
  6
CONTINUOUS
  0
SEQEND
  0
POLYLINE
  8
47
 62
7
  6
CONTINUOUS
 70
1
 66
1
  0
VERTEX
 10
5.100000
 20
37.700000
 30
0.000000
  8
47
 62
7
  6
CONTINUOUS
  0
VERTEX
 10
5.100000
 20
37.900000
 30
0.000000
  8
47
 62
7
  6
CONTINUOUS
  0
VERTEX
 10
4.900000
 20
37.900000
 30
0.000000
  8
47
 62
7
  6
CONTINUOUS
  0
VERTEX
 10
4.900000
 20
37.700000
 30
0.000000
  8
47
 62
7
  6
CONTINUOUS
  0
SEQEND
  0
POLYLINE
  8
47
 62
7
  6
CONTINUOUS
 70
1
 66
1
  0
VERTEX
 10
5.100000
 20
39.700000
 30
0.000000
  8
47
 62
7
  6
CONTINUOUS
  0
VERTEX
 10
5.100000
 20
39.900000
 30
0.000000
  8
47
 62
7
  6
CONTINUOUS
  0
VERTEX
 10
4.900000
 20
39.900000
 30
0.000000
  8
47
 62
7
  6
CONTINUOUS
  0
VERTEX
 10
4.900000
 20
39.700000
 30
0.000000
  8
47
 62
7
  6
CONTINUOUS
  0
SEQEND
  0
POLYLINE
  8
47
 62
7
  6
CONTINUOUS
 70
1
 66
1
  0
VERTEX
 10
5.100000
 20
39.300000
 30
0.000000
  8
47
 62
7
  6
CONTINUOUS
  0
VERTEX
 10
5.100000
 20
39.500000
 30
0.000000
  8
47
 62
7
  6
CONTINUOUS
  0
VERTEX
 10
4.900000
 20
39.500000
 30
0.000000
  8
47
 62
7
  6
CONTINUOUS
  0
VERTEX
 10
4.900000
 20
39.300000
 30
0.000000
  8
47
 62
7
  6
CONTINUOUS
  0
SEQEND
  0
POLYLINE
  8
47
 62
7
  6
CONTINUOUS
 70
1
 66
1
  0
VERTEX
 10
5.100000
 20
38.900000
 30
0.000000
  8
47
 62
7
  6
CONTINUOUS
  0
VERTEX
 10
5.100000
 20
39.100000
 30
0.000000
  8
47
 62
7
  6
CONTINUOUS
  0
VERTEX
 10
4.900000
 20
39.100000
 30
0.000000
  8
47
 62
7
  6
CONTINUOUS
  0
VERTEX
 10
4.900000
 20
38.900000
 30
0.000000
  8
47
 62
7
  6
CONTINUOUS
  0
SEQEND
  0
POLYLINE
  8
47
 62
7
  6
CONTINUOUS
 70
1
 66
1
  0
VERTEX
 10
5.100000
 20
38.500000
 30
0.000000
  8
47
 62
7
  6
CONTINUOUS
  0
VERTEX
 10
5.100000
 20
38.700000
 30
0.000000
  8
47
 62
7
  6
CONTINUOUS
  0
VERTEX
 10
4.900000
 20
38.700000
 30
0.000000
  8
47
 62
7
  6
CONTINUOUS
  0
VERTEX
 10
4.900000
 20
38.500000
 30
0.000000
  8
47
 62
7
  6
CONTINUOUS
  0
SEQEND
  0
POLYLINE
  8
47
 62
7
  6
CONTINUOUS
 70
1
 66
1
  0
VERTEX
 10
5.100000
 20
38.100000
 30
0.000000
  8
47
 62
7
  6
CONTINUOUS
  0
VERTEX
 10
5.100000
 20
38.300000
 30
0.000000
  8
47
 62
7
  6
CONTINUOUS
  0
VERTEX
 10
4.900000
 20
38.300000
 30
0.000000
  8
47
 62
7
  6
CONTINUOUS
  0
VERTEX
 10
4.900000
 20
38.100000
 30
0.000000
  8
47
 62
7
  6
CONTINUOUS
  0
SEQEND
  0
POLYLINE
  8
47
 62
7
  6
CONTINUOUS
 70
1
 66
1
  0
VERTEX
 10
5.100000
 20
37.300000
 30
0.000000
  8
47
 62
7
  6
CONTINUOUS
  0
VERTEX
 10
5.100000
 20
37.500000
 30
0.000000
  8
47
 62
7
  6
CONTINUOUS
  0
VERTEX
 10
4.900000
 20
37.500000
 30
0.000000
  8
47
 62
7
  6
CONTINUOUS
  0
VERTEX
 10
4.900000
 20
37.300000
 30
0.000000
  8
47
 62
7
  6
CONTINUOUS
  0
SEQEND
  0
POLYLINE
  8
47
 62
7
  6
CONTINUOUS
 70
1
 66
1
  0
VERTEX
 10
5.100000
 20
36.900000
 30
0.000000
  8
47
 62
7
  6
CONTINUOUS
  0
VERTEX
 10
5.100000
 20
37.100000
 30
0.000000
  8
47
 62
7
  6
CONTINUOUS
  0
VERTEX
 10
4.900000
 20
37.100000
 30
0.000000
  8
47
 62
7
  6
CONTINUOUS
  0
VERTEX
 10
4.900000
 20
36.900000
 30
0.000000
  8
47
 62
7
  6
CONTINUOUS
  0
SEQEND
  0
POLYLINE
  8
47
 62
7
  6
CONTINUOUS
 70
1
 66
1
  0
VERTEX
 10
5.100000
 20
36.500000
 30
0.000000
  8
47
 62
7
  6
CONTINUOUS
  0
VERTEX
 10
5.100000
 20
36.700000
 30
0.000000
  8
47
 62
7
  6
CONTINUOUS
  0
VERTEX
 10
4.900000
 20
36.700000
 30
0.000000
  8
47
 62
7
  6
CONTINUOUS
  0
VERTEX
 10
4.900000
 20
36.500000
 30
0.000000
  8
47
 62
7
  6
CONTINUOUS
  0
SEQEND
  0
POLYLINE
  8
47
 62
7
  6
CONTINUOUS
 70
1
 66
1
  0
VERTEX
 10
5.100000
 20
36.100000
 30
0.000000
  8
47
 62
7
  6
CONTINUOUS
  0
VERTEX
 10
5.100000
 20
36.300000
 30
0.000000
  8
47
 62
7
  6
CONTINUOUS
  0
VERTEX
 10
4.900000
 20
36.300000
 30
0.000000
  8
47
 62
7
  6
CONTINUOUS
  0
VERTEX
 10
4.900000
 20
36.100000
 30
0.000000
  8
47
 62
7
  6
CONTINUOUS
  0
SEQEND
  0
POLYLINE
  8
47
 62
7
  6
CONTINUOUS
 70
1
 66
1
  0
VERTEX
 10
5.100000
 20
35.700000
 30
0.000000
  8
47
 62
7
  6
CONTINUOUS
  0
VERTEX
 10
5.100000
 20
35.900000
 30
0.000000
  8
47
 62
7
  6
CONTINUOUS
  0
VERTEX
 10
4.900000
 20
35.900000
 30
0.000000
  8
47
 62
7
  6
CONTINUOUS
  0
VERTEX
 10
4.900000
 20
35.700000
 30
0.000000
  8
47
 62
7
  6
CONTINUOUS
  0
SEQEND
  0
POLYLINE
  8
47
 62
7
  6
CONTINUOUS
 70
1
 66
1
  0
VERTEX
 10
5.100000
 20
35.300000
 30
0.000000
  8
47
 62
7
  6
CONTINUOUS
  0
VERTEX
 10
5.100000
 20
35.500000
 30
0.000000
  8
47
 62
7
  6
CONTINUOUS
  0
VERTEX
 10
4.900000
 20
35.500000
 30
0.000000
  8
47
 62
7
  6
CONTINUOUS
  0
VERTEX
 10
4.900000
 20
35.300000
 30
0.000000
  8
47
 62
7
  6
CONTINUOUS
  0
SEQEND
  0
POLYLINE
  8
47
 62
7
  6
CONTINUOUS
 70
1
 66
1
  0
VERTEX
 10
5.100000
 20
34.900000
 30
0.000000
  8
47
 62
7
  6
CONTINUOUS
  0
VERTEX
 10
5.100000
 20
35.100000
 30
0.000000
  8
47
 62
7
  6
CONTINUOUS
  0
VERTEX
 10
4.900000
 20
35.100000
 30
0.000000
  8
47
 62
7
  6
CONTINUOUS
  0
VERTEX
 10
4.900000
 20
34.900000
 30
0.000000
  8
47
 62
7
  6
CONTINUOUS
  0
SEQEND
  0
ENDBLK
  0
ENDSEC
  0
SECTION
  2
ENTITIES
  0
INSERT
  8
0
 2
uk660mv
 10
0.000000
 20
0.000000
 30
0.0
 50
0.0
  0
INSERT
  8
2
 2
ze226_v
 10
8.800000
 20
4.600000
 30
0.0
 50
0.0
  0
INSERT
  8
3
 2
bl650v
 10
0.000000
 20
0.000000
 30
0.0
 50
0.0
  0
ENDSEC
  0
EOF
