  0
SECTION
  2
HEADER
  9
$ACADVER
  1
AC1009
  9
$INSBASE
 10
0.0
 20
0.0
 30
0.0
  9
$EXTMIN
 10
0.0
 20
0.0
 30
0.0
  9
$EXTMAX
 10
0.000000
 20
0.000000
 30
0.0
  9
$LIMMIN
 10
0.0
 20
0.0
  9
$LIMMAX
 10
0.000000
 20
0.000000
  0
ENDSEC
  0
SECTION
  2
TABLES
  0
TABLE
  2
LTYPE
 70
4
  0
LTYPE
  2
CONTINUOUS
 70
64
  3
Solid line
 72
65
 73
0
 40
0.000000
  0
LTYPE
  2
L000000000000000000
 70
64
  3
Solid line
 72
65
 73
0
 40
0.000000
  0
LTYPE
  2
L000000000000FFFFFF
 70
64
  3
Solid line
 72
65
 73
0
 40
0.000000
  0
LTYPE
  2
L014100000032000000
 70
64
  3
- - - - - - - -
 72
65
 73
2
 40
0.500000
 49
0.300000
 49
-0.200000
  0
ENDTAB
  0
TABLE
  2
LAYER
 70
8
  0
LAYER
  2
0
 70
64
 62
7
  6
CONTINUOUS
  0
LAYER
  2
1
 70
64
 62
7
  6
CONTINUOUS
  0
LAYER
  2
2
 70
64
 62
7
  6
CONTINUOUS
  0
LAYER
  2
3
 70
64
 62
-7
  6
CONTINUOUS
  0
LAYER
  2
4
 70
64
 62
7
  6
CONTINUOUS
  0
LAYER
  2
5
 70
64
 62
7
  6
CONTINUOUS
  0
LAYER
  2
6
 70
64
 62
7
  6
CONTINUOUS
  0
LAYER
  2
7
 70
64
 62
7
  6
CONTINUOUS
  0
LAYER
  2
8
 70
64
 62
7
  6
CONTINUOUS
  0
LAYER
  2
9
 70
64
 62
7
  6
CONTINUOUS
  0
LAYER
  2
10
 70
64
 62
7
  6
CONTINUOUS
  0
LAYER
  2
11
 70
64
 62
7
  6
CONTINUOUS
  0
LAYER
  2
12
 70
64
 62
7
  6
CONTINUOUS
  0
LAYER
  2
13
 70
64
 62
7
  6
CONTINUOUS
  0
LAYER
  2
14
 70
64
 62
7
  6
CONTINUOUS
  0
LAYER
  2
15
 70
64
 62
-7
  6
CONTINUOUS
  0
LAYER
  2
16
 70
64
 62
7
  6
CONTINUOUS
  0
LAYER
  2
17
 70
64
 62
7
  6
CONTINUOUS
  0
LAYER
  2
18
 70
64
 62
7
  6
CONTINUOUS
  0
LAYER
  2
19
 70
64
 62
7
  6
CONTINUOUS
  0
LAYER
  2
20
 70
64
 62
7
  6
CONTINUOUS
  0
LAYER
  2
21
 70
64
 62
7
  6
CONTINUOUS
  0
LAYER
  2
22
 70
64
 62
7
  6
CONTINUOUS
  0
LAYER
  2
23
 70
64
 62
7
  6
CONTINUOUS
  0
LAYER
  2
24
 70
64
 62
7
  6
CONTINUOUS
  0
LAYER
  2
25
 70
64
 62
7
  6
CONTINUOUS
  0
LAYER
  2
26
 70
64
 62
7
  6
CONTINUOUS
  0
LAYER
  2
27
 70
64
 62
7
  6
CONTINUOUS
  0
LAYER
  2
28
 70
64
 62
7
  6
CONTINUOUS
  0
LAYER
  2
29
 70
64
 62
-7
  6
CONTINUOUS
  0
LAYER
  2
30
 70
64
 62
-7
  6
CONTINUOUS
  0
LAYER
  2
31
 70
64
 62
7
  6
CONTINUOUS
  0
LAYER
  2
32
 70
64
 62
7
  6
CONTINUOUS
  0
LAYER
  2
33
 70
64
 62
7
  6
CONTINUOUS
  0
LAYER
  2
34
 70
64
 62
7
  6
CONTINUOUS
  0
LAYER
  2
35
 70
64
 62
7
  6
CONTINUOUS
  0
LAYER
  2
36
 70
64
 62
7
  6
CONTINUOUS
  0
LAYER
  2
37
 70
64
 62
7
  6
CONTINUOUS
  0
LAYER
  2
38
 70
64
 62
-7
  6
CONTINUOUS
  0
LAYER
  2
39
 70
64
 62
-7
  6
CONTINUOUS
  0
LAYER
  2
40
 70
64
 62
7
  6
CONTINUOUS
  0
LAYER
  2
41
 70
64
 62
7
  6
CONTINUOUS
  0
LAYER
  2
42
 70
64
 62
7
  6
CONTINUOUS
  0
LAYER
  2
43
 70
64
 62
7
  6
CONTINUOUS
  0
LAYER
  2
44
 70
64
 62
7
  6
CONTINUOUS
  0
LAYER
  2
45
 70
64
 62
7
  6
CONTINUOUS
  0
LAYER
  2
46
 70
64
 62
7
  6
CONTINUOUS
  0
LAYER
  2
47
 70
64
 62
-7
  6
CONTINUOUS
  0
LAYER
  2
48
 70
64
 62
-7
  6
CONTINUOUS
  0
LAYER
  2
49
 70
64
 62
-7
  6
CONTINUOUS
  0
LAYER
  2
50
 70
64
 62
-7
  6
CONTINUOUS
  0
LAYER
  2
51
 70
64
 62
-7
  6
CONTINUOUS
  0
LAYER
  2
52
 70
64
 62
-7
  6
CONTINUOUS
  0
LAYER
  2
53
 70
64
 62
-7
  6
CONTINUOUS
  0
LAYER
  2
54
 70
64
 62
-7
  6
CONTINUOUS
  0
LAYER
  2
55
 70
64
 62
-7
  6
CONTINUOUS
  0
LAYER
  2
56
 70
64
 62
-7
  6
CONTINUOUS
  0
LAYER
  2
57
 70
64
 62
-7
  6
CONTINUOUS
  0
LAYER
  2
58
 70
64
 62
7
  6
CONTINUOUS
  0
LAYER
  2
59
 70
64
 62
-7
  6
CONTINUOUS
  0
LAYER
  2
60
 70
64
 62
-7
  6
CONTINUOUS
  0
LAYER
  2
61
 70
64
 62
7
  6
CONTINUOUS
  0
LAYER
  2
62
 70
64
 62
7
  6
CONTINUOUS
  0
LAYER
  2
63
 70
64
 62
7
  6
CONTINUOUS
  0
LAYER
  2
64
 70
64
 62
7
  6
CONTINUOUS
  0
LAYER
  2
65
 70
64
 62
7
  6
CONTINUOUS
  0
LAYER
  2
66
 70
64
 62
7
  6
CONTINUOUS
  0
LAYER
  2
67
 70
64
 62
7
  6
CONTINUOUS
  0
LAYER
  2
68
 70
64
 62
7
  6
CONTINUOUS
  0
LAYER
  2
69
 70
64
 62
7
  6
CONTINUOUS
  0
LAYER
  2
70
 70
64
 62
7
  6
CONTINUOUS
  0
LAYER
  2
71
 70
64
 62
7
  6
CONTINUOUS
  0
LAYER
  2
72
 70
64
 62
7
  6
CONTINUOUS
  0
LAYER
  2
73
 70
64
 62
7
  6
CONTINUOUS
  0
LAYER
  2
74
 70
64
 62
7
  6
CONTINUOUS
  0
LAYER
  2
75
 70
64
 62
7
  6
CONTINUOUS
  0
LAYER
  2
76
 70
64
 62
7
  6
CONTINUOUS
  0
LAYER
  2
77
 70
64
 62
7
  6
CONTINUOUS
  0
LAYER
  2
78
 70
64
 62
7
  6
CONTINUOUS
  0
LAYER
  2
79
 70
64
 62
7
  6
CONTINUOUS
  0
LAYER
  2
80
 70
64
 62
7
  6
CONTINUOUS
  0
LAYER
  2
81
 70
64
 62
7
  6
CONTINUOUS
  0
LAYER
  2
82
 70
64
 62
7
  6
CONTINUOUS
  0
LAYER
  2
83
 70
64
 62
7
  6
CONTINUOUS
  0
LAYER
  2
84
 70
64
 62
7
  6
CONTINUOUS
  0
LAYER
  2
85
 70
64
 62
7
  6
CONTINUOUS
  0
LAYER
  2
86
 70
64
 62
7
  6
CONTINUOUS
  0
LAYER
  2
87
 70
64
 62
7
  6
CONTINUOUS
  0
LAYER
  2
88
 70
64
 62
7
  6
CONTINUOUS
  0
LAYER
  2
89
 70
64
 62
7
  6
CONTINUOUS
  0
LAYER
  2
90
 70
64
 62
7
  6
CONTINUOUS
  0
LAYER
  2
91
 70
64
 62
7
  6
CONTINUOUS
  0
LAYER
  2
92
 70
64
 62
7
  6
CONTINUOUS
  0
LAYER
  2
93
 70
64
 62
7
  6
CONTINUOUS
  0
LAYER
  2
94
 70
64
 62
7
  6
CONTINUOUS
  0
LAYER
  2
95
 70
64
 62
7
  6
CONTINUOUS
  0
LAYER
  2
96
 70
64
 62
7
  6
CONTINUOUS
  0
LAYER
  2
97
 70
64
 62
7
  6
CONTINUOUS
  0
LAYER
  2
98
 70
64
 62
7
  6
CONTINUOUS
  0
LAYER
  2
99
 70
64
 62
7
  6
CONTINUOUS
  0
LAYER
  2
100
 70
64
 62
7
  6
CONTINUOUS
  0
LAYER
  2
101
 70
64
 62
7
  6
CONTINUOUS
  0
LAYER
  2
102
 70
64
 62
7
  6
CONTINUOUS
  0
LAYER
  2
103
 70
64
 62
7
  6
CONTINUOUS
  0
LAYER
  2
104
 70
64
 62
7
  6
CONTINUOUS
  0
LAYER
  2
105
 70
64
 62
7
  6
CONTINUOUS
  0
LAYER
  2
106
 70
64
 62
7
  6
CONTINUOUS
  0
LAYER
  2
107
 70
64
 62
7
  6
CONTINUOUS
  0
LAYER
  2
108
 70
64
 62
7
  6
CONTINUOUS
  0
LAYER
  2
109
 70
64
 62
7
  6
CONTINUOUS
  0
LAYER
  2
110
 70
64
 62
7
  6
CONTINUOUS
  0
LAYER
  2
111
 70
64
 62
7
  6
CONTINUOUS
  0
LAYER
  2
112
 70
64
 62
7
  6
CONTINUOUS
  0
LAYER
  2
113
 70
64
 62
7
  6
CONTINUOUS
  0
LAYER
  2
114
 70
64
 62
7
  6
CONTINUOUS
  0
LAYER
  2
115
 70
64
 62
7
  6
CONTINUOUS
  0
LAYER
  2
116
 70
64
 62
7
  6
CONTINUOUS
  0
LAYER
  2
117
 70
64
 62
7
  6
CONTINUOUS
  0
LAYER
  2
118
 70
64
 62
7
  6
CONTINUOUS
  0
LAYER
  2
119
 70
64
 62
7
  6
CONTINUOUS
  0
LAYER
  2
120
 70
64
 62
7
  6
CONTINUOUS
  0
LAYER
  2
121
 70
64
 62
7
  6
CONTINUOUS
  0
LAYER
  2
122
 70
64
 62
7
  6
CONTINUOUS
  0
LAYER
  2
123
 70
64
 62
7
  6
CONTINUOUS
  0
LAYER
  2
124
 70
64
 62
7
  6
CONTINUOUS
  0
LAYER
  2
125
 70
64
 62
7
  6
CONTINUOUS
  0
LAYER
  2
126
 70
64
 62
7
  6
CONTINUOUS
  0
LAYER
  2
127
 70
64
 62
7
  6
CONTINUOUS
  0
LAYER
  2
128
 70
64
 62
7
  6
CONTINUOUS
  0
LAYER
  2
129
 70
64
 62
7
  6
CONTINUOUS
  0
LAYER
  2
130
 70
64
 62
7
  6
CONTINUOUS
  0
LAYER
  2
131
 70
64
 62
7
  6
CONTINUOUS
  0
LAYER
  2
132
 70
64
 62
7
  6
CONTINUOUS
  0
LAYER
  2
133
 70
64
 62
7
  6
CONTINUOUS
  0
LAYER
  2
134
 70
64
 62
7
  6
CONTINUOUS
  0
LAYER
  2
135
 70
64
 62
7
  6
CONTINUOUS
  0
LAYER
  2
136
 70
64
 62
7
  6
CONTINUOUS
  0
LAYER
  2
137
 70
64
 62
7
  6
CONTINUOUS
  0
LAYER
  2
138
 70
64
 62
7
  6
CONTINUOUS
  0
LAYER
  2
139
 70
64
 62
7
  6
CONTINUOUS
  0
LAYER
  2
140
 70
64
 62
7
  6
CONTINUOUS
  0
LAYER
  2
141
 70
64
 62
7
  6
CONTINUOUS
  0
LAYER
  2
142
 70
64
 62
7
  6
CONTINUOUS
  0
LAYER
  2
143
 70
64
 62
7
  6
CONTINUOUS
  0
LAYER
  2
144
 70
64
 62
7
  6
CONTINUOUS
  0
LAYER
  2
145
 70
64
 62
7
  6
CONTINUOUS
  0
LAYER
  2
146
 70
64
 62
7
  6
CONTINUOUS
  0
LAYER
  2
147
 70
64
 62
7
  6
CONTINUOUS
  0
LAYER
  2
148
 70
64
 62
7
  6
CONTINUOUS
  0
LAYER
  2
149
 70
64
 62
7
  6
CONTINUOUS
  0
LAYER
  2
150
 70
64
 62
7
  6
CONTINUOUS
  0
LAYER
  2
151
 70
64
 62
7
  6
CONTINUOUS
  0
LAYER
  2
152
 70
64
 62
7
  6
CONTINUOUS
  0
LAYER
  2
153
 70
64
 62
7
  6
CONTINUOUS
  0
LAYER
  2
154
 70
64
 62
7
  6
CONTINUOUS
  0
LAYER
  2
155
 70
64
 62
-7
  6
CONTINUOUS
  0
LAYER
  2
156
 70
64
 62
-7
  6
CONTINUOUS
  0
LAYER
  2
157
 70
64
 62
-7
  6
CONTINUOUS
  0
LAYER
  2
158
 70
64
 62
-7
  6
CONTINUOUS
  0
LAYER
  2
159
 70
64
 62
-7
  6
CONTINUOUS
  0
LAYER
  2
160
 70
64
 62
-7
  6
CONTINUOUS
  0
LAYER
  2
161
 70
64
 62
-7
  6
CONTINUOUS
  0
LAYER
  2
162
 70
64
 62
-7
  6
CONTINUOUS
  0
LAYER
  2
163
 70
64
 62
-7
  6
CONTINUOUS
  0
LAYER
  2
164
 70
64
 62
7
  6
CONTINUOUS
  0
LAYER
  2
165
 70
64
 62
7
  6
CONTINUOUS
  0
LAYER
  2
166
 70
64
 62
7
  6
CONTINUOUS
  0
LAYER
  2
167
 70
64
 62
7
  6
CONTINUOUS
  0
LAYER
  2
168
 70
64
 62
7
  6
CONTINUOUS
  0
LAYER
  2
169
 70
64
 62
7
  6
CONTINUOUS
  0
LAYER
  2
170
 70
64
 62
7
  6
CONTINUOUS
  0
LAYER
  2
171
 70
64
 62
7
  6
CONTINUOUS
  0
LAYER
  2
172
 70
64
 62
7
  6
CONTINUOUS
  0
LAYER
  2
173
 70
64
 62
7
  6
CONTINUOUS
  0
LAYER
  2
174
 70
64
 62
7
  6
CONTINUOUS
  0
LAYER
  2
175
 70
64
 62
7
  6
CONTINUOUS
  0
LAYER
  2
176
 70
64
 62
7
  6
CONTINUOUS
  0
LAYER
  2
177
 70
64
 62
7
  6
CONTINUOUS
  0
LAYER
  2
178
 70
64
 62
7
  6
CONTINUOUS
  0
LAYER
  2
179
 70
64
 62
7
  6
CONTINUOUS
  0
LAYER
  2
180
 70
64
 62
7
  6
CONTINUOUS
  0
LAYER
  2
181
 70
64
 62
7
  6
CONTINUOUS
  0
LAYER
  2
182
 70
64
 62
7
  6
CONTINUOUS
  0
LAYER
  2
183
 70
64
 62
7
  6
CONTINUOUS
  0
LAYER
  2
184
 70
64
 62
7
  6
CONTINUOUS
  0
LAYER
  2
185
 70
64
 62
7
  6
CONTINUOUS
  0
LAYER
  2
186
 70
64
 62
7
  6
CONTINUOUS
  0
LAYER
  2
187
 70
64
 62
7
  6
CONTINUOUS
  0
LAYER
  2
188
 70
64
 62
7
  6
CONTINUOUS
  0
LAYER
  2
189
 70
64
 62
7
  6
CONTINUOUS
  0
LAYER
  2
190
 70
64
 62
7
  6
CONTINUOUS
  0
LAYER
  2
191
 70
64
 62
7
  6
CONTINUOUS
  0
LAYER
  2
192
 70
64
 62
7
  6
CONTINUOUS
  0
LAYER
  2
193
 70
64
 62
7
  6
CONTINUOUS
  0
LAYER
  2
194
 70
64
 62
7
  6
CONTINUOUS
  0
LAYER
  2
195
 70
64
 62
7
  6
CONTINUOUS
  0
LAYER
  2
196
 70
64
 62
7
  6
CONTINUOUS
  0
LAYER
  2
197
 70
64
 62
7
  6
CONTINUOUS
  0
LAYER
  2
198
 70
64
 62
7
  6
CONTINUOUS
  0
LAYER
  2
199
 70
64
 62
7
  6
CONTINUOUS
  0
ENDTAB
  0
ENDSEC
  0
SECTION
  2
BLOCKS
  0
BLOCK
  8
0
  2
ukb3bok13d
 70
 0
 10
0.0
 20
0.0
 30
0.0
  0
POLYLINE
  8
0
 62
7
  6
CONTINUOUS
 70
1
 66
1
  0
VERTEX
 10
36.400000
 20
59.700000
 30
0.000000
  8
0
 62
7
  6
CONTINUOUS
  0
VERTEX
 10
36.400000
 20
0.000000
 30
0.000000
  8
0
 62
7
  6
CONTINUOUS
  0
VERTEX
 10
0.000000
 20
0.000000
 30
0.000000
  8
0
 62
7
  6
CONTINUOUS
  0
VERTEX
 10
0.000000
 20
59.700000
 30
0.000000
  8
0
 62
7
  6
CONTINUOUS
  0
SEQEND
  0
POLYLINE
  8
0
 62
7
  6
CONTINUOUS
 70
1
 66
1
  0
VERTEX
 10
34.600000
 20
1.800000
 30
0.000000
  8
0
 62
7
  6
CONTINUOUS
  0
VERTEX
 10
34.600000
 20
57.900000
 30
0.000000
  8
0
 62
7
  6
CONTINUOUS
  0
VERTEX
 10
1.800000
 20
57.900000
 30
0.000000
  8
0
 62
7
  6
CONTINUOUS
  0
VERTEX
 10
1.800000
 20
1.800000
 30
0.000000
  8
0
 62
7
  6
CONTINUOUS
  0
SEQEND
  0
POLYLINE
  8
0
 62
7
  6
CONTINUOUS
 70
1
 66
1
  0
VERTEX
 10
32.700000
 20
1.800000
 30
0.000000
  8
0
 62
7
  6
CONTINUOUS
  0
VERTEX
 10
32.700000
 20
57.900000
 30
0.000000
  8
0
 62
7
  6
CONTINUOUS
  0
VERTEX
 10
3.700000
 20
57.900000
 30
0.000000
  8
0
 62
7
  6
CONTINUOUS
  0
VERTEX
 10
3.700000
 20
1.800000
 30
0.000000
  8
0
 62
7
  6
CONTINUOUS
  0
SEQEND
  0
POLYLINE
  8
0
 62
7
  6
CONTINUOUS
 70
0
 66
1
  0
VERTEX
 10
5.300000
 20
59.700000
  8
0
 62
7
  6
CONTINUOUS
  0
VERTEX
 10
5.300000
 20
57.900000
  8
0
 62
7
  6
CONTINUOUS
  0
SEQEND
  0
POLYLINE
  8
0
 62
7
  6
CONTINUOUS
 70
0
 66
1
  0
VERTEX
 10
31.100000
 20
59.700000
  8
0
 62
7
  6
CONTINUOUS
  0
VERTEX
 10
31.100000
 20
57.900000
  8
0
 62
7
  6
CONTINUOUS
  0
SEQEND
  0
POLYLINE
  8
0
 62
7
  6
CONTINUOUS
 70
0
 66
1
  0
VERTEX
 10
5.300000
 20
1.800000
  8
0
 62
7
  6
CONTINUOUS
  0
VERTEX
 10
5.300000
 20
0.000000
  8
0
 62
7
  6
CONTINUOUS
  0
SEQEND
  0
POLYLINE
  8
0
 62
7
  6
CONTINUOUS
 70
0
 66
1
  0
VERTEX
 10
31.100000
 20
1.800000
  8
0
 62
7
  6
CONTINUOUS
  0
VERTEX
 10
31.100000
 20
0.000000
  8
0
 62
7
  6
CONTINUOUS
  0
SEQEND
  0
CIRCLE
  8
0
 62
7
  6
L000000000000000000
 10
21.400000
 20
50.600000
 30
0.0
 40
1.300000
  0
CIRCLE
  8
0
 62
7
  6
L000000000000000000
 10
15.000000
 20
50.600000
 30
0.0
 40
1.300000
  0
CIRCLE
  8
0
 62
7
  6
L000000000000000000
 10
11.500000
 20
50.600000
 30
0.0
 40
1.300000
  0
CIRCLE
  8
0
 62
7
  6
L000000000000000000
 10
24.900000
 20
50.600000
 30
0.0
 40
1.300000
  0
CIRCLE
  8
0
 62
7
  6
L000000000000000000
 10
8.000000
 20
50.600000
 30
0.0
 40
1.300000
  0
CIRCLE
  8
0
 62
7
  6
L000000000000000000
 10
28.400000
 20
50.600000
 30
0.0
 40
1.300000
  0
CIRCLE
  8
0
 62
7
  6
L000000000000000000
 10
8.000000
 20
9.100000
 30
0.0
 40
1.300000
  0
CIRCLE
  8
0
 62
7
  6
L000000000000000000
 10
11.500000
 20
9.100000
 30
0.0
 40
1.300000
  0
CIRCLE
  8
0
 62
7
  6
L000000000000000000
 10
15.000000
 20
9.100000
 30
0.0
 40
1.300000
  0
CIRCLE
  8
0
 62
7
  6
L000000000000000000
 10
21.400000
 20
9.100000
 30
0.0
 40
1.300000
  0
CIRCLE
  8
0
 62
7
  6
L000000000000000000
 10
24.900000
 20
9.100000
 30
0.0
 40
1.300000
  0
CIRCLE
  8
0
 62
7
  6
L000000000000000000
 10
28.400000
 20
9.100000
 30
0.0
 40
1.300000
  0
POLYLINE
  8
0
 62
7
  6
L000000000000000000
 70
1
 66
1
  0
VERTEX
 10
6.100000
 20
48.600000
  8
0
 62
7
  6
L000000000000000000
  0
VERTEX
 10
7.300000
 20
47.800000
  8
0
 62
7
  6
L000000000000000000
  0
VERTEX
 10
7.300000
 20
11.900000
  8
0
 62
7
  6
L000000000000000000
  0
VERTEX
 10
6.100000
 20
11.100000
  8
0
 62
7
  6
L000000000000000000
  0
SEQEND
  0
POLYLINE
  8
0
 62
7
  6
L000000000000000000
 70
1
 66
1
  0
VERTEX
 10
30.300000
 20
48.600000
  8
0
 62
7
  6
L000000000000000000
  0
VERTEX
 10
29.100000
 20
47.800000
  8
0
 62
7
  6
L000000000000000000
  0
VERTEX
 10
29.100000
 20
11.900000
  8
0
 62
7
  6
L000000000000000000
  0
VERTEX
 10
30.300000
 20
11.100000
  8
0
 62
7
  6
L000000000000000000
  0
SEQEND
  0
POLYLINE
  8
0
 62
7
  6
CONTINUOUS
 70
0
 66
1
  0
VERTEX
 10
3.700000
 20
56.500000
  8
0
 62
7
  6
CONTINUOUS
  0
VERTEX
 10
32.700000
 20
56.500000
  8
0
 62
7
  6
CONTINUOUS
  0
SEQEND
  0
POLYLINE
  8
0
 62
7
  6
CONTINUOUS
 70
0
 66
1
  0
VERTEX
 10
3.700000
 20
3.200000
  8
0
 62
7
  6
CONTINUOUS
  0
VERTEX
 10
32.700000
 20
3.200000
  8
0
 62
7
  6
CONTINUOUS
  0
SEQEND
  0
CIRCLE
  8
0
 62
7
  6
CONTINUOUS
 10
33.700000
 20
56.500000
 30
0.0
 40
0.800000
  0
CIRCLE
  8
0
 62
7
  6
CONTINUOUS
 10
2.700000
 20
56.500000
 30
0.0
 40
0.800000
  0
CIRCLE
  8
0
 62
7
  6
CONTINUOUS
 10
2.700000
 20
3.200000
 30
0.0
 40
0.800000
  0
CIRCLE
  8
0
 62
7
  6
CONTINUOUS
 10
33.700000
 20
3.200000
 30
0.0
 40
0.800000
  0
CIRCLE
  8
0
 62
7
  6
CONTINUOUS
 10
15.700000
 20
55.800000
 30
0.0
 40
0.500000
  0
CIRCLE
  8
0
 62
7
  6
CONTINUOUS
 10
20.700000
 20
3.900000
 30
0.0
 40
0.500000
  0
POLYLINE
  8
0
 62
7
  6
CONTINUOUS
 70
0
 66
1
  0
VERTEX
 10
3.700000
 20
4.600000
  8
0
 62
7
  6
CONTINUOUS
  0
VERTEX
 10
32.700000
 20
4.600000
  8
0
 62
7
  6
CONTINUOUS
  0
SEQEND
  0
POLYLINE
  8
0
 62
7
  6
CONTINUOUS
 70
0
 66
1
  0
VERTEX
 10
3.700000
 20
55.100000
  8
0
 62
7
  6
CONTINUOUS
  0
VERTEX
 10
32.700000
 20
55.100000
  8
0
 62
7
  6
CONTINUOUS
  0
SEQEND
  0
POLYLINE
  8
0
 62
7
  6
CONTINUOUS
 70
1
 66
1
  0
VERTEX
 10
16.300000
 20
55.200000
 30
0.000000
  8
0
 62
7
  6
CONTINUOUS
  0
VERTEX
 10
16.300000
 20
56.400000
 30
0.000000
  8
0
 62
7
  6
CONTINUOUS
  0
VERTEX
 10
15.100000
 20
56.400000
 30
0.000000
  8
0
 62
7
  6
CONTINUOUS
  0
VERTEX
 10
15.100000
 20
55.200000
 30
0.000000
  8
0
 62
7
  6
CONTINUOUS
  0
SEQEND
  0
POLYLINE
  8
0
 62
7
  6
CONTINUOUS
 70
1
 66
1
  0
VERTEX
 10
21.300000
 20
3.300000
 30
0.000000
  8
0
 62
7
  6
CONTINUOUS
  0
VERTEX
 10
21.300000
 20
4.500000
 30
0.000000
  8
0
 62
7
  6
CONTINUOUS
  0
VERTEX
 10
20.100000
 20
4.500000
 30
0.000000
  8
0
 62
7
  6
CONTINUOUS
  0
VERTEX
 10
20.100000
 20
3.300000
 30
0.000000
  8
0
 62
7
  6
CONTINUOUS
  0
SEQEND
  0
POLYLINE
  8
0
 62
7
  6
CONTINUOUS
 70
1
 66
1
  0
VERTEX
 10
21.100000
 20
3.300000
 30
0.000000
  8
0
 62
7
  6
CONTINUOUS
  0
VERTEX
 10
21.100000
 20
4.500000
 30
0.000000
  8
0
 62
7
  6
CONTINUOUS
  0
VERTEX
 10
20.300000
 20
4.500000
 30
0.000000
  8
0
 62
7
  6
CONTINUOUS
  0
VERTEX
 10
20.300000
 20
3.300000
 30
0.000000
  8
0
 62
7
  6
CONTINUOUS
  0
SEQEND
  0
POLYLINE
  8
0
 62
7
  6
CONTINUOUS
 70
1
 66
1
  0
VERTEX
 10
16.100000
 20
55.200000
 30
0.000000
  8
0
 62
7
  6
CONTINUOUS
  0
VERTEX
 10
16.100000
 20
56.400000
 30
0.000000
  8
0
 62
7
  6
CONTINUOUS
  0
VERTEX
 10
15.300000
 20
56.400000
 30
0.000000
  8
0
 62
7
  6
CONTINUOUS
  0
VERTEX
 10
15.300000
 20
55.200000
 30
0.000000
  8
0
 62
7
  6
CONTINUOUS
  0
SEQEND
  0
CIRCLE
  8
0
 62
7
  6
L000000000000000000
 10
18.200000
 20
50.600000
 30
0.0
 40
1.300000
  0
CIRCLE
  8
0
 62
7
  6
CONTINUOUS
 10
2.700000
 20
8.600000
 30
0.0
 40
1.000000
  0
CIRCLE
  8
0
 62
7
  6
CONTINUOUS
 10
33.700000
 20
8.600000
 30
0.0
 40
1.000000
  0
CIRCLE
  8
0
 62
7
  6
CONTINUOUS
 10
2.700000
 20
51.000000
 30
0.0
 40
1.000000
  0
CIRCLE
  8
0
 62
7
  6
CONTINUOUS
 10
33.700000
 20
51.000000
 30
0.0
 40
1.000000
  0
CIRCLE
  8
0
 62
7
  6
L000000000000000000
 10
11.500000
 20
35.000000
 30
0.0
 40
1.300000
  0
CIRCLE
  8
0
 62
7
  6
L000000000000000000
 10
24.900000
 20
35.000000
 30
0.0
 40
1.300000
  0
CIRCLE
  8
0
 62
7
  6
L000000000000000000
 10
21.400000
 20
35.000000
 30
0.0
 40
1.300000
  0
CIRCLE
  8
0
 62
7
  6
L000000000000000000
 10
15.000000
 20
35.000000
 30
0.0
 40
1.300000
  0
CIRCLE
  8
0
 62
7
  6
L000000000000000000
 10
11.500000
 20
22.500000
 30
0.0
 40
1.300000
  0
CIRCLE
  8
0
 62
7
  6
L000000000000000000
 10
15.000000
 20
22.500000
 30
0.0
 40
1.300000
  0
CIRCLE
  8
0
 62
7
  6
L000000000000000000
 10
24.900000
 20
22.500000
 30
0.0
 40
1.300000
  0
CIRCLE
  8
0
 62
7
  6
L000000000000000000
 10
21.400000
 20
22.500000
 30
0.0
 40
1.300000
  0
POLYLINE
  8
1
 62
7
  6
CONTINUOUS
 70
1
 66
1
  0
VERTEX
 10
33.500000
 20
2.600000
 30
0.000000
  8
1
 62
7
  6
CONTINUOUS
  0
VERTEX
 10
33.500000
 20
57.100000
 30
0.000000
  8
1
 62
7
  6
CONTINUOUS
  0
VERTEX
 10
2.900000
 20
57.100000
 30
0.000000
  8
1
 62
7
  6
CONTINUOUS
  0
VERTEX
 10
2.900000
 20
2.600000
 30
0.000000
  8
1
 62
7
  6
CONTINUOUS
  0
SEQEND
  0
POLYLINE
  8
1
 62
7
  6
CONTINUOUS
 70
1
 66
1
  0
VERTEX
 10
29.000000
 20
18.500000
 30
0.000000
  8
1
 62
7
  6
CONTINUOUS
  0
VERTEX
 10
29.000000
 20
13.900000
 30
0.000000
  8
1
 62
7
  6
CONTINUOUS
  0
VERTEX
 10
7.400000
 20
13.900000
 30
0.000000
  8
1
 62
7
  6
CONTINUOUS
  0
VERTEX
 10
7.400000
 20
18.500000
 30
0.000000
  8
1
 62
7
  6
CONTINUOUS
  0
SEQEND
  0
POLYLINE
  8
1
 62
7
  6
CONTINUOUS
 70
0
 66
1
  0
VERTEX
 10
9.200000
 20
13.900000
  8
1
 62
7
  6
CONTINUOUS
  0
VERTEX
 10
9.200000
 20
15.000000
  8
1
 62
7
  6
CONTINUOUS
  0
SEQEND
  0
POLYLINE
  8
1
 62
7
  6
CONTINUOUS
 70
0
 66
1
  0
VERTEX
 10
11.000000
 20
13.900000
  8
1
 62
7
  6
CONTINUOUS
  0
VERTEX
 10
11.000000
 20
15.000000
  8
1
 62
7
  6
CONTINUOUS
  0
VERTEX
 10
11.000000
 20
15.000000
  8
1
 62
7
  6
CONTINUOUS
  0
SEQEND
  0
POLYLINE
  8
1
 62
7
  6
CONTINUOUS
 70
0
 66
1
  0
VERTEX
 10
12.800000
 20
13.900000
  8
1
 62
7
  6
CONTINUOUS
  0
VERTEX
 10
12.800000
 20
15.000000
  8
1
 62
7
  6
CONTINUOUS
  0
SEQEND
  0
POLYLINE
  8
1
 62
7
  6
CONTINUOUS
 70
0
 66
1
  0
VERTEX
 10
14.600000
 20
13.900000
  8
1
 62
7
  6
CONTINUOUS
  0
VERTEX
 10
14.600000
 20
15.000000
  8
1
 62
7
  6
CONTINUOUS
  0
SEQEND
  0
POLYLINE
  8
1
 62
7
  6
CONTINUOUS
 70
0
 66
1
  0
VERTEX
 10
16.400000
 20
13.900000
  8
1
 62
7
  6
CONTINUOUS
  0
VERTEX
 10
16.400000
 20
15.000000
  8
1
 62
7
  6
CONTINUOUS
  0
SEQEND
  0
POLYLINE
  8
1
 62
7
  6
CONTINUOUS
 70
0
 66
1
  0
VERTEX
 10
18.200000
 20
13.900000
  8
1
 62
7
  6
CONTINUOUS
  0
VERTEX
 10
18.200000
 20
15.000000
  8
1
 62
7
  6
CONTINUOUS
  0
SEQEND
  0
POLYLINE
  8
1
 62
7
  6
CONTINUOUS
 70
0
 66
1
  0
VERTEX
 10
20.000000
 20
13.900000
  8
1
 62
7
  6
CONTINUOUS
  0
VERTEX
 10
20.000000
 20
15.000000
  8
1
 62
7
  6
CONTINUOUS
  0
SEQEND
  0
POLYLINE
  8
1
 62
7
  6
CONTINUOUS
 70
0
 66
1
  0
VERTEX
 10
21.800000
 20
13.900000
  8
1
 62
7
  6
CONTINUOUS
  0
VERTEX
 10
21.800000
 20
15.000000
  8
1
 62
7
  6
CONTINUOUS
  0
SEQEND
  0
POLYLINE
  8
1
 62
7
  6
CONTINUOUS
 70
0
 66
1
  0
VERTEX
 10
23.600000
 20
13.900000
  8
1
 62
7
  6
CONTINUOUS
  0
VERTEX
 10
23.600000
 20
15.000000
  8
1
 62
7
  6
CONTINUOUS
  0
SEQEND
  0
POLYLINE
  8
1
 62
7
  6
CONTINUOUS
 70
0
 66
1
  0
VERTEX
 10
25.400000
 20
13.900000
  8
1
 62
7
  6
CONTINUOUS
  0
VERTEX
 10
25.400000
 20
15.000000
  8
1
 62
7
  6
CONTINUOUS
  0
SEQEND
  0
POLYLINE
  8
1
 62
7
  6
CONTINUOUS
 70
0
 66
1
  0
VERTEX
 10
27.200000
 20
13.900000
  8
1
 62
7
  6
CONTINUOUS
  0
VERTEX
 10
27.200000
 20
15.000000
  8
1
 62
7
  6
CONTINUOUS
  0
SEQEND
  0
POLYLINE
  8
1
 62
7
  6
L014100000032000000
 70
0
 66
1
  0
VERTEX
 10
7.400000
 20
18.500000
  8
1
 62
7
  6
L014100000032000000
  0
VERTEX
 10
5.400000
 20
18.500000
  8
1
 62
7
  6
L014100000032000000
  0
VERTEX
 10
5.400000
 20
13.900000
  8
1
 62
7
  6
L014100000032000000
  0
VERTEX
 10
7.400000
 20
13.900000
  8
1
 62
7
  6
L014100000032000000
  0
SEQEND
  0
POLYLINE
  8
1
 62
7
  6
L014100000032000000
 70
0
 66
1
  0
VERTEX
 10
29.000000
 20
18.500000
  8
1
 62
7
  6
L014100000032000000
  0
VERTEX
 10
31.000000
 20
18.500000
  8
1
 62
7
  6
L014100000032000000
  0
VERTEX
 10
31.000000
 20
13.900000
  8
1
 62
7
  6
L014100000032000000
  0
VERTEX
 10
29.000000
 20
13.900000
  8
1
 62
7
  6
L014100000032000000
  0
SEQEND
  0
POLYLINE
  8
1
 62
7
  6
CONTINUOUS
 70
1
 66
1
  0
VERTEX
 10
29.000000
 20
31.000000
 30
0.000000
  8
1
 62
7
  6
CONTINUOUS
  0
VERTEX
 10
29.000000
 20
26.400000
 30
0.000000
  8
1
 62
7
  6
CONTINUOUS
  0
VERTEX
 10
7.400000
 20
26.400000
 30
0.000000
  8
1
 62
7
  6
CONTINUOUS
  0
VERTEX
 10
7.400000
 20
31.000000
 30
0.000000
  8
1
 62
7
  6
CONTINUOUS
  0
SEQEND
  0
POLYLINE
  8
1
 62
7
  6
CONTINUOUS
 70
0
 66
1
  0
VERTEX
 10
9.200000
 20
26.400000
  8
1
 62
7
  6
CONTINUOUS
  0
VERTEX
 10
9.200000
 20
27.500000
  8
1
 62
7
  6
CONTINUOUS
  0
SEQEND
  0
POLYLINE
  8
1
 62
7
  6
CONTINUOUS
 70
0
 66
1
  0
VERTEX
 10
11.000000
 20
26.400000
  8
1
 62
7
  6
CONTINUOUS
  0
VERTEX
 10
11.000000
 20
27.500000
  8
1
 62
7
  6
CONTINUOUS
  0
VERTEX
 10
11.000000
 20
27.500000
  8
1
 62
7
  6
CONTINUOUS
  0
SEQEND
  0
POLYLINE
  8
1
 62
7
  6
CONTINUOUS
 70
0
 66
1
  0
VERTEX
 10
12.800000
 20
26.400000
  8
1
 62
7
  6
CONTINUOUS
  0
VERTEX
 10
12.800000
 20
27.500000
  8
1
 62
7
  6
CONTINUOUS
  0
SEQEND
  0
POLYLINE
  8
1
 62
7
  6
CONTINUOUS
 70
0
 66
1
  0
VERTEX
 10
14.600000
 20
26.400000
  8
1
 62
7
  6
CONTINUOUS
  0
VERTEX
 10
14.600000
 20
27.500000
  8
1
 62
7
  6
CONTINUOUS
  0
SEQEND
  0
POLYLINE
  8
1
 62
7
  6
CONTINUOUS
 70
0
 66
1
  0
VERTEX
 10
16.400000
 20
26.400000
  8
1
 62
7
  6
CONTINUOUS
  0
VERTEX
 10
16.400000
 20
27.500000
  8
1
 62
7
  6
CONTINUOUS
  0
SEQEND
  0
POLYLINE
  8
1
 62
7
  6
CONTINUOUS
 70
0
 66
1
  0
VERTEX
 10
18.200000
 20
26.400000
  8
1
 62
7
  6
CONTINUOUS
  0
VERTEX
 10
18.200000
 20
27.500000
  8
1
 62
7
  6
CONTINUOUS
  0
SEQEND
  0
POLYLINE
  8
1
 62
7
  6
CONTINUOUS
 70
0
 66
1
  0
VERTEX
 10
20.000000
 20
26.400000
  8
1
 62
7
  6
CONTINUOUS
  0
VERTEX
 10
20.000000
 20
27.500000
  8
1
 62
7
  6
CONTINUOUS
  0
SEQEND
  0
POLYLINE
  8
1
 62
7
  6
CONTINUOUS
 70
0
 66
1
  0
VERTEX
 10
21.800000
 20
26.400000
  8
1
 62
7
  6
CONTINUOUS
  0
VERTEX
 10
21.800000
 20
27.500000
  8
1
 62
7
  6
CONTINUOUS
  0
SEQEND
  0
POLYLINE
  8
1
 62
7
  6
CONTINUOUS
 70
0
 66
1
  0
VERTEX
 10
23.600000
 20
26.400000
  8
1
 62
7
  6
CONTINUOUS
  0
VERTEX
 10
23.600000
 20
27.500000
  8
1
 62
7
  6
CONTINUOUS
  0
SEQEND
  0
POLYLINE
  8
1
 62
7
  6
CONTINUOUS
 70
0
 66
1
  0
VERTEX
 10
25.400000
 20
26.400000
  8
1
 62
7
  6
CONTINUOUS
  0
VERTEX
 10
25.400000
 20
27.500000
  8
1
 62
7
  6
CONTINUOUS
  0
SEQEND
  0
POLYLINE
  8
1
 62
7
  6
CONTINUOUS
 70
0
 66
1
  0
VERTEX
 10
27.200000
 20
26.400000
  8
1
 62
7
  6
CONTINUOUS
  0
VERTEX
 10
27.200000
 20
27.500000
  8
1
 62
7
  6
CONTINUOUS
  0
SEQEND
  0
POLYLINE
  8
1
 62
7
  6
L014100000032000000
 70
0
 66
1
  0
VERTEX
 10
7.400000
 20
31.000000
  8
1
 62
7
  6
L014100000032000000
  0
VERTEX
 10
5.400000
 20
31.000000
  8
1
 62
7
  6
L014100000032000000
  0
VERTEX
 10
5.400000
 20
26.400000
  8
1
 62
7
  6
L014100000032000000
  0
VERTEX
 10
7.400000
 20
26.400000
  8
1
 62
7
  6
L014100000032000000
  0
SEQEND
  0
POLYLINE
  8
1
 62
7
  6
L014100000032000000
 70
0
 66
1
  0
VERTEX
 10
29.000000
 20
31.000000
  8
1
 62
7
  6
L014100000032000000
  0
VERTEX
 10
31.000000
 20
31.000000
  8
1
 62
7
  6
L014100000032000000
  0
VERTEX
 10
31.000000
 20
26.400000
  8
1
 62
7
  6
L014100000032000000
  0
VERTEX
 10
29.000000
 20
26.400000
  8
1
 62
7
  6
L014100000032000000
  0
SEQEND
  0
POLYLINE
  8
1
 62
7
  6
CONTINUOUS
 70
1
 66
1
  0
VERTEX
 10
29.000000
 20
43.500000
 30
0.000000
  8
1
 62
7
  6
CONTINUOUS
  0
VERTEX
 10
29.000000
 20
38.900000
 30
0.000000
  8
1
 62
7
  6
CONTINUOUS
  0
VERTEX
 10
7.400000
 20
38.900000
 30
0.000000
  8
1
 62
7
  6
CONTINUOUS
  0
VERTEX
 10
7.400000
 20
43.500000
 30
0.000000
  8
1
 62
7
  6
CONTINUOUS
  0
SEQEND
  0
POLYLINE
  8
1
 62
7
  6
CONTINUOUS
 70
0
 66
1
  0
VERTEX
 10
9.200000
 20
38.900000
  8
1
 62
7
  6
CONTINUOUS
  0
VERTEX
 10
9.200000
 20
40.000000
  8
1
 62
7
  6
CONTINUOUS
  0
SEQEND
  0
POLYLINE
  8
1
 62
7
  6
CONTINUOUS
 70
0
 66
1
  0
VERTEX
 10
11.000000
 20
38.900000
  8
1
 62
7
  6
CONTINUOUS
  0
VERTEX
 10
11.000000
 20
40.000000
  8
1
 62
7
  6
CONTINUOUS
  0
VERTEX
 10
11.000000
 20
40.000000
  8
1
 62
7
  6
CONTINUOUS
  0
SEQEND
  0
POLYLINE
  8
1
 62
7
  6
CONTINUOUS
 70
0
 66
1
  0
VERTEX
 10
12.800000
 20
38.900000
  8
1
 62
7
  6
CONTINUOUS
  0
VERTEX
 10
12.800000
 20
40.000000
  8
1
 62
7
  6
CONTINUOUS
  0
SEQEND
  0
POLYLINE
  8
1
 62
7
  6
CONTINUOUS
 70
0
 66
1
  0
VERTEX
 10
14.600000
 20
38.900000
  8
1
 62
7
  6
CONTINUOUS
  0
VERTEX
 10
14.600000
 20
40.000000
  8
1
 62
7
  6
CONTINUOUS
  0
SEQEND
  0
POLYLINE
  8
1
 62
7
  6
CONTINUOUS
 70
0
 66
1
  0
VERTEX
 10
16.400000
 20
38.900000
  8
1
 62
7
  6
CONTINUOUS
  0
VERTEX
 10
16.400000
 20
40.000000
  8
1
 62
7
  6
CONTINUOUS
  0
SEQEND
  0
POLYLINE
  8
1
 62
7
  6
CONTINUOUS
 70
0
 66
1
  0
VERTEX
 10
18.200000
 20
38.900000
  8
1
 62
7
  6
CONTINUOUS
  0
VERTEX
 10
18.200000
 20
40.000000
  8
1
 62
7
  6
CONTINUOUS
  0
SEQEND
  0
POLYLINE
  8
1
 62
7
  6
CONTINUOUS
 70
0
 66
1
  0
VERTEX
 10
20.000000
 20
38.900000
  8
1
 62
7
  6
CONTINUOUS
  0
VERTEX
 10
20.000000
 20
40.000000
  8
1
 62
7
  6
CONTINUOUS
  0
SEQEND
  0
POLYLINE
  8
1
 62
7
  6
CONTINUOUS
 70
0
 66
1
  0
VERTEX
 10
21.800000
 20
38.900000
  8
1
 62
7
  6
CONTINUOUS
  0
VERTEX
 10
21.800000
 20
40.000000
  8
1
 62
7
  6
CONTINUOUS
  0
SEQEND
  0
POLYLINE
  8
1
 62
7
  6
CONTINUOUS
 70
0
 66
1
  0
VERTEX
 10
23.600000
 20
38.900000
  8
1
 62
7
  6
CONTINUOUS
  0
VERTEX
 10
23.600000
 20
40.000000
  8
1
 62
7
  6
CONTINUOUS
  0
SEQEND
  0
POLYLINE
  8
1
 62
7
  6
CONTINUOUS
 70
0
 66
1
  0
VERTEX
 10
25.400000
 20
38.900000
  8
1
 62
7
  6
CONTINUOUS
  0
VERTEX
 10
25.400000
 20
40.000000
  8
1
 62
7
  6
CONTINUOUS
  0
SEQEND
  0
POLYLINE
  8
1
 62
7
  6
CONTINUOUS
 70
0
 66
1
  0
VERTEX
 10
27.200000
 20
38.900000
  8
1
 62
7
  6
CONTINUOUS
  0
VERTEX
 10
27.200000
 20
40.000000
  8
1
 62
7
  6
CONTINUOUS
  0
SEQEND
  0
POLYLINE
  8
1
 62
7
  6
L014100000032000000
 70
0
 66
1
  0
VERTEX
 10
7.400000
 20
43.500000
  8
1
 62
7
  6
L014100000032000000
  0
VERTEX
 10
5.400000
 20
43.500000
  8
1
 62
7
  6
L014100000032000000
  0
VERTEX
 10
5.400000
 20
38.900000
  8
1
 62
7
  6
L014100000032000000
  0
VERTEX
 10
7.400000
 20
38.900000
  8
1
 62
7
  6
L014100000032000000
  0
SEQEND
  0
POLYLINE
  8
1
 62
7
  6
L014100000032000000
 70
0
 66
1
  0
VERTEX
 10
29.000000
 20
43.500000
  8
1
 62
7
  6
L014100000032000000
  0
VERTEX
 10
31.000000
 20
43.500000
  8
1
 62
7
  6
L014100000032000000
  0
VERTEX
 10
31.000000
 20
38.900000
  8
1
 62
7
  6
L014100000032000000
  0
VERTEX
 10
29.000000
 20
38.900000
  8
1
 62
7
  6
L014100000032000000
  0
SEQEND
  0
CIRCLE
  8
1
 62
7
  6
CONTINUOUS
 10
15.700000
 20
55.800000
 30
0.0
 40
0.400000
  0
POLYLINE
  8
1
 62
7
  6
CONTINUOUS
 70
0
 66
1
  0
VERTEX
 10
15.500000
 20
55.800000
  8
1
 62
7
  6
CONTINUOUS
  0
VERTEX
 10
15.900000
 20
55.800000
  8
1
 62
7
  6
CONTINUOUS
  0
SEQEND
  0
POLYLINE
  8
1
 62
7
  6
CONTINUOUS
 70
1
 66
1
  0
VERTEX
 10
16.400000
 20
57.100000
  8
1
 62
7
  6
CONTINUOUS
  0
VERTEX
 10
20.000000
 20
57.100000
  8
1
 62
7
  6
CONTINUOUS
  0
VERTEX
 10
19.300000
 20
56.400000
  8
1
 62
7
  6
CONTINUOUS
  0
VERTEX
 10
17.100000
 20
56.400000
  8
1
 62
7
  6
CONTINUOUS
  0
SEQEND
  0
POLYLINE
  8
1
 62
7
  6
CONTINUOUS
 70
1
 66
1
  0
VERTEX
 10
16.400000
 20
2.600000
  8
1
 62
7
  6
CONTINUOUS
  0
VERTEX
 10
20.000000
 20
2.600000
  8
1
 62
7
  6
CONTINUOUS
  0
VERTEX
 10
19.300000
 20
3.300000
  8
1
 62
7
  6
CONTINUOUS
  0
VERTEX
 10
17.100000
 20
3.300000
  8
1
 62
7
  6
CONTINUOUS
  0
SEQEND
  0
CIRCLE
  8
1
 62
7
  6
CONTINUOUS
 10
15.700000
 20
55.800000
 30
0.0
 40
0.500000
  0
POLYLINE
  8
1
 62
7
  6
CONTINUOUS
 70
1
 66
1
  0
VERTEX
 10
15.000000
 20
55.700000
 30
0.000000
  8
1
 62
7
  6
CONTINUOUS
  0
VERTEX
 10
15.000000
 20
55.900000
 30
0.000000
  8
1
 62
7
  6
CONTINUOUS
  0
VERTEX
 10
14.200000
 20
55.900000
 30
0.000000
  8
1
 62
7
  6
CONTINUOUS
  0
VERTEX
 10
14.200000
 20
55.700000
 30
0.000000
  8
1
 62
7
  6
CONTINUOUS
  0
SEQEND
  0
CIRCLE
  8
1
 62
7
  6
CONTINUOUS
 10
20.700000
 20
3.900000
 30
0.0
 40
0.400000
  0
POLYLINE
  8
1
 62
7
  6
CONTINUOUS
 70
0
 66
1
  0
VERTEX
 10
20.900000
 20
3.900000
  8
1
 62
7
  6
CONTINUOUS
  0
VERTEX
 10
20.500000
 20
3.900000
  8
1
 62
7
  6
CONTINUOUS
  0
SEQEND
  0
CIRCLE
  8
1
 62
7
  6
CONTINUOUS
 10
20.700000
 20
3.900000
 30
0.0
 40
0.500000
  0
POLYLINE
  8
1
 62
7
  6
CONTINUOUS
 70
1
 66
1
  0
VERTEX
 10
21.400000
 20
4.000000
 30
0.000000
  8
1
 62
7
  6
CONTINUOUS
  0
VERTEX
 10
21.400000
 20
3.800000
 30
0.000000
  8
1
 62
7
  6
CONTINUOUS
  0
VERTEX
 10
22.200000
 20
3.800000
 30
0.000000
  8
1
 62
7
  6
CONTINUOUS
  0
VERTEX
 10
22.200000
 20
4.000000
 30
0.000000
  8
1
 62
7
  6
CONTINUOUS
  0
SEQEND
  0
POLYLINE
  8
1
 62
7
  6
CONTINUOUS
 70
1
 66
1
  0
VERTEX
 10
15.700000
 20
54.000000
  8
1
 62
7
  6
CONTINUOUS
  0
VERTEX
 10
17.000000
 20
54.000000
  8
1
 62
7
  6
CONTINUOUS
  0
VERTEX
 10
17.200000
 20
54.200000
  8
1
 62
7
  6
CONTINUOUS
  0
VERTEX
 10
19.100000
 20
54.200000
  8
1
 62
7
  6
CONTINUOUS
  0
VERTEX
 10
19.400000
 20
54.000000
  8
1
 62
7
  6
CONTINUOUS
  0
VERTEX
 10
20.700000
 20
54.000000
  8
1
 62
7
  6
CONTINUOUS
  0
VERTEX
 10
20.700000
 20
54.400000
  8
1
 62
7
  6
CONTINUOUS
  0
VERTEX
 10
19.400000
 20
54.400000
  8
1
 62
7
  6
CONTINUOUS
  0
VERTEX
 10
19.200000
 20
54.600000
  8
1
 62
7
  6
CONTINUOUS
  0
VERTEX
 10
17.200000
 20
54.600000
  8
1
 62
7
  6
CONTINUOUS
  0
VERTEX
 10
17.000000
 20
54.400000
  8
1
 62
7
  6
CONTINUOUS
  0
VERTEX
 10
15.700000
 20
54.400000
  8
1
 62
7
  6
CONTINUOUS
  0
SEQEND
  0
POLYLINE
  8
1
 62
7
  6
CONTINUOUS
 70
1
 66
1
  0
VERTEX
 10
15.700000
 20
5.700000
  8
1
 62
7
  6
CONTINUOUS
  0
VERTEX
 10
17.000000
 20
5.700000
  8
1
 62
7
  6
CONTINUOUS
  0
VERTEX
 10
17.200000
 20
5.500000
  8
1
 62
7
  6
CONTINUOUS
  0
VERTEX
 10
19.100000
 20
5.500000
  8
1
 62
7
  6
CONTINUOUS
  0
VERTEX
 10
19.400000
 20
5.700000
  8
1
 62
7
  6
CONTINUOUS
  0
VERTEX
 10
20.700000
 20
5.700000
  8
1
 62
7
  6
CONTINUOUS
  0
VERTEX
 10
20.700000
 20
5.300000
  8
1
 62
7
  6
CONTINUOUS
  0
VERTEX
 10
19.400000
 20
5.300000
  8
1
 62
7
  6
CONTINUOUS
  0
VERTEX
 10
19.200000
 20
5.100000
  8
1
 62
7
  6
CONTINUOUS
  0
VERTEX
 10
17.200000
 20
5.100000
  8
1
 62
7
  6
CONTINUOUS
  0
VERTEX
 10
17.000000
 20
5.300000
  8
1
 62
7
  6
CONTINUOUS
  0
VERTEX
 10
15.700000
 20
5.300000
  8
1
 62
7
  6
CONTINUOUS
  0
SEQEND
  0
POLYLINE
  8
1
 62
7
  6
CONTINUOUS
 70
1
 66
1
  0
VERTEX
 10
16.400000
 20
38.400000
 30
0.000000
  8
1
 62
7
  6
CONTINUOUS
  0
VERTEX
 10
16.400000
 20
44.000000
 30
0.000000
  8
1
 62
7
  6
CONTINUOUS
  0
VERTEX
 10
14.600000
 20
44.000000
 30
0.000000
  8
1
 62
7
  6
CONTINUOUS
  0
VERTEX
 10
14.600000
 20
38.400000
 30
0.000000
  8
1
 62
7
  6
CONTINUOUS
  0
SEQEND
  0
POLYLINE
  8
1
 62
7
  6
L000000000000000000
 70
1
 66
1
  0
VERTEX
 10
16.400000
 20
38.900000
 30
0.000000
  8
1
 62
7
  6
L000000000000000000
  0
VERTEX
 10
16.400000
 20
43.500000
 30
0.000000
  8
1
 62
7
  6
L000000000000000000
  0
VERTEX
 10
14.600000
 20
43.500000
 30
0.000000
  8
1
 62
7
  6
L000000000000000000
  0
VERTEX
 10
14.600000
 20
38.900000
 30
0.000000
  8
1
 62
7
  6
L000000000000000000
  0
SEQEND
  0
POLYLINE
  8
1
 62
7
  6
L000000000000000000
 70
0
 66
1
  0
VERTEX
 10
15.500000
 20
44.000000
  8
1
 62
7
  6
L000000000000000000
  0
VERTEX
 10
15.500000
 20
38.400000
  8
1
 62
7
  6
L000000000000000000
  0
SEQEND
  0
POLYLINE
  8
1
 62
7
  6
CONTINUOUS
 70
1
 66
1
  0
VERTEX
 10
18.200000
 20
38.400000
 30
0.000000
  8
1
 62
7
  6
CONTINUOUS
  0
VERTEX
 10
18.200000
 20
44.000000
 30
0.000000
  8
1
 62
7
  6
CONTINUOUS
  0
VERTEX
 10
16.400000
 20
44.000000
 30
0.000000
  8
1
 62
7
  6
CONTINUOUS
  0
VERTEX
 10
16.400000
 20
38.400000
 30
0.000000
  8
1
 62
7
  6
CONTINUOUS
  0
SEQEND
  0
POLYLINE
  8
1
 62
7
  6
L000000000000000000
 70
1
 66
1
  0
VERTEX
 10
18.200000
 20
38.900000
 30
0.000000
  8
1
 62
7
  6
L000000000000000000
  0
VERTEX
 10
18.200000
 20
43.500000
 30
0.000000
  8
1
 62
7
  6
L000000000000000000
  0
VERTEX
 10
16.400000
 20
43.500000
 30
0.000000
  8
1
 62
7
  6
L000000000000000000
  0
VERTEX
 10
16.400000
 20
38.900000
 30
0.000000
  8
1
 62
7
  6
L000000000000000000
  0
SEQEND
  0
POLYLINE
  8
1
 62
7
  6
L000000000000000000
 70
0
 66
1
  0
VERTEX
 10
17.300000
 20
44.000000
  8
1
 62
7
  6
L000000000000000000
  0
VERTEX
 10
17.300000
 20
38.400000
  8
1
 62
7
  6
L000000000000000000
  0
SEQEND
  0
POLYLINE
  8
1
 62
7
  6
CONTINUOUS
 70
1
 66
1
  0
VERTEX
 10
20.000000
 20
38.400000
 30
0.000000
  8
1
 62
7
  6
CONTINUOUS
  0
VERTEX
 10
20.000000
 20
44.000000
 30
0.000000
  8
1
 62
7
  6
CONTINUOUS
  0
VERTEX
 10
18.200000
 20
44.000000
 30
0.000000
  8
1
 62
7
  6
CONTINUOUS
  0
VERTEX
 10
18.200000
 20
38.400000
 30
0.000000
  8
1
 62
7
  6
CONTINUOUS
  0
SEQEND
  0
POLYLINE
  8
1
 62
7
  6
L000000000000000000
 70
1
 66
1
  0
VERTEX
 10
20.000000
 20
38.900000
 30
0.000000
  8
1
 62
7
  6
L000000000000000000
  0
VERTEX
 10
20.000000
 20
43.500000
 30
0.000000
  8
1
 62
7
  6
L000000000000000000
  0
VERTEX
 10
18.200000
 20
43.500000
 30
0.000000
  8
1
 62
7
  6
L000000000000000000
  0
VERTEX
 10
18.200000
 20
38.900000
 30
0.000000
  8
1
 62
7
  6
L000000000000000000
  0
SEQEND
  0
POLYLINE
  8
1
 62
7
  6
L000000000000000000
 70
0
 66
1
  0
VERTEX
 10
19.100000
 20
44.000000
  8
1
 62
7
  6
L000000000000000000
  0
VERTEX
 10
19.100000
 20
38.400000
  8
1
 62
7
  6
L000000000000000000
  0
SEQEND
  0
POLYLINE
  8
1
 62
7
  6
CONTINUOUS
 70
1
 66
1
  0
VERTEX
 10
21.800000
 20
38.400000
 30
0.000000
  8
1
 62
7
  6
CONTINUOUS
  0
VERTEX
 10
21.800000
 20
44.000000
 30
0.000000
  8
1
 62
7
  6
CONTINUOUS
  0
VERTEX
 10
20.000000
 20
44.000000
 30
0.000000
  8
1
 62
7
  6
CONTINUOUS
  0
VERTEX
 10
20.000000
 20
38.400000
 30
0.000000
  8
1
 62
7
  6
CONTINUOUS
  0
SEQEND
  0
POLYLINE
  8
1
 62
7
  6
L000000000000000000
 70
1
 66
1
  0
VERTEX
 10
21.800000
 20
38.900000
 30
0.000000
  8
1
 62
7
  6
L000000000000000000
  0
VERTEX
 10
21.800000
 20
43.500000
 30
0.000000
  8
1
 62
7
  6
L000000000000000000
  0
VERTEX
 10
20.000000
 20
43.500000
 30
0.000000
  8
1
 62
7
  6
L000000000000000000
  0
VERTEX
 10
20.000000
 20
38.900000
 30
0.000000
  8
1
 62
7
  6
L000000000000000000
  0
SEQEND
  0
POLYLINE
  8
1
 62
7
  6
L000000000000000000
 70
0
 66
1
  0
VERTEX
 10
20.900000
 20
44.000000
  8
1
 62
7
  6
L000000000000000000
  0
VERTEX
 10
20.900000
 20
38.400000
  8
1
 62
7
  6
L000000000000000000
  0
SEQEND
  0
POLYLINE
  8
1
 62
7
  6
CONTINUOUS
 70
1
 66
1
  0
VERTEX
 10
23.600000
 20
38.400000
 30
0.000000
  8
1
 62
7
  6
CONTINUOUS
  0
VERTEX
 10
23.600000
 20
44.000000
 30
0.000000
  8
1
 62
7
  6
CONTINUOUS
  0
VERTEX
 10
21.800000
 20
44.000000
 30
0.000000
  8
1
 62
7
  6
CONTINUOUS
  0
VERTEX
 10
21.800000
 20
38.400000
 30
0.000000
  8
1
 62
7
  6
CONTINUOUS
  0
SEQEND
  0
POLYLINE
  8
1
 62
7
  6
L000000000000000000
 70
1
 66
1
  0
VERTEX
 10
23.600000
 20
38.900000
 30
0.000000
  8
1
 62
7
  6
L000000000000000000
  0
VERTEX
 10
23.600000
 20
43.500000
 30
0.000000
  8
1
 62
7
  6
L000000000000000000
  0
VERTEX
 10
21.800000
 20
43.500000
 30
0.000000
  8
1
 62
7
  6
L000000000000000000
  0
VERTEX
 10
21.800000
 20
38.900000
 30
0.000000
  8
1
 62
7
  6
L000000000000000000
  0
SEQEND
  0
POLYLINE
  8
1
 62
7
  6
L000000000000000000
 70
0
 66
1
  0
VERTEX
 10
22.700000
 20
44.000000
  8
1
 62
7
  6
L000000000000000000
  0
VERTEX
 10
22.700000
 20
38.400000
  8
1
 62
7
  6
L000000000000000000
  0
SEQEND
  0
POLYLINE
  8
1
 62
7
  6
CONTINUOUS
 70
1
 66
1
  0
VERTEX
 10
25.400000
 20
38.400000
 30
0.000000
  8
1
 62
7
  6
CONTINUOUS
  0
VERTEX
 10
25.400000
 20
44.000000
 30
0.000000
  8
1
 62
7
  6
CONTINUOUS
  0
VERTEX
 10
23.600000
 20
44.000000
 30
0.000000
  8
1
 62
7
  6
CONTINUOUS
  0
VERTEX
 10
23.600000
 20
38.400000
 30
0.000000
  8
1
 62
7
  6
CONTINUOUS
  0
SEQEND
  0
POLYLINE
  8
1
 62
7
  6
L000000000000000000
 70
1
 66
1
  0
VERTEX
 10
25.400000
 20
38.900000
 30
0.000000
  8
1
 62
7
  6
L000000000000000000
  0
VERTEX
 10
25.400000
 20
43.500000
 30
0.000000
  8
1
 62
7
  6
L000000000000000000
  0
VERTEX
 10
23.600000
 20
43.500000
 30
0.000000
  8
1
 62
7
  6
L000000000000000000
  0
VERTEX
 10
23.600000
 20
38.900000
 30
0.000000
  8
1
 62
7
  6
L000000000000000000
  0
SEQEND
  0
POLYLINE
  8
1
 62
7
  6
L000000000000000000
 70
0
 66
1
  0
VERTEX
 10
24.500000
 20
44.000000
  8
1
 62
7
  6
L000000000000000000
  0
VERTEX
 10
24.500000
 20
38.400000
  8
1
 62
7
  6
L000000000000000000
  0
SEQEND
  0
POLYLINE
  8
1
 62
7
  6
CONTINUOUS
 70
1
 66
1
  0
VERTEX
 10
27.200000
 20
38.400000
 30
0.000000
  8
1
 62
7
  6
CONTINUOUS
  0
VERTEX
 10
27.200000
 20
44.000000
 30
0.000000
  8
1
 62
7
  6
CONTINUOUS
  0
VERTEX
 10
25.400000
 20
44.000000
 30
0.000000
  8
1
 62
7
  6
CONTINUOUS
  0
VERTEX
 10
25.400000
 20
38.400000
 30
0.000000
  8
1
 62
7
  6
CONTINUOUS
  0
SEQEND
  0
POLYLINE
  8
1
 62
7
  6
L000000000000000000
 70
1
 66
1
  0
VERTEX
 10
27.200000
 20
38.900000
 30
0.000000
  8
1
 62
7
  6
L000000000000000000
  0
VERTEX
 10
27.200000
 20
43.500000
 30
0.000000
  8
1
 62
7
  6
L000000000000000000
  0
VERTEX
 10
25.400000
 20
43.500000
 30
0.000000
  8
1
 62
7
  6
L000000000000000000
  0
VERTEX
 10
25.400000
 20
38.900000
 30
0.000000
  8
1
 62
7
  6
L000000000000000000
  0
SEQEND
  0
POLYLINE
  8
1
 62
7
  6
L000000000000000000
 70
0
 66
1
  0
VERTEX
 10
26.300000
 20
44.000000
  8
1
 62
7
  6
L000000000000000000
  0
VERTEX
 10
26.300000
 20
38.400000
  8
1
 62
7
  6
L000000000000000000
  0
SEQEND
  0
POLYLINE
  8
1
 62
7
  6
CONTINUOUS
 70
1
 66
1
  0
VERTEX
 10
29.000000
 20
38.400000
 30
0.000000
  8
1
 62
7
  6
CONTINUOUS
  0
VERTEX
 10
29.000000
 20
44.000000
 30
0.000000
  8
1
 62
7
  6
CONTINUOUS
  0
VERTEX
 10
27.200000
 20
44.000000
 30
0.000000
  8
1
 62
7
  6
CONTINUOUS
  0
VERTEX
 10
27.200000
 20
38.400000
 30
0.000000
  8
1
 62
7
  6
CONTINUOUS
  0
SEQEND
  0
POLYLINE
  8
1
 62
7
  6
L000000000000000000
 70
1
 66
1
  0
VERTEX
 10
29.000000
 20
38.900000
 30
0.000000
  8
1
 62
7
  6
L000000000000000000
  0
VERTEX
 10
29.000000
 20
43.500000
 30
0.000000
  8
1
 62
7
  6
L000000000000000000
  0
VERTEX
 10
27.200000
 20
43.500000
 30
0.000000
  8
1
 62
7
  6
L000000000000000000
  0
VERTEX
 10
27.200000
 20
38.900000
 30
0.000000
  8
1
 62
7
  6
L000000000000000000
  0
SEQEND
  0
POLYLINE
  8
1
 62
7
  6
L000000000000000000
 70
0
 66
1
  0
VERTEX
 10
28.100000
 20
44.000000
  8
1
 62
7
  6
L000000000000000000
  0
VERTEX
 10
28.100000
 20
38.400000
  8
1
 62
7
  6
L000000000000000000
  0
SEQEND
  0
POLYLINE
  8
1
 62
7
  6
CONTINUOUS
 70
1
 66
1
  0
VERTEX
 10
27.200000
 20
13.400000
 30
0.000000
  8
1
 62
7
  6
CONTINUOUS
  0
VERTEX
 10
27.200000
 20
19.000000
 30
0.000000
  8
1
 62
7
  6
CONTINUOUS
  0
VERTEX
 10
25.400000
 20
19.000000
 30
0.000000
  8
1
 62
7
  6
CONTINUOUS
  0
VERTEX
 10
25.400000
 20
13.400000
 30
0.000000
  8
1
 62
7
  6
CONTINUOUS
  0
SEQEND
  0
POLYLINE
  8
1
 62
7
  6
L000000000000000000
 70
1
 66
1
  0
VERTEX
 10
27.200000
 20
13.900000
 30
0.000000
  8
1
 62
7
  6
L000000000000000000
  0
VERTEX
 10
27.200000
 20
18.500000
 30
0.000000
  8
1
 62
7
  6
L000000000000000000
  0
VERTEX
 10
25.400000
 20
18.500000
 30
0.000000
  8
1
 62
7
  6
L000000000000000000
  0
VERTEX
 10
25.400000
 20
13.900000
 30
0.000000
  8
1
 62
7
  6
L000000000000000000
  0
SEQEND
  0
POLYLINE
  8
1
 62
7
  6
L000000000000000000
 70
0
 66
1
  0
VERTEX
 10
26.300000
 20
19.000000
  8
1
 62
7
  6
L000000000000000000
  0
VERTEX
 10
26.300000
 20
13.400000
  8
1
 62
7
  6
L000000000000000000
  0
SEQEND
  0
POLYLINE
  8
1
 62
7
  6
CONTINUOUS
 70
1
 66
1
  0
VERTEX
 10
29.000000
 20
13.400000
 30
0.000000
  8
1
 62
7
  6
CONTINUOUS
  0
VERTEX
 10
29.000000
 20
19.000000
 30
0.000000
  8
1
 62
7
  6
CONTINUOUS
  0
VERTEX
 10
27.200000
 20
19.000000
 30
0.000000
  8
1
 62
7
  6
CONTINUOUS
  0
VERTEX
 10
27.200000
 20
13.400000
 30
0.000000
  8
1
 62
7
  6
CONTINUOUS
  0
SEQEND
  0
POLYLINE
  8
1
 62
7
  6
L000000000000000000
 70
1
 66
1
  0
VERTEX
 10
29.000000
 20
13.900000
 30
0.000000
  8
1
 62
7
  6
L000000000000000000
  0
VERTEX
 10
29.000000
 20
18.500000
 30
0.000000
  8
1
 62
7
  6
L000000000000000000
  0
VERTEX
 10
27.200000
 20
18.500000
 30
0.000000
  8
1
 62
7
  6
L000000000000000000
  0
VERTEX
 10
27.200000
 20
13.900000
 30
0.000000
  8
1
 62
7
  6
L000000000000000000
  0
SEQEND
  0
POLYLINE
  8
1
 62
7
  6
L000000000000000000
 70
0
 66
1
  0
VERTEX
 10
28.100000
 20
19.000000
  8
1
 62
7
  6
L000000000000000000
  0
VERTEX
 10
28.100000
 20
13.400000
  8
1
 62
7
  6
L000000000000000000
  0
SEQEND
  0
POLYLINE
  8
1
 62
7
  6
CONTINUOUS
 70
1
 66
1
  0
VERTEX
 10
21.800000
 20
13.400000
 30
0.000000
  8
1
 62
7
  6
CONTINUOUS
  0
VERTEX
 10
21.800000
 20
19.000000
 30
0.000000
  8
1
 62
7
  6
CONTINUOUS
  0
VERTEX
 10
20.000000
 20
19.000000
 30
0.000000
  8
1
 62
7
  6
CONTINUOUS
  0
VERTEX
 10
20.000000
 20
13.400000
 30
0.000000
  8
1
 62
7
  6
CONTINUOUS
  0
SEQEND
  0
POLYLINE
  8
1
 62
7
  6
L000000000000000000
 70
1
 66
1
  0
VERTEX
 10
21.800000
 20
13.900000
 30
0.000000
  8
1
 62
7
  6
L000000000000000000
  0
VERTEX
 10
21.800000
 20
18.500000
 30
0.000000
  8
1
 62
7
  6
L000000000000000000
  0
VERTEX
 10
20.000000
 20
18.500000
 30
0.000000
  8
1
 62
7
  6
L000000000000000000
  0
VERTEX
 10
20.000000
 20
13.900000
 30
0.000000
  8
1
 62
7
  6
L000000000000000000
  0
SEQEND
  0
POLYLINE
  8
1
 62
7
  6
L000000000000000000
 70
0
 66
1
  0
VERTEX
 10
20.900000
 20
19.000000
  8
1
 62
7
  6
L000000000000000000
  0
VERTEX
 10
20.900000
 20
13.400000
  8
1
 62
7
  6
L000000000000000000
  0
SEQEND
  0
POLYLINE
  8
1
 62
7
  6
CONTINUOUS
 70
1
 66
1
  0
VERTEX
 10
23.600000
 20
13.400000
 30
0.000000
  8
1
 62
7
  6
CONTINUOUS
  0
VERTEX
 10
23.600000
 20
19.000000
 30
0.000000
  8
1
 62
7
  6
CONTINUOUS
  0
VERTEX
 10
21.800000
 20
19.000000
 30
0.000000
  8
1
 62
7
  6
CONTINUOUS
  0
VERTEX
 10
21.800000
 20
13.400000
 30
0.000000
  8
1
 62
7
  6
CONTINUOUS
  0
SEQEND
  0
POLYLINE
  8
1
 62
7
  6
L000000000000000000
 70
1
 66
1
  0
VERTEX
 10
23.600000
 20
13.900000
 30
0.000000
  8
1
 62
7
  6
L000000000000000000
  0
VERTEX
 10
23.600000
 20
18.500000
 30
0.000000
  8
1
 62
7
  6
L000000000000000000
  0
VERTEX
 10
21.800000
 20
18.500000
 30
0.000000
  8
1
 62
7
  6
L000000000000000000
  0
VERTEX
 10
21.800000
 20
13.900000
 30
0.000000
  8
1
 62
7
  6
L000000000000000000
  0
SEQEND
  0
POLYLINE
  8
1
 62
7
  6
L000000000000000000
 70
0
 66
1
  0
VERTEX
 10
22.700000
 20
19.000000
  8
1
 62
7
  6
L000000000000000000
  0
VERTEX
 10
22.700000
 20
13.400000
  8
1
 62
7
  6
L000000000000000000
  0
SEQEND
  0
POLYLINE
  8
1
 62
7
  6
CONTINUOUS
 70
1
 66
1
  0
VERTEX
 10
25.400000
 20
13.400000
 30
0.000000
  8
1
 62
7
  6
CONTINUOUS
  0
VERTEX
 10
25.400000
 20
19.000000
 30
0.000000
  8
1
 62
7
  6
CONTINUOUS
  0
VERTEX
 10
23.600000
 20
19.000000
 30
0.000000
  8
1
 62
7
  6
CONTINUOUS
  0
VERTEX
 10
23.600000
 20
13.400000
 30
0.000000
  8
1
 62
7
  6
CONTINUOUS
  0
SEQEND
  0
POLYLINE
  8
1
 62
7
  6
L000000000000000000
 70
1
 66
1
  0
VERTEX
 10
25.400000
 20
13.900000
 30
0.000000
  8
1
 62
7
  6
L000000000000000000
  0
VERTEX
 10
25.400000
 20
18.500000
 30
0.000000
  8
1
 62
7
  6
L000000000000000000
  0
VERTEX
 10
23.600000
 20
18.500000
 30
0.000000
  8
1
 62
7
  6
L000000000000000000
  0
VERTEX
 10
23.600000
 20
13.900000
 30
0.000000
  8
1
 62
7
  6
L000000000000000000
  0
SEQEND
  0
POLYLINE
  8
1
 62
7
  6
L000000000000000000
 70
0
 66
1
  0
VERTEX
 10
24.500000
 20
19.000000
  8
1
 62
7
  6
L000000000000000000
  0
VERTEX
 10
24.500000
 20
13.400000
  8
1
 62
7
  6
L000000000000000000
  0
SEQEND
  0
POLYLINE
  8
1
 62
7
  6
CONTINUOUS
 70
1
 66
1
  0
VERTEX
 10
16.400000
 20
13.400000
 30
0.000000
  8
1
 62
7
  6
CONTINUOUS
  0
VERTEX
 10
16.400000
 20
19.000000
 30
0.000000
  8
1
 62
7
  6
CONTINUOUS
  0
VERTEX
 10
14.600000
 20
19.000000
 30
0.000000
  8
1
 62
7
  6
CONTINUOUS
  0
VERTEX
 10
14.600000
 20
13.400000
 30
0.000000
  8
1
 62
7
  6
CONTINUOUS
  0
SEQEND
  0
POLYLINE
  8
1
 62
7
  6
L000000000000000000
 70
1
 66
1
  0
VERTEX
 10
16.400000
 20
13.900000
 30
0.000000
  8
1
 62
7
  6
L000000000000000000
  0
VERTEX
 10
16.400000
 20
18.500000
 30
0.000000
  8
1
 62
7
  6
L000000000000000000
  0
VERTEX
 10
14.600000
 20
18.500000
 30
0.000000
  8
1
 62
7
  6
L000000000000000000
  0
VERTEX
 10
14.600000
 20
13.900000
 30
0.000000
  8
1
 62
7
  6
L000000000000000000
  0
SEQEND
  0
POLYLINE
  8
1
 62
7
  6
L000000000000000000
 70
0
 66
1
  0
VERTEX
 10
15.500000
 20
19.000000
  8
1
 62
7
  6
L000000000000000000
  0
VERTEX
 10
15.500000
 20
13.400000
  8
1
 62
7
  6
L000000000000000000
  0
SEQEND
  0
POLYLINE
  8
1
 62
7
  6
CONTINUOUS
 70
1
 66
1
  0
VERTEX
 10
18.200000
 20
13.400000
 30
0.000000
  8
1
 62
7
  6
CONTINUOUS
  0
VERTEX
 10
18.200000
 20
19.000000
 30
0.000000
  8
1
 62
7
  6
CONTINUOUS
  0
VERTEX
 10
16.400000
 20
19.000000
 30
0.000000
  8
1
 62
7
  6
CONTINUOUS
  0
VERTEX
 10
16.400000
 20
13.400000
 30
0.000000
  8
1
 62
7
  6
CONTINUOUS
  0
SEQEND
  0
POLYLINE
  8
1
 62
7
  6
L000000000000000000
 70
1
 66
1
  0
VERTEX
 10
18.200000
 20
13.900000
 30
0.000000
  8
1
 62
7
  6
L000000000000000000
  0
VERTEX
 10
18.200000
 20
18.500000
 30
0.000000
  8
1
 62
7
  6
L000000000000000000
  0
VERTEX
 10
16.400000
 20
18.500000
 30
0.000000
  8
1
 62
7
  6
L000000000000000000
  0
VERTEX
 10
16.400000
 20
13.900000
 30
0.000000
  8
1
 62
7
  6
L000000000000000000
  0
SEQEND
  0
POLYLINE
  8
1
 62
7
  6
L000000000000000000
 70
0
 66
1
  0
VERTEX
 10
17.300000
 20
19.000000
  8
1
 62
7
  6
L000000000000000000
  0
VERTEX
 10
17.300000
 20
13.400000
  8
1
 62
7
  6
L000000000000000000
  0
SEQEND
  0
POLYLINE
  8
1
 62
7
  6
CONTINUOUS
 70
1
 66
1
  0
VERTEX
 10
20.000000
 20
13.400000
 30
0.000000
  8
1
 62
7
  6
CONTINUOUS
  0
VERTEX
 10
20.000000
 20
19.000000
 30
0.000000
  8
1
 62
7
  6
CONTINUOUS
  0
VERTEX
 10
18.200000
 20
19.000000
 30
0.000000
  8
1
 62
7
  6
CONTINUOUS
  0
VERTEX
 10
18.200000
 20
13.400000
 30
0.000000
  8
1
 62
7
  6
CONTINUOUS
  0
SEQEND
  0
POLYLINE
  8
1
 62
7
  6
L000000000000000000
 70
1
 66
1
  0
VERTEX
 10
20.000000
 20
13.900000
 30
0.000000
  8
1
 62
7
  6
L000000000000000000
  0
VERTEX
 10
20.000000
 20
18.500000
 30
0.000000
  8
1
 62
7
  6
L000000000000000000
  0
VERTEX
 10
18.200000
 20
18.500000
 30
0.000000
  8
1
 62
7
  6
L000000000000000000
  0
VERTEX
 10
18.200000
 20
13.900000
 30
0.000000
  8
1
 62
7
  6
L000000000000000000
  0
SEQEND
  0
POLYLINE
  8
1
 62
7
  6
L000000000000000000
 70
0
 66
1
  0
VERTEX
 10
19.100000
 20
19.000000
  8
1
 62
7
  6
L000000000000000000
  0
VERTEX
 10
19.100000
 20
13.400000
  8
1
 62
7
  6
L000000000000000000
  0
SEQEND
  0
POLYLINE
  8
29
 62
7
  6
CONTINUOUS
 70
1
 66
1
  0
VERTEX
 10
32.700000
 20
4.600000
 30
0.000000
  8
29
 62
7
  6
CONTINUOUS
  0
VERTEX
 10
32.700000
 20
55.100000
 30
0.000000
  8
29
 62
7
  6
CONTINUOUS
  0
VERTEX
 10
3.700000
 20
55.100000
 30
0.000000
  8
29
 62
7
  6
CONTINUOUS
  0
VERTEX
 10
3.700000
 20
4.600000
 30
0.000000
  8
29
 62
7
  6
CONTINUOUS
  0
SEQEND
  0
CIRCLE
  8
29
 62
7
  6
L000000000000000000
 10
8.000000
 20
50.600000
 30
0.0
 40
1.300000
  0
CIRCLE
  8
29
 62
7
  6
L000000000000000000
 10
28.400000
 20
50.600000
 30
0.0
 40
1.300000
  0
CIRCLE
  8
29
 62
7
  6
L000000000000000000
 10
21.400000
 20
50.600000
 30
0.0
 40
1.300000
  0
CIRCLE
  8
29
 62
7
  6
L000000000000000000
 10
18.200000
 20
50.600000
 30
0.0
 40
1.300000
  0
CIRCLE
  8
29
 62
7
  6
L000000000000000000
 10
15.000000
 20
50.600000
 30
0.0
 40
1.300000
  0
CIRCLE
  8
29
 62
7
  6
L000000000000000000
 10
11.500000
 20
50.600000
 30
0.0
 40
1.300000
  0
CIRCLE
  8
29
 62
7
  6
L000000000000000000
 10
24.900000
 20
50.600000
 30
0.0
 40
1.300000
  0
CIRCLE
  8
29
 62
7
  6
L000000000000000000
 10
11.500000
 20
35.000000
 30
0.0
 40
1.300000
  0
CIRCLE
  8
29
 62
7
  6
L000000000000000000
 10
15.000000
 20
35.000000
 30
0.0
 40
1.300000
  0
CIRCLE
  8
29
 62
7
  6
L000000000000000000
 10
21.400000
 20
35.000000
 30
0.0
 40
1.300000
  0
CIRCLE
  8
29
 62
7
  6
L000000000000000000
 10
24.900000
 20
35.000000
 30
0.0
 40
1.300000
  0
CIRCLE
  8
29
 62
7
  6
L000000000000000000
 10
11.500000
 20
22.500000
 30
0.0
 40
1.300000
  0
CIRCLE
  8
29
 62
7
  6
L000000000000000000
 10
24.900000
 20
22.500000
 30
0.0
 40
1.300000
  0
CIRCLE
  8
29
 62
7
  6
L000000000000000000
 10
21.400000
 20
22.500000
 30
0.0
 40
1.300000
  0
CIRCLE
  8
29
 62
7
  6
L000000000000000000
 10
15.000000
 20
22.500000
 30
0.0
 40
1.300000
  0
CIRCLE
  8
29
 62
7
  6
L000000000000000000
 10
8.000000
 20
9.100000
 30
0.0
 40
1.300000
  0
CIRCLE
  8
29
 62
7
  6
L000000000000000000
 10
15.000000
 20
9.100000
 30
0.0
 40
1.300000
  0
CIRCLE
  8
29
 62
7
  6
L000000000000000000
 10
11.500000
 20
9.100000
 30
0.0
 40
1.300000
  0
CIRCLE
  8
29
 62
7
  6
L000000000000000000
 10
21.400000
 20
9.100000
 30
0.0
 40
1.300000
  0
CIRCLE
  8
29
 62
7
  6
L000000000000000000
 10
24.900000
 20
9.100000
 30
0.0
 40
1.300000
  0
CIRCLE
  8
29
 62
7
  6
L000000000000000000
 10
28.400000
 20
9.100000
 30
0.0
 40
1.300000
  0
POLYLINE
  8
29
 62
7
  6
L000000000000000000
 70
1
 66
1
  0
VERTEX
 10
6.100000
 20
48.600000
  8
29
 62
7
  6
L000000000000000000
  0
VERTEX
 10
7.300000
 20
47.800000
  8
29
 62
7
  6
L000000000000000000
  0
VERTEX
 10
7.300000
 20
11.900000
  8
29
 62
7
  6
L000000000000000000
  0
VERTEX
 10
6.100000
 20
11.100000
  8
29
 62
7
  6
L000000000000000000
  0
SEQEND
  0
POLYLINE
  8
29
 62
7
  6
L000000000000000000
 70
1
 66
1
  0
VERTEX
 10
30.300000
 20
48.600000
  8
29
 62
7
  6
L000000000000000000
  0
VERTEX
 10
29.100000
 20
47.800000
  8
29
 62
7
  6
L000000000000000000
  0
VERTEX
 10
29.100000
 20
11.900000
  8
29
 62
7
  6
L000000000000000000
  0
VERTEX
 10
30.300000
 20
11.100000
  8
29
 62
7
  6
L000000000000000000
  0
SEQEND
  0
POLYLINE
  8
29
 62
7
  6
CONTINUOUS
 70
1
 66
1
  0
VERTEX
 10
31.000000
 20
39.400000
 30
0.000000
  8
29
 62
7
  6
CONTINUOUS
  0
VERTEX
 10
31.000000
 20
43.000000
 30
0.000000
  8
29
 62
7
  6
CONTINUOUS
  0
VERTEX
 10
5.400000
 20
43.000000
 30
0.000000
  8
29
 62
7
  6
CONTINUOUS
  0
VERTEX
 10
5.400000
 20
39.400000
 30
0.000000
  8
29
 62
7
  6
CONTINUOUS
  0
SEQEND
  0
POLYLINE
  8
29
 62
7
  6
CONTINUOUS
 70
1
 66
1
  0
VERTEX
 10
31.000000
 20
39.900000
 30
0.000000
  8
29
 62
7
  6
CONTINUOUS
  0
VERTEX
 10
31.000000
 20
42.500000
 30
0.000000
  8
29
 62
7
  6
CONTINUOUS
  0
VERTEX
 10
5.400000
 20
42.500000
 30
0.000000
  8
29
 62
7
  6
CONTINUOUS
  0
VERTEX
 10
5.400000
 20
39.900000
 30
0.000000
  8
29
 62
7
  6
CONTINUOUS
  0
SEQEND
  0
POLYLINE
  8
29
 62
7
  6
L000000000000000000
 70
1
 66
1
  0
VERTEX
 10
31.000000
 20
39.800000
 30
0.000000
  8
29
 62
7
  6
L000000000000000000
  0
VERTEX
 10
31.000000
 20
42.600000
 30
0.000000
  8
29
 62
7
  6
L000000000000000000
  0
VERTEX
 10
5.400000
 20
42.600000
 30
0.000000
  8
29
 62
7
  6
L000000000000000000
  0
VERTEX
 10
5.400000
 20
39.800000
 30
0.000000
  8
29
 62
7
  6
L000000000000000000
  0
SEQEND
  0
CIRCLE
  8
29
 62
7
  6
CONTINUOUS
 10
6.700000
 20
41.200000
 30
0.0
 40
0.400000
  0
CIRCLE
  8
29
 62
7
  6
CONTINUOUS
 10
29.700000
 20
41.200000
 30
0.0
 40
0.400000
  0
POLYLINE
  8
29
 62
7
  6
CONTINUOUS
 70
1
 66
1
  0
VERTEX
 10
31.000000
 20
39.400000
 30
0.000000
  8
29
 62
7
  6
CONTINUOUS
  0
VERTEX
 10
31.000000
 20
43.000000
 30
0.000000
  8
29
 62
7
  6
CONTINUOUS
  0
VERTEX
 10
5.400000
 20
43.000000
 30
0.000000
  8
29
 62
7
  6
CONTINUOUS
  0
VERTEX
 10
5.400000
 20
39.400000
 30
0.000000
  8
29
 62
7
  6
CONTINUOUS
  0
SEQEND
  0
CIRCLE
  8
29
 62
7
  6
CONTINUOUS
 10
6.700000
 20
41.200000
 30
0.0
 40
0.400000
  0
CIRCLE
  8
29
 62
7
  6
CONTINUOUS
 10
29.700000
 20
41.200000
 30
0.0
 40
0.400000
  0
POLYLINE
  8
29
 62
7
  6
CONTINUOUS
 70
1
 66
1
  0
VERTEX
 10
31.000000
 20
26.900000
 30
0.000000
  8
29
 62
7
  6
CONTINUOUS
  0
VERTEX
 10
31.000000
 20
30.500000
 30
0.000000
  8
29
 62
7
  6
CONTINUOUS
  0
VERTEX
 10
5.400000
 20
30.500000
 30
0.000000
  8
29
 62
7
  6
CONTINUOUS
  0
VERTEX
 10
5.400000
 20
26.900000
 30
0.000000
  8
29
 62
7
  6
CONTINUOUS
  0
SEQEND
  0
POLYLINE
  8
29
 62
7
  6
CONTINUOUS
 70
1
 66
1
  0
VERTEX
 10
31.000000
 20
27.400000
 30
0.000000
  8
29
 62
7
  6
CONTINUOUS
  0
VERTEX
 10
31.000000
 20
30.000000
 30
0.000000
  8
29
 62
7
  6
CONTINUOUS
  0
VERTEX
 10
5.400000
 20
30.000000
 30
0.000000
  8
29
 62
7
  6
CONTINUOUS
  0
VERTEX
 10
5.400000
 20
27.400000
 30
0.000000
  8
29
 62
7
  6
CONTINUOUS
  0
SEQEND
  0
POLYLINE
  8
29
 62
7
  6
L000000000000000000
 70
1
 66
1
  0
VERTEX
 10
31.000000
 20
27.300000
 30
0.000000
  8
29
 62
7
  6
L000000000000000000
  0
VERTEX
 10
31.000000
 20
30.100000
 30
0.000000
  8
29
 62
7
  6
L000000000000000000
  0
VERTEX
 10
5.400000
 20
30.100000
 30
0.000000
  8
29
 62
7
  6
L000000000000000000
  0
VERTEX
 10
5.400000
 20
27.300000
 30
0.000000
  8
29
 62
7
  6
L000000000000000000
  0
SEQEND
  0
CIRCLE
  8
29
 62
7
  6
CONTINUOUS
 10
6.700000
 20
28.700000
 30
0.0
 40
0.400000
  0
CIRCLE
  8
29
 62
7
  6
CONTINUOUS
 10
29.700000
 20
28.700000
 30
0.0
 40
0.400000
  0
POLYLINE
  8
29
 62
7
  6
CONTINUOUS
 70
1
 66
1
  0
VERTEX
 10
31.000000
 20
26.900000
 30
0.000000
  8
29
 62
7
  6
CONTINUOUS
  0
VERTEX
 10
31.000000
 20
30.500000
 30
0.000000
  8
29
 62
7
  6
CONTINUOUS
  0
VERTEX
 10
5.400000
 20
30.500000
 30
0.000000
  8
29
 62
7
  6
CONTINUOUS
  0
VERTEX
 10
5.400000
 20
26.900000
 30
0.000000
  8
29
 62
7
  6
CONTINUOUS
  0
SEQEND
  0
CIRCLE
  8
29
 62
7
  6
CONTINUOUS
 10
6.700000
 20
28.700000
 30
0.0
 40
0.400000
  0
CIRCLE
  8
29
 62
7
  6
CONTINUOUS
 10
29.700000
 20
28.700000
 30
0.0
 40
0.400000
  0
POLYLINE
  8
29
 62
7
  6
CONTINUOUS
 70
1
 66
1
  0
VERTEX
 10
31.000000
 20
14.400000
 30
0.000000
  8
29
 62
7
  6
CONTINUOUS
  0
VERTEX
 10
31.000000
 20
18.000000
 30
0.000000
  8
29
 62
7
  6
CONTINUOUS
  0
VERTEX
 10
5.400000
 20
18.000000
 30
0.000000
  8
29
 62
7
  6
CONTINUOUS
  0
VERTEX
 10
5.400000
 20
14.400000
 30
0.000000
  8
29
 62
7
  6
CONTINUOUS
  0
SEQEND
  0
POLYLINE
  8
29
 62
7
  6
CONTINUOUS
 70
1
 66
1
  0
VERTEX
 10
31.000000
 20
14.900000
 30
0.000000
  8
29
 62
7
  6
CONTINUOUS
  0
VERTEX
 10
31.000000
 20
17.500000
 30
0.000000
  8
29
 62
7
  6
CONTINUOUS
  0
VERTEX
 10
5.400000
 20
17.500000
 30
0.000000
  8
29
 62
7
  6
CONTINUOUS
  0
VERTEX
 10
5.400000
 20
14.900000
 30
0.000000
  8
29
 62
7
  6
CONTINUOUS
  0
SEQEND
  0
POLYLINE
  8
29
 62
7
  6
L000000000000000000
 70
1
 66
1
  0
VERTEX
 10
31.000000
 20
14.800000
 30
0.000000
  8
29
 62
7
  6
L000000000000000000
  0
VERTEX
 10
31.000000
 20
17.600000
 30
0.000000
  8
29
 62
7
  6
L000000000000000000
  0
VERTEX
 10
5.400000
 20
17.600000
 30
0.000000
  8
29
 62
7
  6
L000000000000000000
  0
VERTEX
 10
5.400000
 20
14.800000
 30
0.000000
  8
29
 62
7
  6
L000000000000000000
  0
SEQEND
  0
CIRCLE
  8
29
 62
7
  6
CONTINUOUS
 10
6.700000
 20
16.200000
 30
0.0
 40
0.400000
  0
CIRCLE
  8
29
 62
7
  6
CONTINUOUS
 10
29.700000
 20
16.200000
 30
0.0
 40
0.400000
  0
POLYLINE
  8
29
 62
7
  6
CONTINUOUS
 70
1
 66
1
  0
VERTEX
 10
31.000000
 20
14.400000
 30
0.000000
  8
29
 62
7
  6
CONTINUOUS
  0
VERTEX
 10
31.000000
 20
18.000000
 30
0.000000
  8
29
 62
7
  6
CONTINUOUS
  0
VERTEX
 10
5.400000
 20
18.000000
 30
0.000000
  8
29
 62
7
  6
CONTINUOUS
  0
VERTEX
 10
5.400000
 20
14.400000
 30
0.000000
  8
29
 62
7
  6
CONTINUOUS
  0
SEQEND
  0
CIRCLE
  8
29
 62
7
  6
CONTINUOUS
 10
6.700000
 20
16.200000
 30
0.0
 40
0.400000
  0
CIRCLE
  8
29
 62
7
  6
CONTINUOUS
 10
29.700000
 20
16.200000
 30
0.0
 40
0.400000
  0
POLYLINE
  8
39
 62
7
  6
CONTINUOUS
 70
1
 66
1
  0
VERTEX
 10
7.400000
 20
37.000000
 30
0.000000
  8
39
 62
7
  6
CONTINUOUS
  0
VERTEX
 10
7.400000
 20
46.500000
 30
0.000000
  8
39
 62
7
  6
CONTINUOUS
  0
VERTEX
 10
9.200000
 20
46.500000
 30
0.000000
  8
39
 62
7
  6
CONTINUOUS
  0
VERTEX
 10
9.200000
 20
37.000000
 30
0.000000
  8
39
 62
7
  6
CONTINUOUS
  0
SEQEND
  0
POLYLINE
  8
39
 62
7
  6
CONTINUOUS
 70
1
 66
1
  0
VERTEX
 10
7.400000
 20
37.000000
 30
0.000000
  8
39
 62
7
  6
CONTINUOUS
  0
VERTEX
 10
7.400000
 20
45.500000
 30
0.000000
  8
39
 62
7
  6
CONTINUOUS
  0
VERTEX
 10
14.600000
 20
45.500000
 30
0.000000
  8
39
 62
7
  6
CONTINUOUS
  0
VERTEX
 10
14.600000
 20
37.000000
 30
0.000000
  8
39
 62
7
  6
CONTINUOUS
  0
SEQEND
  0
CIRCLE
  8
39
 62
7
  6
CONTINUOUS
 10
10.100000
 20
44.700000
 30
0.0
 40
0.500000
  0
POLYLINE
  8
39
 62
7
  6
CONTINUOUS
 70
0
 66
1
  0
VERTEX
 10
10.100000
 20
45.000000
  8
39
 62
7
  6
CONTINUOUS
  0
VERTEX
 10
10.100000
 20
44.400000
  8
39
 62
7
  6
CONTINUOUS
  0
SEQEND
  0
POLYLINE
  8
39
 62
7
  6
CONTINUOUS
 70
0
 66
1
  0
VERTEX
 10
9.800000
 20
44.700000
  8
39
 62
7
  6
CONTINUOUS
  0
VERTEX
 10
10.400000
 20
44.700000
  8
39
 62
7
  6
CONTINUOUS
  0
SEQEND
  0
POLYLINE
  8
39
 62
7
  6
CONTINUOUS
 70
0
 66
1
  0
VERTEX
 10
9.200000
 20
45.500000
  8
39
 62
7
  6
CONTINUOUS
  0
VERTEX
 10
11.000000
 20
45.500000
  8
39
 62
7
  6
CONTINUOUS
  0
SEQEND
  0
CIRCLE
  8
39
 62
7
  6
CONTINUOUS
 10
11.900000
 20
44.700000
 30
0.0
 40
0.500000
  0
POLYLINE
  8
39
 62
7
  6
CONTINUOUS
 70
0
 66
1
  0
VERTEX
 10
11.900000
 20
45.000000
  8
39
 62
7
  6
CONTINUOUS
  0
VERTEX
 10
11.900000
 20
44.400000
  8
39
 62
7
  6
CONTINUOUS
  0
SEQEND
  0
POLYLINE
  8
39
 62
7
  6
CONTINUOUS
 70
0
 66
1
  0
VERTEX
 10
11.600000
 20
44.700000
  8
39
 62
7
  6
CONTINUOUS
  0
VERTEX
 10
12.200000
 20
44.700000
  8
39
 62
7
  6
CONTINUOUS
  0
SEQEND
  0
POLYLINE
  8
39
 62
7
  6
CONTINUOUS
 70
0
 66
1
  0
VERTEX
 10
11.000000
 20
45.500000
  8
39
 62
7
  6
CONTINUOUS
  0
VERTEX
 10
12.800000
 20
45.500000
  8
39
 62
7
  6
CONTINUOUS
  0
SEQEND
  0
CIRCLE
  8
39
 62
7
  6
CONTINUOUS
 10
13.700000
 20
37.800000
 30
0.0
 40
0.500000
  0
CIRCLE
  8
39
 62
7
  6
CONTINUOUS
 10
13.700000
 20
44.700000
 30
0.0
 40
0.500000
  0
POLYLINE
  8
39
 62
7
  6
CONTINUOUS
 70
0
 66
1
  0
VERTEX
 10
13.700000
 20
45.000000
  8
39
 62
7
  6
CONTINUOUS
  0
VERTEX
 10
13.700000
 20
44.400000
  8
39
 62
7
  6
CONTINUOUS
  0
SEQEND
  0
POLYLINE
  8
39
 62
7
  6
CONTINUOUS
 70
0
 66
1
  0
VERTEX
 10
13.400000
 20
44.700000
  8
39
 62
7
  6
CONTINUOUS
  0
VERTEX
 10
14.000000
 20
44.700000
  8
39
 62
7
  6
CONTINUOUS
  0
SEQEND
  0
POLYLINE
  8
39
 62
7
  6
CONTINUOUS
 70
0
 66
1
  0
VERTEX
 10
12.800000
 20
45.500000
  8
39
 62
7
  6
CONTINUOUS
  0
VERTEX
 10
14.600000
 20
45.500000
  8
39
 62
7
  6
CONTINUOUS
  0
SEQEND
  0
POLYLINE
  8
39
 62
7
  6
CONTINUOUS
 70
0
 66
1
  0
VERTEX
 10
13.400000
 20
37.800000
  8
39
 62
7
  6
CONTINUOUS
  0
VERTEX
 10
14.000000
 20
37.800000
  8
39
 62
7
  6
CONTINUOUS
  0
SEQEND
  0
POLYLINE
  8
39
 62
7
  6
CONTINUOUS
 70
0
 66
1
  0
VERTEX
 10
13.700000
 20
38.100000
  8
39
 62
7
  6
CONTINUOUS
  0
VERTEX
 10
13.700000
 20
37.500000
  8
39
 62
7
  6
CONTINUOUS
  0
SEQEND
  0
CIRCLE
  8
39
 62
7
  6
CONTINUOUS
 10
8.300000
 20
44.700000
 30
0.0
 40
0.500000
  0
POLYLINE
  8
39
 62
7
  6
CONTINUOUS
 70
0
 66
1
  0
VERTEX
 10
8.300000
 20
45.000000
  8
39
 62
7
  6
CONTINUOUS
  0
VERTEX
 10
8.300000
 20
44.400000
  8
39
 62
7
  6
CONTINUOUS
  0
SEQEND
  0
POLYLINE
  8
39
 62
7
  6
CONTINUOUS
 70
0
 66
1
  0
VERTEX
 10
8.000000
 20
44.700000
  8
39
 62
7
  6
CONTINUOUS
  0
VERTEX
 10
8.600000
 20
44.700000
  8
39
 62
7
  6
CONTINUOUS
  0
SEQEND
  0
POLYLINE
  8
39
 62
7
  6
CONTINUOUS
 70
0
 66
1
  0
VERTEX
 10
7.400000
 20
45.500000
  8
39
 62
7
  6
CONTINUOUS
  0
VERTEX
 10
9.200000
 20
45.500000
  8
39
 62
7
  6
CONTINUOUS
  0
SEQEND
  0
POLYLINE
  8
39
 62
7
  6
CONTINUOUS
 70
0
 66
1
  0
VERTEX
 10
7.400000
 20
46.300000
  8
39
 62
7
  6
CONTINUOUS
  0
VERTEX
 10
9.200000
 20
46.300000
  8
39
 62
7
  6
CONTINUOUS
  0
SEQEND
  0
POLYLINE
  8
39
 62
7
  6
CONTINUOUS
 70
1
 66
1
  0
VERTEX
 10
8.800000
 20
45.800000
 30
0.000000
  8
39
 62
7
  6
CONTINUOUS
  0
VERTEX
 10
8.800000
 20
46.200000
 30
0.000000
  8
39
 62
7
  6
CONTINUOUS
  0
VERTEX
 10
7.800000
 20
46.200000
 30
0.000000
  8
39
 62
7
  6
CONTINUOUS
  0
VERTEX
 10
7.800000
 20
45.800000
 30
0.000000
  8
39
 62
7
  6
CONTINUOUS
  0
SEQEND
  0
CIRCLE
  8
39
 62
7
  6
CONTINUOUS
 10
8.000000
 20
46.000000
 30
0.0
 40
0.100000
  0
CIRCLE
  8
39
 62
7
  6
CONTINUOUS
 10
8.300000
 20
46.000000
 30
0.0
 40
0.100000
  0
CIRCLE
  8
39
 62
7
  6
CONTINUOUS
 10
8.600000
 20
46.000000
 30
0.0
 40
0.100000
  0
POLYLINE
  8
39
 62
7
  6
CONTINUOUS
 70
1
 66
1
  0
VERTEX
 10
7.400000
 20
24.500000
 30
0.000000
  8
39
 62
7
  6
CONTINUOUS
  0
VERTEX
 10
7.400000
 20
33.000000
 30
0.000000
  8
39
 62
7
  6
CONTINUOUS
  0
VERTEX
 10
9.200000
 20
33.000000
 30
0.000000
  8
39
 62
7
  6
CONTINUOUS
  0
VERTEX
 10
9.200000
 20
24.500000
 30
0.000000
  8
39
 62
7
  6
CONTINUOUS
  0
SEQEND
  0
CIRCLE
  8
39
 62
7
  6
CONTINUOUS
 10
7.900000
 20
32.300000
 30
0.0
 40
0.300000
  0
CIRCLE
  8
39
 62
7
  6
CONTINUOUS
 10
7.900000
 20
25.200000
 30
0.0
 40
0.300000
  0
CIRCLE
  8
39
 62
7
  6
CONTINUOUS
 10
8.700000
 20
32.300000
 30
0.0
 40
0.400000
  0
CIRCLE
  8
39
 62
7
  6
CONTINUOUS
 10
8.700000
 20
25.200000
 30
0.0
 40
0.400000
  0
POLYLINE
  8
39
 62
7
  6
CONTINUOUS
 70
1
 66
1
  0
VERTEX
 10
9.200000
 20
24.500000
 30
0.000000
  8
39
 62
7
  6
CONTINUOUS
  0
VERTEX
 10
9.200000
 20
33.000000
 30
0.000000
  8
39
 62
7
  6
CONTINUOUS
  0
VERTEX
 10
11.000000
 20
33.000000
 30
0.000000
  8
39
 62
7
  6
CONTINUOUS
  0
VERTEX
 10
11.000000
 20
24.500000
 30
0.000000
  8
39
 62
7
  6
CONTINUOUS
  0
SEQEND
  0
CIRCLE
  8
39
 62
7
  6
CONTINUOUS
 10
9.700000
 20
32.300000
 30
0.0
 40
0.300000
  0
CIRCLE
  8
39
 62
7
  6
CONTINUOUS
 10
9.700000
 20
25.200000
 30
0.0
 40
0.300000
  0
CIRCLE
  8
39
 62
7
  6
CONTINUOUS
 10
10.500000
 20
32.300000
 30
0.0
 40
0.400000
  0
CIRCLE
  8
39
 62
7
  6
CONTINUOUS
 10
10.500000
 20
25.200000
 30
0.0
 40
0.400000
  0
POLYLINE
  8
39
 62
7
  6
CONTINUOUS
 70
1
 66
1
  0
VERTEX
 10
11.000000
 20
24.500000
 30
0.000000
  8
39
 62
7
  6
CONTINUOUS
  0
VERTEX
 10
11.000000
 20
33.000000
 30
0.000000
  8
39
 62
7
  6
CONTINUOUS
  0
VERTEX
 10
12.800000
 20
33.000000
 30
0.000000
  8
39
 62
7
  6
CONTINUOUS
  0
VERTEX
 10
12.800000
 20
24.500000
 30
0.000000
  8
39
 62
7
  6
CONTINUOUS
  0
SEQEND
  0
CIRCLE
  8
39
 62
7
  6
CONTINUOUS
 10
11.500000
 20
32.300000
 30
0.0
 40
0.300000
  0
CIRCLE
  8
39
 62
7
  6
CONTINUOUS
 10
11.500000
 20
25.200000
 30
0.0
 40
0.300000
  0
CIRCLE
  8
39
 62
7
  6
CONTINUOUS
 10
12.300000
 20
32.300000
 30
0.0
 40
0.400000
  0
CIRCLE
  8
39
 62
7
  6
CONTINUOUS
 10
12.300000
 20
25.200000
 30
0.0
 40
0.400000
  0
POLYLINE
  8
39
 62
7
  6
CONTINUOUS
 70
1
 66
1
  0
VERTEX
 10
12.800000
 20
24.500000
 30
0.000000
  8
39
 62
7
  6
CONTINUOUS
  0
VERTEX
 10
12.800000
 20
33.000000
 30
0.000000
  8
39
 62
7
  6
CONTINUOUS
  0
VERTEX
 10
14.600000
 20
33.000000
 30
0.000000
  8
39
 62
7
  6
CONTINUOUS
  0
VERTEX
 10
14.600000
 20
24.500000
 30
0.000000
  8
39
 62
7
  6
CONTINUOUS
  0
SEQEND
  0
CIRCLE
  8
39
 62
7
  6
CONTINUOUS
 10
13.300000
 20
32.300000
 30
0.0
 40
0.300000
  0
CIRCLE
  8
39
 62
7
  6
CONTINUOUS
 10
13.300000
 20
25.200000
 30
0.0
 40
0.300000
  0
CIRCLE
  8
39
 62
7
  6
CONTINUOUS
 10
14.100000
 20
32.300000
 30
0.0
 40
0.400000
  0
CIRCLE
  8
39
 62
7
  6
CONTINUOUS
 10
14.100000
 20
25.200000
 30
0.0
 40
0.400000
  0
POLYLINE
  8
39
 62
7
  6
CONTINUOUS
 70
1
 66
1
  0
VERTEX
 10
14.600000
 20
24.500000
 30
0.000000
  8
39
 62
7
  6
CONTINUOUS
  0
VERTEX
 10
14.600000
 20
33.000000
 30
0.000000
  8
39
 62
7
  6
CONTINUOUS
  0
VERTEX
 10
16.400000
 20
33.000000
 30
0.000000
  8
39
 62
7
  6
CONTINUOUS
  0
VERTEX
 10
16.400000
 20
24.500000
 30
0.000000
  8
39
 62
7
  6
CONTINUOUS
  0
SEQEND
  0
CIRCLE
  8
39
 62
7
  6
CONTINUOUS
 10
15.100000
 20
32.300000
 30
0.0
 40
0.300000
  0
CIRCLE
  8
39
 62
7
  6
CONTINUOUS
 10
15.100000
 20
25.200000
 30
0.0
 40
0.300000
  0
CIRCLE
  8
39
 62
7
  6
CONTINUOUS
 10
15.900000
 20
32.300000
 30
0.0
 40
0.400000
  0
CIRCLE
  8
39
 62
7
  6
CONTINUOUS
 10
15.900000
 20
25.200000
 30
0.0
 40
0.400000
  0
POLYLINE
  8
39
 62
7
  6
CONTINUOUS
 70
1
 66
1
  0
VERTEX
 10
16.400000
 20
24.500000
 30
0.000000
  8
39
 62
7
  6
CONTINUOUS
  0
VERTEX
 10
16.400000
 20
33.000000
 30
0.000000
  8
39
 62
7
  6
CONTINUOUS
  0
VERTEX
 10
18.200000
 20
33.000000
 30
0.000000
  8
39
 62
7
  6
CONTINUOUS
  0
VERTEX
 10
18.200000
 20
24.500000
 30
0.000000
  8
39
 62
7
  6
CONTINUOUS
  0
SEQEND
  0
CIRCLE
  8
39
 62
7
  6
CONTINUOUS
 10
16.900000
 20
32.300000
 30
0.0
 40
0.300000
  0
CIRCLE
  8
39
 62
7
  6
CONTINUOUS
 10
16.900000
 20
25.200000
 30
0.0
 40
0.300000
  0
CIRCLE
  8
39
 62
7
  6
CONTINUOUS
 10
17.700000
 20
32.300000
 30
0.0
 40
0.400000
  0
CIRCLE
  8
39
 62
7
  6
CONTINUOUS
 10
17.700000
 20
25.200000
 30
0.0
 40
0.400000
  0
POLYLINE
  8
39
 62
7
  6
CONTINUOUS
 70
1
 66
1
  0
VERTEX
 10
18.200000
 20
24.500000
 30
0.000000
  8
39
 62
7
  6
CONTINUOUS
  0
VERTEX
 10
18.200000
 20
33.000000
 30
0.000000
  8
39
 62
7
  6
CONTINUOUS
  0
VERTEX
 10
20.000000
 20
33.000000
 30
0.000000
  8
39
 62
7
  6
CONTINUOUS
  0
VERTEX
 10
20.000000
 20
24.500000
 30
0.000000
  8
39
 62
7
  6
CONTINUOUS
  0
SEQEND
  0
CIRCLE
  8
39
 62
7
  6
CONTINUOUS
 10
18.700000
 20
32.300000
 30
0.0
 40
0.300000
  0
CIRCLE
  8
39
 62
7
  6
CONTINUOUS
 10
18.700000
 20
25.200000
 30
0.0
 40
0.300000
  0
CIRCLE
  8
39
 62
7
  6
CONTINUOUS
 10
19.500000
 20
32.300000
 30
0.0
 40
0.400000
  0
CIRCLE
  8
39
 62
7
  6
CONTINUOUS
 10
19.500000
 20
25.200000
 30
0.0
 40
0.400000
  0
POLYLINE
  8
39
 62
7
  6
CONTINUOUS
 70
1
 66
1
  0
VERTEX
 10
20.000000
 20
24.500000
 30
0.000000
  8
39
 62
7
  6
CONTINUOUS
  0
VERTEX
 10
20.000000
 20
33.000000
 30
0.000000
  8
39
 62
7
  6
CONTINUOUS
  0
VERTEX
 10
21.800000
 20
33.000000
 30
0.000000
  8
39
 62
7
  6
CONTINUOUS
  0
VERTEX
 10
21.800000
 20
24.500000
 30
0.000000
  8
39
 62
7
  6
CONTINUOUS
  0
SEQEND
  0
CIRCLE
  8
39
 62
7
  6
CONTINUOUS
 10
20.500000
 20
32.300000
 30
0.0
 40
0.300000
  0
CIRCLE
  8
39
 62
7
  6
CONTINUOUS
 10
20.500000
 20
25.200000
 30
0.0
 40
0.300000
  0
CIRCLE
  8
39
 62
7
  6
CONTINUOUS
 10
21.300000
 20
32.300000
 30
0.0
 40
0.400000
  0
CIRCLE
  8
39
 62
7
  6
CONTINUOUS
 10
21.300000
 20
25.200000
 30
0.0
 40
0.400000
  0
POLYLINE
  8
39
 62
7
  6
CONTINUOUS
 70
1
 66
1
  0
VERTEX
 10
21.800000
 20
24.500000
 30
0.000000
  8
39
 62
7
  6
CONTINUOUS
  0
VERTEX
 10
21.800000
 20
33.000000
 30
0.000000
  8
39
 62
7
  6
CONTINUOUS
  0
VERTEX
 10
23.600000
 20
33.000000
 30
0.000000
  8
39
 62
7
  6
CONTINUOUS
  0
VERTEX
 10
23.600000
 20
24.500000
 30
0.000000
  8
39
 62
7
  6
CONTINUOUS
  0
SEQEND
  0
CIRCLE
  8
39
 62
7
  6
CONTINUOUS
 10
22.300000
 20
32.300000
 30
0.0
 40
0.300000
  0
CIRCLE
  8
39
 62
7
  6
CONTINUOUS
 10
22.300000
 20
25.200000
 30
0.0
 40
0.300000
  0
CIRCLE
  8
39
 62
7
  6
CONTINUOUS
 10
23.100000
 20
32.300000
 30
0.0
 40
0.400000
  0
CIRCLE
  8
39
 62
7
  6
CONTINUOUS
 10
23.100000
 20
25.200000
 30
0.0
 40
0.400000
  0
POLYLINE
  8
39
 62
7
  6
CONTINUOUS
 70
1
 66
1
  0
VERTEX
 10
7.400000
 20
12.100000
 30
0.000000
  8
39
 62
7
  6
CONTINUOUS
  0
VERTEX
 10
7.400000
 20
20.600000
 30
0.000000
  8
39
 62
7
  6
CONTINUOUS
  0
VERTEX
 10
14.600000
 20
20.600000
 30
0.000000
  8
39
 62
7
  6
CONTINUOUS
  0
VERTEX
 10
14.600000
 20
12.100000
 30
0.000000
  8
39
 62
7
  6
CONTINUOUS
  0
SEQEND
  0
CIRCLE
  8
39
 62
7
  6
CONTINUOUS
 10
11.900000
 20
19.700000
 30
0.0
 40
0.500000
  0
CIRCLE
  8
39
 62
7
  6
CONTINUOUS
 10
11.900000
 20
12.800000
 30
0.0
 40
0.500000
  0
CIRCLE
  8
39
 62
7
  6
CONTINUOUS
 10
8.300000
 20
19.700000
 30
0.0
 40
0.500000
  0
CIRCLE
  8
39
 62
7
  6
CONTINUOUS
 10
8.300000
 20
12.800000
 30
0.0
 40
0.500000
  0
CIRCLE
  8
39
 62
7
  6
CONTINUOUS
 10
10.100000
 20
19.700000
 30
0.0
 40
0.500000
  0
CIRCLE
  8
39
 62
7
  6
CONTINUOUS
 10
10.100000
 20
12.800000
 30
0.0
 40
0.500000
  0
CIRCLE
  8
39
 62
7
  6
CONTINUOUS
 10
13.700000
 20
19.700000
 30
0.0
 40
0.500000
  0
CIRCLE
  8
39
 62
7
  6
CONTINUOUS
 10
13.700000
 20
12.800000
 30
0.0
 40
0.500000
  0
POLYLINE
  8
39
 62
7
  6
CONTINUOUS
 70
1
 66
1
  0
VERTEX
 10
20.000000
 20
39.700000
 30
0.000000
  8
39
 62
7
  6
CONTINUOUS
  0
VERTEX
 10
20.000000
 20
42.800000
 30
0.000000
  8
39
 62
7
  6
CONTINUOUS
  0
VERTEX
 10
29.000000
 20
42.800000
 30
0.000000
  8
39
 62
7
  6
CONTINUOUS
  0
VERTEX
 10
29.000000
 20
39.700000
 30
0.000000
  8
39
 62
7
  6
CONTINUOUS
  0
SEQEND
  0
CIRCLE
  8
39
 62
7
  6
CONTINUOUS
 10
27.700000
 20
40.900000
 30
0.0
 40
0.300000
  0
CIRCLE
  8
39
 62
7
  6
CONTINUOUS
 10
27.700000
 20
41.600000
 30
0.0
 40
0.300000
  0
CIRCLE
  8
39
 62
7
  6
CONTINUOUS
 10
28.500000
 20
40.200000
 30
0.0
 40
0.300000
  0
CIRCLE
  8
39
 62
7
  6
CONTINUOUS
 10
27.700000
 20
40.200000
 30
0.0
 40
0.300000
  0
CIRCLE
  8
39
 62
7
  6
CONTINUOUS
 10
27.700000
 20
42.300000
 30
0.0
 40
0.300000
  0
CIRCLE
  8
39
 62
7
  6
CONTINUOUS
 10
28.500000
 20
42.300000
 30
0.0
 40
0.300000
  0
CIRCLE
  8
39
 62
7
  6
CONTINUOUS
 10
28.500000
 20
40.900000
 30
0.0
 40
0.300000
  0
CIRCLE
  8
39
 62
7
  6
CONTINUOUS
 10
28.500000
 20
41.600000
 30
0.0
 40
0.300000
  0
CIRCLE
  8
39
 62
7
  6
CONTINUOUS
 10
20.500000
 20
42.300000
 30
0.0
 40
0.300000
  0
CIRCLE
  8
39
 62
7
  6
CONTINUOUS
 10
21.300000
 20
42.300000
 30
0.0
 40
0.300000
  0
CIRCLE
  8
39
 62
7
  6
CONTINUOUS
 10
20.500000
 20
41.600000
 30
0.0
 40
0.300000
  0
CIRCLE
  8
39
 62
7
  6
CONTINUOUS
 10
21.300000
 20
41.600000
 30
0.0
 40
0.300000
  0
CIRCLE
  8
39
 62
7
  6
CONTINUOUS
 10
20.500000
 20
40.900000
 30
0.0
 40
0.300000
  0
CIRCLE
  8
39
 62
7
  6
CONTINUOUS
 10
21.300000
 20
40.900000
 30
0.0
 40
0.300000
  0
CIRCLE
  8
39
 62
7
  6
CONTINUOUS
 10
20.500000
 20
40.200000
 30
0.0
 40
0.300000
  0
CIRCLE
  8
39
 62
7
  6
CONTINUOUS
 10
21.300000
 20
40.200000
 30
0.0
 40
0.300000
  0
CIRCLE
  8
39
 62
7
  6
CONTINUOUS
 10
22.300000
 20
42.300000
 30
0.0
 40
0.300000
  0
CIRCLE
  8
39
 62
7
  6
CONTINUOUS
 10
23.100000
 20
42.300000
 30
0.0
 40
0.300000
  0
CIRCLE
  8
39
 62
7
  6
CONTINUOUS
 10
22.300000
 20
41.600000
 30
0.0
 40
0.300000
  0
CIRCLE
  8
39
 62
7
  6
CONTINUOUS
 10
23.100000
 20
41.600000
 30
0.0
 40
0.300000
  0
CIRCLE
  8
39
 62
7
  6
CONTINUOUS
 10
22.300000
 20
40.900000
 30
0.0
 40
0.300000
  0
CIRCLE
  8
39
 62
7
  6
CONTINUOUS
 10
23.100000
 20
40.900000
 30
0.0
 40
0.300000
  0
CIRCLE
  8
39
 62
7
  6
CONTINUOUS
 10
22.300000
 20
40.200000
 30
0.0
 40
0.300000
  0
CIRCLE
  8
39
 62
7
  6
CONTINUOUS
 10
23.100000
 20
40.200000
 30
0.0
 40
0.300000
  0
POLYLINE
  8
39
 62
7
  6
CONTINUOUS
 70
0
 66
1
  0
VERTEX
 10
21.800000
 20
42.800000
  8
39
 62
7
  6
CONTINUOUS
  0
VERTEX
 10
21.800000
 20
39.700000
  8
39
 62
7
  6
CONTINUOUS
  0
SEQEND
  0
POLYLINE
  8
39
 62
7
  6
CONTINUOUS
 70
0
 66
1
  0
VERTEX
 10
23.600000
 20
42.800000
  8
39
 62
7
  6
CONTINUOUS
  0
VERTEX
 10
23.600000
 20
39.700000
  8
39
 62
7
  6
CONTINUOUS
  0
SEQEND
  0
CIRCLE
  8
39
 62
7
  6
CONTINUOUS
 10
24.100000
 20
40.200000
 30
0.0
 40
0.300000
  0
CIRCLE
  8
39
 62
7
  6
CONTINUOUS
 10
24.100000
 20
40.900000
 30
0.0
 40
0.300000
  0
CIRCLE
  8
39
 62
7
  6
CONTINUOUS
 10
24.100000
 20
41.600000
 30
0.0
 40
0.300000
  0
CIRCLE
  8
39
 62
7
  6
CONTINUOUS
 10
24.100000
 20
42.300000
 30
0.0
 40
0.300000
  0
CIRCLE
  8
39
 62
7
  6
CONTINUOUS
 10
24.900000
 20
42.300000
 30
0.0
 40
0.300000
  0
CIRCLE
  8
39
 62
7
  6
CONTINUOUS
 10
24.900000
 20
41.600000
 30
0.0
 40
0.300000
  0
CIRCLE
  8
39
 62
7
  6
CONTINUOUS
 10
24.900000
 20
40.900000
 30
0.0
 40
0.300000
  0
CIRCLE
  8
39
 62
7
  6
CONTINUOUS
 10
24.900000
 20
40.200000
 30
0.0
 40
0.300000
  0
POLYLINE
  8
39
 62
7
  6
CONTINUOUS
 70
0
 66
1
  0
VERTEX
 10
27.200000
 20
42.800000
  8
39
 62
7
  6
CONTINUOUS
  0
VERTEX
 10
27.200000
 20
39.700000
  8
39
 62
7
  6
CONTINUOUS
  0
SEQEND
  0
CIRCLE
  8
39
 62
7
  6
CONTINUOUS
 10
25.900000
 20
42.300000
 30
0.0
 40
0.300000
  0
CIRCLE
  8
39
 62
7
  6
CONTINUOUS
 10
26.700000
 20
42.300000
 30
0.0
 40
0.300000
  0
CIRCLE
  8
39
 62
7
  6
CONTINUOUS
 10
25.900000
 20
41.600000
 30
0.0
 40
0.300000
  0
CIRCLE
  8
39
 62
7
  6
CONTINUOUS
 10
26.700000
 20
41.600000
 30
0.0
 40
0.300000
  0
CIRCLE
  8
39
 62
7
  6
CONTINUOUS
 10
25.900000
 20
40.900000
 30
0.0
 40
0.300000
  0
CIRCLE
  8
39
 62
7
  6
CONTINUOUS
 10
26.700000
 20
40.900000
 30
0.0
 40
0.300000
  0
CIRCLE
  8
39
 62
7
  6
CONTINUOUS
 10
25.900000
 20
40.200000
 30
0.0
 40
0.300000
  0
CIRCLE
  8
39
 62
7
  6
CONTINUOUS
 10
26.700000
 20
40.200000
 30
0.0
 40
0.300000
  0
POLYLINE
  8
39
 62
7
  6
CONTINUOUS
 70
0
 66
1
  0
VERTEX
 10
25.400000
 20
42.800000
  8
39
 62
7
  6
CONTINUOUS
  0
VERTEX
 10
25.400000
 20
39.700000
  8
39
 62
7
  6
CONTINUOUS
  0
SEQEND
  0
POLYLINE
  8
39
 62
7
  6
CONTINUOUS
 70
1
 66
1
  0
VERTEX
 10
20.000000
 20
39.700000
 30
0.000000
  8
39
 62
7
  6
CONTINUOUS
  0
VERTEX
 10
20.000000
 20
42.800000
 30
0.000000
  8
39
 62
7
  6
CONTINUOUS
  0
VERTEX
 10
29.000000
 20
42.800000
 30
0.000000
  8
39
 62
7
  6
CONTINUOUS
  0
VERTEX
 10
29.000000
 20
39.700000
 30
0.000000
  8
39
 62
7
  6
CONTINUOUS
  0
SEQEND
  0
CIRCLE
  8
39
 62
7
  6
CONTINUOUS
 10
27.700000
 20
40.900000
 30
0.0
 40
0.300000
  0
CIRCLE
  8
39
 62
7
  6
CONTINUOUS
 10
27.700000
 20
41.600000
 30
0.0
 40
0.300000
  0
CIRCLE
  8
39
 62
7
  6
CONTINUOUS
 10
28.500000
 20
40.200000
 30
0.0
 40
0.300000
  0
CIRCLE
  8
39
 62
7
  6
CONTINUOUS
 10
27.700000
 20
40.200000
 30
0.0
 40
0.300000
  0
CIRCLE
  8
39
 62
7
  6
CONTINUOUS
 10
27.700000
 20
42.300000
 30
0.0
 40
0.300000
  0
CIRCLE
  8
39
 62
7
  6
CONTINUOUS
 10
28.500000
 20
42.300000
 30
0.0
 40
0.300000
  0
CIRCLE
  8
39
 62
7
  6
CONTINUOUS
 10
28.500000
 20
40.900000
 30
0.0
 40
0.300000
  0
CIRCLE
  8
39
 62
7
  6
CONTINUOUS
 10
28.500000
 20
41.600000
 30
0.0
 40
0.300000
  0
CIRCLE
  8
39
 62
7
  6
CONTINUOUS
 10
20.500000
 20
42.300000
 30
0.0
 40
0.300000
  0
CIRCLE
  8
39
 62
7
  6
CONTINUOUS
 10
21.300000
 20
42.300000
 30
0.0
 40
0.300000
  0
CIRCLE
  8
39
 62
7
  6
CONTINUOUS
 10
20.500000
 20
41.600000
 30
0.0
 40
0.300000
  0
CIRCLE
  8
39
 62
7
  6
CONTINUOUS
 10
21.300000
 20
41.600000
 30
0.0
 40
0.300000
  0
CIRCLE
  8
39
 62
7
  6
CONTINUOUS
 10
20.500000
 20
40.900000
 30
0.0
 40
0.300000
  0
CIRCLE
  8
39
 62
7
  6
CONTINUOUS
 10
21.300000
 20
40.900000
 30
0.0
 40
0.300000
  0
CIRCLE
  8
39
 62
7
  6
CONTINUOUS
 10
20.500000
 20
40.200000
 30
0.0
 40
0.300000
  0
CIRCLE
  8
39
 62
7
  6
CONTINUOUS
 10
21.300000
 20
40.200000
 30
0.0
 40
0.300000
  0
CIRCLE
  8
39
 62
7
  6
CONTINUOUS
 10
22.300000
 20
42.300000
 30
0.0
 40
0.300000
  0
CIRCLE
  8
39
 62
7
  6
CONTINUOUS
 10
23.100000
 20
42.300000
 30
0.0
 40
0.300000
  0
CIRCLE
  8
39
 62
7
  6
CONTINUOUS
 10
22.300000
 20
41.600000
 30
0.0
 40
0.300000
  0
CIRCLE
  8
39
 62
7
  6
CONTINUOUS
 10
23.100000
 20
41.600000
 30
0.0
 40
0.300000
  0
CIRCLE
  8
39
 62
7
  6
CONTINUOUS
 10
22.300000
 20
40.900000
 30
0.0
 40
0.300000
  0
CIRCLE
  8
39
 62
7
  6
CONTINUOUS
 10
23.100000
 20
40.900000
 30
0.0
 40
0.300000
  0
CIRCLE
  8
39
 62
7
  6
CONTINUOUS
 10
22.300000
 20
40.200000
 30
0.0
 40
0.300000
  0
CIRCLE
  8
39
 62
7
  6
CONTINUOUS
 10
23.100000
 20
40.200000
 30
0.0
 40
0.300000
  0
POLYLINE
  8
39
 62
7
  6
CONTINUOUS
 70
0
 66
1
  0
VERTEX
 10
21.800000
 20
42.800000
  8
39
 62
7
  6
CONTINUOUS
  0
VERTEX
 10
21.800000
 20
39.700000
  8
39
 62
7
  6
CONTINUOUS
  0
SEQEND
  0
POLYLINE
  8
39
 62
7
  6
CONTINUOUS
 70
0
 66
1
  0
VERTEX
 10
23.600000
 20
42.800000
  8
39
 62
7
  6
CONTINUOUS
  0
VERTEX
 10
23.600000
 20
39.700000
  8
39
 62
7
  6
CONTINUOUS
  0
SEQEND
  0
CIRCLE
  8
39
 62
7
  6
CONTINUOUS
 10
24.100000
 20
40.200000
 30
0.0
 40
0.300000
  0
CIRCLE
  8
39
 62
7
  6
CONTINUOUS
 10
24.100000
 20
40.900000
 30
0.0
 40
0.300000
  0
CIRCLE
  8
39
 62
7
  6
CONTINUOUS
 10
24.100000
 20
41.600000
 30
0.0
 40
0.300000
  0
CIRCLE
  8
39
 62
7
  6
CONTINUOUS
 10
24.100000
 20
42.300000
 30
0.0
 40
0.300000
  0
CIRCLE
  8
39
 62
7
  6
CONTINUOUS
 10
24.900000
 20
42.300000
 30
0.0
 40
0.300000
  0
CIRCLE
  8
39
 62
7
  6
CONTINUOUS
 10
24.900000
 20
41.600000
 30
0.0
 40
0.300000
  0
CIRCLE
  8
39
 62
7
  6
CONTINUOUS
 10
24.900000
 20
40.900000
 30
0.0
 40
0.300000
  0
CIRCLE
  8
39
 62
7
  6
CONTINUOUS
 10
24.900000
 20
40.200000
 30
0.0
 40
0.300000
  0
POLYLINE
  8
39
 62
7
  6
CONTINUOUS
 70
0
 66
1
  0
VERTEX
 10
27.200000
 20
42.800000
  8
39
 62
7
  6
CONTINUOUS
  0
VERTEX
 10
27.200000
 20
39.700000
  8
39
 62
7
  6
CONTINUOUS
  0
SEQEND
  0
CIRCLE
  8
39
 62
7
  6
CONTINUOUS
 10
25.900000
 20
42.300000
 30
0.0
 40
0.300000
  0
CIRCLE
  8
39
 62
7
  6
CONTINUOUS
 10
26.700000
 20
42.300000
 30
0.0
 40
0.300000
  0
CIRCLE
  8
39
 62
7
  6
CONTINUOUS
 10
25.900000
 20
41.600000
 30
0.0
 40
0.300000
  0
CIRCLE
  8
39
 62
7
  6
CONTINUOUS
 10
26.700000
 20
41.600000
 30
0.0
 40
0.300000
  0
CIRCLE
  8
39
 62
7
  6
CONTINUOUS
 10
25.900000
 20
40.900000
 30
0.0
 40
0.300000
  0
CIRCLE
  8
39
 62
7
  6
CONTINUOUS
 10
26.700000
 20
40.900000
 30
0.0
 40
0.300000
  0
CIRCLE
  8
39
 62
7
  6
CONTINUOUS
 10
25.900000
 20
40.200000
 30
0.0
 40
0.300000
  0
CIRCLE
  8
39
 62
7
  6
CONTINUOUS
 10
26.700000
 20
40.200000
 30
0.0
 40
0.300000
  0
POLYLINE
  8
39
 62
7
  6
CONTINUOUS
 70
0
 66
1
  0
VERTEX
 10
25.400000
 20
42.800000
  8
39
 62
7
  6
CONTINUOUS
  0
VERTEX
 10
25.400000
 20
39.700000
  8
39
 62
7
  6
CONTINUOUS
  0
SEQEND
  0
POLYLINE
  8
39
 62
7
  6
CONTINUOUS
 70
1
 66
1
  0
VERTEX
 10
32.600000
 20
51.800000
 30
0.000000
  8
39
 62
7
  6
CONTINUOUS
  0
VERTEX
 10
32.600000
 20
52.800000
 30
0.000000
  8
39
 62
7
  6
CONTINUOUS
  0
VERTEX
 10
18.300000
 20
52.800000
 30
0.000000
  8
39
 62
7
  6
CONTINUOUS
  0
VERTEX
 10
18.300000
 20
51.800000
 30
0.000000
  8
39
 62
7
  6
CONTINUOUS
  0
SEQEND
  0
POLYLINE
  8
39
 62
7
  6
CONTINUOUS
 70
1
 66
1
  0
VERTEX
 10
32.600000
 20
52.800000
 30
0.000000
  8
39
 62
7
  6
CONTINUOUS
  0
VERTEX
 10
32.600000
 20
53.800000
 30
0.000000
  8
39
 62
7
  6
CONTINUOUS
  0
VERTEX
 10
18.300000
 20
53.800000
 30
0.000000
  8
39
 62
7
  6
CONTINUOUS
  0
VERTEX
 10
18.300000
 20
52.800000
 30
0.000000
  8
39
 62
7
  6
CONTINUOUS
  0
SEQEND
  0
POLYLINE
  8
39
 62
7
  6
CONTINUOUS
 70
1
 66
1
  0
VERTEX
 10
32.600000
 20
51.800000
 30
0.000000
  8
39
 62
7
  6
CONTINUOUS
  0
VERTEX
 10
32.600000
 20
52.800000
 30
0.000000
  8
39
 62
7
  6
CONTINUOUS
  0
VERTEX
 10
18.300000
 20
52.800000
 30
0.000000
  8
39
 62
7
  6
CONTINUOUS
  0
VERTEX
 10
18.300000
 20
51.800000
 30
0.000000
  8
39
 62
7
  6
CONTINUOUS
  0
SEQEND
  0
POLYLINE
  8
39
 62
7
  6
CONTINUOUS
 70
1
 66
1
  0
VERTEX
 10
18.300000
 20
53.800000
  8
39
 62
7
  6
CONTINUOUS
  0
VERTEX
 10
18.300000
 20
54.000000
  8
39
 62
7
  6
CONTINUOUS
  0
VERTEX
 10
18.800000
 20
55.000000
  8
39
 62
7
  6
CONTINUOUS
  0
VERTEX
 10
32.100000
 20
55.000000
  8
39
 62
7
  6
CONTINUOUS
  0
VERTEX
 10
32.600000
 20
54.000000
  8
39
 62
7
  6
CONTINUOUS
  0
VERTEX
 10
32.600000
 20
53.800000
  8
39
 62
7
  6
CONTINUOUS
  0
SEQEND
  0
POLYLINE
  8
39
 62
7
  6
CONTINUOUS
 70
1
 66
1
  0
VERTEX
 10
23.600000
 20
24.500000
 30
0.000000
  8
39
 62
7
  6
CONTINUOUS
  0
VERTEX
 10
23.600000
 20
33.000000
 30
0.000000
  8
39
 62
7
  6
CONTINUOUS
  0
VERTEX
 10
25.400000
 20
33.000000
 30
0.000000
  8
39
 62
7
  6
CONTINUOUS
  0
VERTEX
 10
25.400000
 20
24.500000
 30
0.000000
  8
39
 62
7
  6
CONTINUOUS
  0
SEQEND
  0
CIRCLE
  8
39
 62
7
  6
CONTINUOUS
 10
24.100000
 20
32.300000
 30
0.0
 40
0.300000
  0
CIRCLE
  8
39
 62
7
  6
CONTINUOUS
 10
24.100000
 20
25.200000
 30
0.0
 40
0.300000
  0
CIRCLE
  8
39
 62
7
  6
CONTINUOUS
 10
24.900000
 20
32.300000
 30
0.0
 40
0.400000
  0
CIRCLE
  8
39
 62
7
  6
CONTINUOUS
 10
24.900000
 20
25.200000
 30
0.0
 40
0.400000
  0
POLYLINE
  8
39
 62
7
  6
CONTINUOUS
 70
1
 66
1
  0
VERTEX
 10
25.400000
 20
24.500000
 30
0.000000
  8
39
 62
7
  6
CONTINUOUS
  0
VERTEX
 10
25.400000
 20
33.000000
 30
0.000000
  8
39
 62
7
  6
CONTINUOUS
  0
VERTEX
 10
27.200000
 20
33.000000
 30
0.000000
  8
39
 62
7
  6
CONTINUOUS
  0
VERTEX
 10
27.200000
 20
24.500000
 30
0.000000
  8
39
 62
7
  6
CONTINUOUS
  0
SEQEND
  0
CIRCLE
  8
39
 62
7
  6
CONTINUOUS
 10
25.900000
 20
32.300000
 30
0.0
 40
0.300000
  0
CIRCLE
  8
39
 62
7
  6
CONTINUOUS
 10
25.900000
 20
25.200000
 30
0.0
 40
0.300000
  0
CIRCLE
  8
39
 62
7
  6
CONTINUOUS
 10
26.700000
 20
32.300000
 30
0.0
 40
0.400000
  0
CIRCLE
  8
39
 62
7
  6
CONTINUOUS
 10
26.700000
 20
25.200000
 30
0.0
 40
0.400000
  0
POLYLINE
  8
39
 62
7
  6
CONTINUOUS
 70
1
 66
1
  0
VERTEX
 10
27.200000
 20
24.500000
 30
0.000000
  8
39
 62
7
  6
CONTINUOUS
  0
VERTEX
 10
27.200000
 20
33.000000
 30
0.000000
  8
39
 62
7
  6
CONTINUOUS
  0
VERTEX
 10
29.000000
 20
33.000000
 30
0.000000
  8
39
 62
7
  6
CONTINUOUS
  0
VERTEX
 10
29.000000
 20
24.500000
 30
0.000000
  8
39
 62
7
  6
CONTINUOUS
  0
SEQEND
  0
CIRCLE
  8
39
 62
7
  6
CONTINUOUS
 10
27.700000
 20
32.300000
 30
0.0
 40
0.300000
  0
CIRCLE
  8
39
 62
7
  6
CONTINUOUS
 10
27.700000
 20
25.200000
 30
0.0
 40
0.300000
  0
CIRCLE
  8
39
 62
7
  6
CONTINUOUS
 10
28.500000
 20
32.300000
 30
0.0
 40
0.400000
  0
CIRCLE
  8
39
 62
7
  6
CONTINUOUS
 10
28.500000
 20
25.200000
 30
0.0
 40
0.400000
  0
POLYLINE
  8
2
 62
7
  6
CONTINUOUS
 70
1
 66
1
  0
VERTEX
 10
11.000000
 20
38.900000
 30
0.000000
  8
2
 62
7
  6
CONTINUOUS
  0
VERTEX
 10
11.000000
 20
43.500000
 30
0.000000
  8
2
 62
7
  6
CONTINUOUS
  0
VERTEX
 10
9.200000
 20
43.500000
 30
0.000000
  8
2
 62
7
  6
CONTINUOUS
  0
VERTEX
 10
9.200000
 20
38.900000
 30
0.000000
  8
2
 62
7
  6
CONTINUOUS
  0
SEQEND
  0
POLYLINE
  8
2
 62
7
  6
CONTINUOUS
 70
1
 66
1
  0
VERTEX
 10
9.300000
 20
42.900000
 30
0.000000
  8
2
 62
7
  6
CONTINUOUS
  0
VERTEX
 10
9.300000
 20
43.400000
 30
0.000000
  8
2
 62
7
  6
CONTINUOUS
  0
VERTEX
 10
10.900000
 20
43.400000
 30
0.000000
  8
2
 62
7
  6
CONTINUOUS
  0
VERTEX
 10
10.900000
 20
42.900000
 30
0.000000
  8
2
 62
7
  6
CONTINUOUS
  0
SEQEND
  0
POLYLINE
  8
2
 62
7
  6
CONTINUOUS
 70
1
 66
1
  0
VERTEX
 10
10.200000
 20
40.000000
 30
0.000000
  8
2
 62
7
  6
CONTINUOUS
  0
VERTEX
 10
10.200000
 20
39.000000
 30
0.000000
  8
2
 62
7
  6
CONTINUOUS
  0
VERTEX
 10
10.000000
 20
39.000000
 30
0.000000
  8
2
 62
7
  6
CONTINUOUS
  0
VERTEX
 10
10.000000
 20
40.000000
 30
0.000000
  8
2
 62
7
  6
CONTINUOUS
  0
SEQEND
  0
POLYLINE
  8
2
 62
7
  6
CONTINUOUS
 70
1
 66
1
  0
VERTEX
 10
12.800000
 20
38.900000
 30
0.000000
  8
2
 62
7
  6
CONTINUOUS
  0
VERTEX
 10
12.800000
 20
43.500000
 30
0.000000
  8
2
 62
7
  6
CONTINUOUS
  0
VERTEX
 10
11.000000
 20
43.500000
 30
0.000000
  8
2
 62
7
  6
CONTINUOUS
  0
VERTEX
 10
11.000000
 20
38.900000
 30
0.000000
  8
2
 62
7
  6
CONTINUOUS
  0
SEQEND
  0
POLYLINE
  8
2
 62
7
  6
CONTINUOUS
 70
1
 66
1
  0
VERTEX
 10
11.100000
 20
42.900000
 30
0.000000
  8
2
 62
7
  6
CONTINUOUS
  0
VERTEX
 10
11.100000
 20
43.400000
 30
0.000000
  8
2
 62
7
  6
CONTINUOUS
  0
VERTEX
 10
12.700000
 20
43.400000
 30
0.000000
  8
2
 62
7
  6
CONTINUOUS
  0
VERTEX
 10
12.700000
 20
42.900000
 30
0.000000
  8
2
 62
7
  6
CONTINUOUS
  0
SEQEND
  0
POLYLINE
  8
2
 62
7
  6
CONTINUOUS
 70
1
 66
1
  0
VERTEX
 10
12.000000
 20
40.000000
 30
0.000000
  8
2
 62
7
  6
CONTINUOUS
  0
VERTEX
 10
12.000000
 20
39.000000
 30
0.000000
  8
2
 62
7
  6
CONTINUOUS
  0
VERTEX
 10
11.800000
 20
39.000000
 30
0.000000
  8
2
 62
7
  6
CONTINUOUS
  0
VERTEX
 10
11.800000
 20
40.000000
 30
0.000000
  8
2
 62
7
  6
CONTINUOUS
  0
SEQEND
  0
POLYLINE
  8
2
 62
7
  6
CONTINUOUS
 70
1
 66
1
  0
VERTEX
 10
14.600000
 20
38.900000
 30
0.000000
  8
2
 62
7
  6
CONTINUOUS
  0
VERTEX
 10
14.600000
 20
43.500000
 30
0.000000
  8
2
 62
7
  6
CONTINUOUS
  0
VERTEX
 10
12.800000
 20
43.500000
 30
0.000000
  8
2
 62
7
  6
CONTINUOUS
  0
VERTEX
 10
12.800000
 20
38.900000
 30
0.000000
  8
2
 62
7
  6
CONTINUOUS
  0
SEQEND
  0
POLYLINE
  8
2
 62
7
  6
CONTINUOUS
 70
1
 66
1
  0
VERTEX
 10
12.900000
 20
42.900000
 30
0.000000
  8
2
 62
7
  6
CONTINUOUS
  0
VERTEX
 10
12.900000
 20
43.400000
 30
0.000000
  8
2
 62
7
  6
CONTINUOUS
  0
VERTEX
 10
14.500000
 20
43.400000
 30
0.000000
  8
2
 62
7
  6
CONTINUOUS
  0
VERTEX
 10
14.500000
 20
42.900000
 30
0.000000
  8
2
 62
7
  6
CONTINUOUS
  0
SEQEND
  0
POLYLINE
  8
2
 62
7
  6
CONTINUOUS
 70
1
 66
1
  0
VERTEX
 10
9.200000
 20
38.900000
 30
0.000000
  8
2
 62
7
  6
CONTINUOUS
  0
VERTEX
 10
9.200000
 20
43.500000
 30
0.000000
  8
2
 62
7
  6
CONTINUOUS
  0
VERTEX
 10
7.400000
 20
43.500000
 30
0.000000
  8
2
 62
7
  6
CONTINUOUS
  0
VERTEX
 10
7.400000
 20
38.900000
 30
0.000000
  8
2
 62
7
  6
CONTINUOUS
  0
SEQEND
  0
POLYLINE
  8
2
 62
7
  6
CONTINUOUS
 70
1
 66
1
  0
VERTEX
 10
7.500000
 20
42.900000
 30
0.000000
  8
2
 62
7
  6
CONTINUOUS
  0
VERTEX
 10
7.500000
 20
43.400000
 30
0.000000
  8
2
 62
7
  6
CONTINUOUS
  0
VERTEX
 10
9.100000
 20
43.400000
 30
0.000000
  8
2
 62
7
  6
CONTINUOUS
  0
VERTEX
 10
9.100000
 20
42.900000
 30
0.000000
  8
2
 62
7
  6
CONTINUOUS
  0
SEQEND
  0
POLYLINE
  8
2
 62
7
  6
CONTINUOUS
 70
1
 66
1
  0
VERTEX
 10
8.400000
 20
40.000000
 30
0.000000
  8
2
 62
7
  6
CONTINUOUS
  0
VERTEX
 10
8.400000
 20
39.000000
 30
0.000000
  8
2
 62
7
  6
CONTINUOUS
  0
VERTEX
 10
8.200000
 20
39.000000
 30
0.000000
  8
2
 62
7
  6
CONTINUOUS
  0
VERTEX
 10
8.200000
 20
40.000000
 30
0.000000
  8
2
 62
7
  6
CONTINUOUS
  0
SEQEND
  0
POLYLINE
  8
2
 62
7
  6
CONTINUOUS
 70
1
 66
1
  0
VERTEX
 10
9.200000
 20
26.400000
 30
0.000000
  8
2
 62
7
  6
CONTINUOUS
  0
VERTEX
 10
9.200000
 20
31.000000
 30
0.000000
  8
2
 62
7
  6
CONTINUOUS
  0
VERTEX
 10
7.400000
 20
31.000000
 30
0.000000
  8
2
 62
7
  6
CONTINUOUS
  0
VERTEX
 10
7.400000
 20
26.400000
 30
0.000000
  8
2
 62
7
  6
CONTINUOUS
  0
SEQEND
  0
LINE
  8
2
 62
7
  6
L000000000000000000
 10
7.400000
 20
27.400000
 11
9.200000
 21
27.400000
  0
LINE
  8
2
 62
7
  6
L000000000000000000
 10
7.400000
 20
28.900000
 11
9.200000
 21
28.900000
  0
POLYLINE
  8
2
 62
7
  6
CONTINUOUS
 70
1
 66
1
  0
VERTEX
 10
8.900000
 20
27.400000
 30
0.000000
  8
2
 62
7
  6
CONTINUOUS
  0
VERTEX
 10
8.900000
 20
28.700000
 30
0.000000
  8
2
 62
7
  6
CONTINUOUS
  0
VERTEX
 10
7.700000
 20
28.700000
 30
0.000000
  8
2
 62
7
  6
CONTINUOUS
  0
VERTEX
 10
7.700000
 20
27.400000
 30
0.000000
  8
2
 62
7
  6
CONTINUOUS
  0
SEQEND
  0
POLYLINE
  8
2
 62
7
  6
L000000000000000000
 70
1
 66
1
  0
VERTEX
 10
9.100000
 20
27.100000
 30
0.000000
  8
2
 62
7
  6
L000000000000000000
  0
VERTEX
 10
9.100000
 20
27.600000
 30
0.000000
  8
2
 62
7
  6
L000000000000000000
  0
VERTEX
 10
7.500000
 20
27.600000
 30
0.000000
  8
2
 62
7
  6
L000000000000000000
  0
VERTEX
 10
7.500000
 20
27.100000
 30
0.000000
  8
2
 62
7
  6
L000000000000000000
  0
SEQEND
  0
POLYLINE
  8
2
 62
7
  6
CONTINUOUS
 70
1
 66
1
  0
VERTEX
 10
7.500000
 20
30.400000
 30
0.000000
  8
2
 62
7
  6
CONTINUOUS
  0
VERTEX
 10
7.500000
 20
30.900000
 30
0.000000
  8
2
 62
7
  6
CONTINUOUS
  0
VERTEX
 10
9.100000
 20
30.900000
 30
0.000000
  8
2
 62
7
  6
CONTINUOUS
  0
VERTEX
 10
9.100000
 20
30.400000
 30
0.000000
  8
2
 62
7
  6
CONTINUOUS
  0
SEQEND
  0
POLYLINE
  8
2
 62
7
  6
L000000000000000000
 70
1
 66
1
  0
VERTEX
 10
8.900000
 20
28.400000
 30
0.000000
  8
2
 62
7
  6
L000000000000000000
  0
VERTEX
 10
8.900000
 20
28.700000
 30
0.000000
  8
2
 62
7
  6
L000000000000000000
  0
VERTEX
 10
7.700000
 20
28.700000
 30
0.000000
  8
2
 62
7
  6
L000000000000000000
  0
VERTEX
 10
7.700000
 20
28.400000
 30
0.000000
  8
2
 62
7
  6
L000000000000000000
  0
SEQEND
  0
POLYLINE
  8
2
 62
7
  6
CONTINUOUS
 70
1
 66
1
  0
VERTEX
 10
8.900000
 20
27.600000
 30
0.000000
  8
2
 62
7
  6
CONTINUOUS
  0
VERTEX
 10
8.900000
 20
28.400000
 30
0.000000
  8
2
 62
7
  6
CONTINUOUS
  0
VERTEX
 10
7.700000
 20
28.400000
 30
0.000000
  8
2
 62
7
  6
CONTINUOUS
  0
VERTEX
 10
7.700000
 20
27.600000
 30
0.000000
  8
2
 62
7
  6
CONTINUOUS
  0
SEQEND
  0
POLYLINE
  8
2
 62
255
  6
L000000000000FFFFFF
 70
0
 66
1
  0
VERTEX
 10
7.700000
 20
27.800000
  8
2
 62
255
  6
L000000000000FFFFFF
  0
VERTEX
 10
8.900000
 20
27.800000
  8
2
 62
255
  6
L000000000000FFFFFF
  0
SEQEND
  0
POLYLINE
  8
2
 62
7
  6
CONTINUOUS
 70
1
 66
1
  0
VERTEX
 10
9.100000
 20
26.800000
 30
0.000000
  8
2
 62
7
  6
CONTINUOUS
  0
VERTEX
 10
9.100000
 20
27.000000
 30
0.000000
  8
2
 62
7
  6
CONTINUOUS
  0
VERTEX
 10
8.700000
 20
27.000000
 30
0.000000
  8
2
 62
7
  6
CONTINUOUS
  0
VERTEX
 10
8.700000
 20
26.800000
 30
0.000000
  8
2
 62
7
  6
CONTINUOUS
  0
SEQEND
  0
POLYLINE
  8
2
 62
255
  6
L000000000000FFFFFF
 70
0
 66
1
  0
VERTEX
 10
7.700000
 20
27.700000
  8
2
 62
255
  6
L000000000000FFFFFF
  0
VERTEX
 10
8.900000
 20
27.700000
  8
2
 62
255
  6
L000000000000FFFFFF
  0
SEQEND
  0
POLYLINE
  8
2
 62
7
  6
CONTINUOUS
 70
1
 66
1
  0
VERTEX
 10
8.300000
 20
29.900000
 30
0.000000
  8
2
 62
7
  6
CONTINUOUS
  0
VERTEX
 10
8.300000
 20
30.300000
 30
0.000000
  8
2
 62
7
  6
CONTINUOUS
  0
VERTEX
 10
7.600000
 20
30.300000
 30
0.000000
  8
2
 62
7
  6
CONTINUOUS
  0
VERTEX
 10
7.600000
 20
29.900000
 30
0.000000
  8
2
 62
7
  6
CONTINUOUS
  0
SEQEND
  0
POLYLINE
  8
2
 62
7
  6
CONTINUOUS
 70
1
 66
1
  0
VERTEX
 10
11.000000
 20
26.400000
 30
0.000000
  8
2
 62
7
  6
CONTINUOUS
  0
VERTEX
 10
11.000000
 20
31.000000
 30
0.000000
  8
2
 62
7
  6
CONTINUOUS
  0
VERTEX
 10
9.200000
 20
31.000000
 30
0.000000
  8
2
 62
7
  6
CONTINUOUS
  0
VERTEX
 10
9.200000
 20
26.400000
 30
0.000000
  8
2
 62
7
  6
CONTINUOUS
  0
SEQEND
  0
LINE
  8
2
 62
7
  6
L000000000000000000
 10
9.200000
 20
27.400000
 11
11.000000
 21
27.400000
  0
LINE
  8
2
 62
7
  6
L000000000000000000
 10
9.200000
 20
28.900000
 11
11.000000
 21
28.900000
  0
POLYLINE
  8
2
 62
7
  6
CONTINUOUS
 70
1
 66
1
  0
VERTEX
 10
10.700000
 20
27.400000
 30
0.000000
  8
2
 62
7
  6
CONTINUOUS
  0
VERTEX
 10
10.700000
 20
28.700000
 30
0.000000
  8
2
 62
7
  6
CONTINUOUS
  0
VERTEX
 10
9.500000
 20
28.700000
 30
0.000000
  8
2
 62
7
  6
CONTINUOUS
  0
VERTEX
 10
9.500000
 20
27.400000
 30
0.000000
  8
2
 62
7
  6
CONTINUOUS
  0
SEQEND
  0
POLYLINE
  8
2
 62
7
  6
L000000000000000000
 70
1
 66
1
  0
VERTEX
 10
10.900000
 20
27.100000
 30
0.000000
  8
2
 62
7
  6
L000000000000000000
  0
VERTEX
 10
10.900000
 20
27.600000
 30
0.000000
  8
2
 62
7
  6
L000000000000000000
  0
VERTEX
 10
9.300000
 20
27.600000
 30
0.000000
  8
2
 62
7
  6
L000000000000000000
  0
VERTEX
 10
9.300000
 20
27.100000
 30
0.000000
  8
2
 62
7
  6
L000000000000000000
  0
SEQEND
  0
POLYLINE
  8
2
 62
7
  6
CONTINUOUS
 70
1
 66
1
  0
VERTEX
 10
9.300000
 20
30.400000
 30
0.000000
  8
2
 62
7
  6
CONTINUOUS
  0
VERTEX
 10
9.300000
 20
30.900000
 30
0.000000
  8
2
 62
7
  6
CONTINUOUS
  0
VERTEX
 10
10.900000
 20
30.900000
 30
0.000000
  8
2
 62
7
  6
CONTINUOUS
  0
VERTEX
 10
10.900000
 20
30.400000
 30
0.000000
  8
2
 62
7
  6
CONTINUOUS
  0
SEQEND
  0
POLYLINE
  8
2
 62
7
  6
L000000000000000000
 70
1
 66
1
  0
VERTEX
 10
10.700000
 20
28.400000
 30
0.000000
  8
2
 62
7
  6
L000000000000000000
  0
VERTEX
 10
10.700000
 20
28.700000
 30
0.000000
  8
2
 62
7
  6
L000000000000000000
  0
VERTEX
 10
9.500000
 20
28.700000
 30
0.000000
  8
2
 62
7
  6
L000000000000000000
  0
VERTEX
 10
9.500000
 20
28.400000
 30
0.000000
  8
2
 62
7
  6
L000000000000000000
  0
SEQEND
  0
POLYLINE
  8
2
 62
7
  6
CONTINUOUS
 70
1
 66
1
  0
VERTEX
 10
10.700000
 20
27.600000
 30
0.000000
  8
2
 62
7
  6
CONTINUOUS
  0
VERTEX
 10
10.700000
 20
28.400000
 30
0.000000
  8
2
 62
7
  6
CONTINUOUS
  0
VERTEX
 10
9.500000
 20
28.400000
 30
0.000000
  8
2
 62
7
  6
CONTINUOUS
  0
VERTEX
 10
9.500000
 20
27.600000
 30
0.000000
  8
2
 62
7
  6
CONTINUOUS
  0
SEQEND
  0
POLYLINE
  8
2
 62
255
  6
L000000000000FFFFFF
 70
0
 66
1
  0
VERTEX
 10
9.500000
 20
27.800000
  8
2
 62
255
  6
L000000000000FFFFFF
  0
VERTEX
 10
10.700000
 20
27.800000
  8
2
 62
255
  6
L000000000000FFFFFF
  0
SEQEND
  0
POLYLINE
  8
2
 62
7
  6
CONTINUOUS
 70
1
 66
1
  0
VERTEX
 10
10.900000
 20
26.800000
 30
0.000000
  8
2
 62
7
  6
CONTINUOUS
  0
VERTEX
 10
10.900000
 20
27.000000
 30
0.000000
  8
2
 62
7
  6
CONTINUOUS
  0
VERTEX
 10
10.500000
 20
27.000000
 30
0.000000
  8
2
 62
7
  6
CONTINUOUS
  0
VERTEX
 10
10.500000
 20
26.800000
 30
0.000000
  8
2
 62
7
  6
CONTINUOUS
  0
SEQEND
  0
POLYLINE
  8
2
 62
255
  6
L000000000000FFFFFF
 70
0
 66
1
  0
VERTEX
 10
9.500000
 20
27.700000
  8
2
 62
255
  6
L000000000000FFFFFF
  0
VERTEX
 10
10.700000
 20
27.700000
  8
2
 62
255
  6
L000000000000FFFFFF
  0
SEQEND
  0
POLYLINE
  8
2
 62
7
  6
CONTINUOUS
 70
1
 66
1
  0
VERTEX
 10
10.100000
 20
29.900000
 30
0.000000
  8
2
 62
7
  6
CONTINUOUS
  0
VERTEX
 10
10.100000
 20
30.300000
 30
0.000000
  8
2
 62
7
  6
CONTINUOUS
  0
VERTEX
 10
9.400000
 20
30.300000
 30
0.000000
  8
2
 62
7
  6
CONTINUOUS
  0
VERTEX
 10
9.400000
 20
29.900000
 30
0.000000
  8
2
 62
7
  6
CONTINUOUS
  0
SEQEND
  0
POLYLINE
  8
2
 62
7
  6
CONTINUOUS
 70
1
 66
1
  0
VERTEX
 10
12.800000
 20
26.400000
 30
0.000000
  8
2
 62
7
  6
CONTINUOUS
  0
VERTEX
 10
12.800000
 20
31.000000
 30
0.000000
  8
2
 62
7
  6
CONTINUOUS
  0
VERTEX
 10
11.000000
 20
31.000000
 30
0.000000
  8
2
 62
7
  6
CONTINUOUS
  0
VERTEX
 10
11.000000
 20
26.400000
 30
0.000000
  8
2
 62
7
  6
CONTINUOUS
  0
SEQEND
  0
LINE
  8
2
 62
7
  6
L000000000000000000
 10
11.000000
 20
27.400000
 11
12.800000
 21
27.400000
  0
LINE
  8
2
 62
7
  6
L000000000000000000
 10
11.000000
 20
28.900000
 11
12.800000
 21
28.900000
  0
POLYLINE
  8
2
 62
7
  6
CONTINUOUS
 70
1
 66
1
  0
VERTEX
 10
12.500000
 20
27.400000
 30
0.000000
  8
2
 62
7
  6
CONTINUOUS
  0
VERTEX
 10
12.500000
 20
28.700000
 30
0.000000
  8
2
 62
7
  6
CONTINUOUS
  0
VERTEX
 10
11.300000
 20
28.700000
 30
0.000000
  8
2
 62
7
  6
CONTINUOUS
  0
VERTEX
 10
11.300000
 20
27.400000
 30
0.000000
  8
2
 62
7
  6
CONTINUOUS
  0
SEQEND
  0
POLYLINE
  8
2
 62
7
  6
L000000000000000000
 70
1
 66
1
  0
VERTEX
 10
12.700000
 20
27.100000
 30
0.000000
  8
2
 62
7
  6
L000000000000000000
  0
VERTEX
 10
12.700000
 20
27.600000
 30
0.000000
  8
2
 62
7
  6
L000000000000000000
  0
VERTEX
 10
11.100000
 20
27.600000
 30
0.000000
  8
2
 62
7
  6
L000000000000000000
  0
VERTEX
 10
11.100000
 20
27.100000
 30
0.000000
  8
2
 62
7
  6
L000000000000000000
  0
SEQEND
  0
POLYLINE
  8
2
 62
7
  6
CONTINUOUS
 70
1
 66
1
  0
VERTEX
 10
11.100000
 20
30.400000
 30
0.000000
  8
2
 62
7
  6
CONTINUOUS
  0
VERTEX
 10
11.100000
 20
30.900000
 30
0.000000
  8
2
 62
7
  6
CONTINUOUS
  0
VERTEX
 10
12.700000
 20
30.900000
 30
0.000000
  8
2
 62
7
  6
CONTINUOUS
  0
VERTEX
 10
12.700000
 20
30.400000
 30
0.000000
  8
2
 62
7
  6
CONTINUOUS
  0
SEQEND
  0
POLYLINE
  8
2
 62
7
  6
L000000000000000000
 70
1
 66
1
  0
VERTEX
 10
12.500000
 20
28.400000
 30
0.000000
  8
2
 62
7
  6
L000000000000000000
  0
VERTEX
 10
12.500000
 20
28.700000
 30
0.000000
  8
2
 62
7
  6
L000000000000000000
  0
VERTEX
 10
11.300000
 20
28.700000
 30
0.000000
  8
2
 62
7
  6
L000000000000000000
  0
VERTEX
 10
11.300000
 20
28.400000
 30
0.000000
  8
2
 62
7
  6
L000000000000000000
  0
SEQEND
  0
POLYLINE
  8
2
 62
7
  6
CONTINUOUS
 70
1
 66
1
  0
VERTEX
 10
12.500000
 20
27.600000
 30
0.000000
  8
2
 62
7
  6
CONTINUOUS
  0
VERTEX
 10
12.500000
 20
28.400000
 30
0.000000
  8
2
 62
7
  6
CONTINUOUS
  0
VERTEX
 10
11.300000
 20
28.400000
 30
0.000000
  8
2
 62
7
  6
CONTINUOUS
  0
VERTEX
 10
11.300000
 20
27.600000
 30
0.000000
  8
2
 62
7
  6
CONTINUOUS
  0
SEQEND
  0
POLYLINE
  8
2
 62
255
  6
L000000000000FFFFFF
 70
0
 66
1
  0
VERTEX
 10
11.300000
 20
27.800000
  8
2
 62
255
  6
L000000000000FFFFFF
  0
VERTEX
 10
12.500000
 20
27.800000
  8
2
 62
255
  6
L000000000000FFFFFF
  0
SEQEND
  0
POLYLINE
  8
2
 62
7
  6
CONTINUOUS
 70
1
 66
1
  0
VERTEX
 10
12.700000
 20
26.800000
 30
0.000000
  8
2
 62
7
  6
CONTINUOUS
  0
VERTEX
 10
12.700000
 20
27.000000
 30
0.000000
  8
2
 62
7
  6
CONTINUOUS
  0
VERTEX
 10
12.300000
 20
27.000000
 30
0.000000
  8
2
 62
7
  6
CONTINUOUS
  0
VERTEX
 10
12.300000
 20
26.800000
 30
0.000000
  8
2
 62
7
  6
CONTINUOUS
  0
SEQEND
  0
POLYLINE
  8
2
 62
255
  6
L000000000000FFFFFF
 70
0
 66
1
  0
VERTEX
 10
11.300000
 20
27.700000
  8
2
 62
255
  6
L000000000000FFFFFF
  0
VERTEX
 10
12.500000
 20
27.700000
  8
2
 62
255
  6
L000000000000FFFFFF
  0
SEQEND
  0
POLYLINE
  8
2
 62
7
  6
CONTINUOUS
 70
1
 66
1
  0
VERTEX
 10
11.900000
 20
29.900000
 30
0.000000
  8
2
 62
7
  6
CONTINUOUS
  0
VERTEX
 10
11.900000
 20
30.300000
 30
0.000000
  8
2
 62
7
  6
CONTINUOUS
  0
VERTEX
 10
11.200000
 20
30.300000
 30
0.000000
  8
2
 62
7
  6
CONTINUOUS
  0
VERTEX
 10
11.200000
 20
29.900000
 30
0.000000
  8
2
 62
7
  6
CONTINUOUS
  0
SEQEND
  0
POLYLINE
  8
2
 62
7
  6
CONTINUOUS
 70
1
 66
1
  0
VERTEX
 10
14.600000
 20
26.400000
 30
0.000000
  8
2
 62
7
  6
CONTINUOUS
  0
VERTEX
 10
14.600000
 20
31.000000
 30
0.000000
  8
2
 62
7
  6
CONTINUOUS
  0
VERTEX
 10
12.800000
 20
31.000000
 30
0.000000
  8
2
 62
7
  6
CONTINUOUS
  0
VERTEX
 10
12.800000
 20
26.400000
 30
0.000000
  8
2
 62
7
  6
CONTINUOUS
  0
SEQEND
  0
LINE
  8
2
 62
7
  6
L000000000000000000
 10
12.800000
 20
27.400000
 11
14.600000
 21
27.400000
  0
LINE
  8
2
 62
7
  6
L000000000000000000
 10
12.800000
 20
28.900000
 11
14.600000
 21
28.900000
  0
POLYLINE
  8
2
 62
7
  6
CONTINUOUS
 70
1
 66
1
  0
VERTEX
 10
14.300000
 20
27.400000
 30
0.000000
  8
2
 62
7
  6
CONTINUOUS
  0
VERTEX
 10
14.300000
 20
28.700000
 30
0.000000
  8
2
 62
7
  6
CONTINUOUS
  0
VERTEX
 10
13.100000
 20
28.700000
 30
0.000000
  8
2
 62
7
  6
CONTINUOUS
  0
VERTEX
 10
13.100000
 20
27.400000
 30
0.000000
  8
2
 62
7
  6
CONTINUOUS
  0
SEQEND
  0
POLYLINE
  8
2
 62
7
  6
L000000000000000000
 70
1
 66
1
  0
VERTEX
 10
14.500000
 20
27.100000
 30
0.000000
  8
2
 62
7
  6
L000000000000000000
  0
VERTEX
 10
14.500000
 20
27.600000
 30
0.000000
  8
2
 62
7
  6
L000000000000000000
  0
VERTEX
 10
12.900000
 20
27.600000
 30
0.000000
  8
2
 62
7
  6
L000000000000000000
  0
VERTEX
 10
12.900000
 20
27.100000
 30
0.000000
  8
2
 62
7
  6
L000000000000000000
  0
SEQEND
  0
POLYLINE
  8
2
 62
7
  6
CONTINUOUS
 70
1
 66
1
  0
VERTEX
 10
12.900000
 20
30.400000
 30
0.000000
  8
2
 62
7
  6
CONTINUOUS
  0
VERTEX
 10
12.900000
 20
30.900000
 30
0.000000
  8
2
 62
7
  6
CONTINUOUS
  0
VERTEX
 10
14.500000
 20
30.900000
 30
0.000000
  8
2
 62
7
  6
CONTINUOUS
  0
VERTEX
 10
14.500000
 20
30.400000
 30
0.000000
  8
2
 62
7
  6
CONTINUOUS
  0
SEQEND
  0
POLYLINE
  8
2
 62
7
  6
L000000000000000000
 70
1
 66
1
  0
VERTEX
 10
14.300000
 20
28.400000
 30
0.000000
  8
2
 62
7
  6
L000000000000000000
  0
VERTEX
 10
14.300000
 20
28.700000
 30
0.000000
  8
2
 62
7
  6
L000000000000000000
  0
VERTEX
 10
13.100000
 20
28.700000
 30
0.000000
  8
2
 62
7
  6
L000000000000000000
  0
VERTEX
 10
13.100000
 20
28.400000
 30
0.000000
  8
2
 62
7
  6
L000000000000000000
  0
SEQEND
  0
POLYLINE
  8
2
 62
7
  6
CONTINUOUS
 70
1
 66
1
  0
VERTEX
 10
14.300000
 20
27.600000
 30
0.000000
  8
2
 62
7
  6
CONTINUOUS
  0
VERTEX
 10
14.300000
 20
28.400000
 30
0.000000
  8
2
 62
7
  6
CONTINUOUS
  0
VERTEX
 10
13.100000
 20
28.400000
 30
0.000000
  8
2
 62
7
  6
CONTINUOUS
  0
VERTEX
 10
13.100000
 20
27.600000
 30
0.000000
  8
2
 62
7
  6
CONTINUOUS
  0
SEQEND
  0
POLYLINE
  8
2
 62
255
  6
L000000000000FFFFFF
 70
0
 66
1
  0
VERTEX
 10
13.100000
 20
27.800000
  8
2
 62
255
  6
L000000000000FFFFFF
  0
VERTEX
 10
14.300000
 20
27.800000
  8
2
 62
255
  6
L000000000000FFFFFF
  0
SEQEND
  0
POLYLINE
  8
2
 62
7
  6
CONTINUOUS
 70
1
 66
1
  0
VERTEX
 10
14.500000
 20
26.800000
 30
0.000000
  8
2
 62
7
  6
CONTINUOUS
  0
VERTEX
 10
14.500000
 20
27.000000
 30
0.000000
  8
2
 62
7
  6
CONTINUOUS
  0
VERTEX
 10
14.100000
 20
27.000000
 30
0.000000
  8
2
 62
7
  6
CONTINUOUS
  0
VERTEX
 10
14.100000
 20
26.800000
 30
0.000000
  8
2
 62
7
  6
CONTINUOUS
  0
SEQEND
  0
POLYLINE
  8
2
 62
255
  6
L000000000000FFFFFF
 70
0
 66
1
  0
VERTEX
 10
13.100000
 20
27.700000
  8
2
 62
255
  6
L000000000000FFFFFF
  0
VERTEX
 10
14.300000
 20
27.700000
  8
2
 62
255
  6
L000000000000FFFFFF
  0
SEQEND
  0
POLYLINE
  8
2
 62
7
  6
CONTINUOUS
 70
1
 66
1
  0
VERTEX
 10
13.700000
 20
29.900000
 30
0.000000
  8
2
 62
7
  6
CONTINUOUS
  0
VERTEX
 10
13.700000
 20
30.300000
 30
0.000000
  8
2
 62
7
  6
CONTINUOUS
  0
VERTEX
 10
13.000000
 20
30.300000
 30
0.000000
  8
2
 62
7
  6
CONTINUOUS
  0
VERTEX
 10
13.000000
 20
29.900000
 30
0.000000
  8
2
 62
7
  6
CONTINUOUS
  0
SEQEND
  0
POLYLINE
  8
2
 62
7
  6
CONTINUOUS
 70
1
 66
1
  0
VERTEX
 10
16.400000
 20
26.400000
 30
0.000000
  8
2
 62
7
  6
CONTINUOUS
  0
VERTEX
 10
16.400000
 20
31.000000
 30
0.000000
  8
2
 62
7
  6
CONTINUOUS
  0
VERTEX
 10
14.600000
 20
31.000000
 30
0.000000
  8
2
 62
7
  6
CONTINUOUS
  0
VERTEX
 10
14.600000
 20
26.400000
 30
0.000000
  8
2
 62
7
  6
CONTINUOUS
  0
SEQEND
  0
LINE
  8
2
 62
7
  6
L000000000000000000
 10
14.600000
 20
27.400000
 11
16.400000
 21
27.400000
  0
LINE
  8
2
 62
7
  6
L000000000000000000
 10
14.600000
 20
28.900000
 11
16.400000
 21
28.900000
  0
POLYLINE
  8
2
 62
7
  6
CONTINUOUS
 70
1
 66
1
  0
VERTEX
 10
16.100000
 20
27.400000
 30
0.000000
  8
2
 62
7
  6
CONTINUOUS
  0
VERTEX
 10
16.100000
 20
28.700000
 30
0.000000
  8
2
 62
7
  6
CONTINUOUS
  0
VERTEX
 10
14.900000
 20
28.700000
 30
0.000000
  8
2
 62
7
  6
CONTINUOUS
  0
VERTEX
 10
14.900000
 20
27.400000
 30
0.000000
  8
2
 62
7
  6
CONTINUOUS
  0
SEQEND
  0
POLYLINE
  8
2
 62
7
  6
L000000000000000000
 70
1
 66
1
  0
VERTEX
 10
16.300000
 20
27.100000
 30
0.000000
  8
2
 62
7
  6
L000000000000000000
  0
VERTEX
 10
16.300000
 20
27.600000
 30
0.000000
  8
2
 62
7
  6
L000000000000000000
  0
VERTEX
 10
14.700000
 20
27.600000
 30
0.000000
  8
2
 62
7
  6
L000000000000000000
  0
VERTEX
 10
14.700000
 20
27.100000
 30
0.000000
  8
2
 62
7
  6
L000000000000000000
  0
SEQEND
  0
POLYLINE
  8
2
 62
7
  6
CONTINUOUS
 70
1
 66
1
  0
VERTEX
 10
14.700000
 20
30.400000
 30
0.000000
  8
2
 62
7
  6
CONTINUOUS
  0
VERTEX
 10
14.700000
 20
30.900000
 30
0.000000
  8
2
 62
7
  6
CONTINUOUS
  0
VERTEX
 10
16.300000
 20
30.900000
 30
0.000000
  8
2
 62
7
  6
CONTINUOUS
  0
VERTEX
 10
16.300000
 20
30.400000
 30
0.000000
  8
2
 62
7
  6
CONTINUOUS
  0
SEQEND
  0
POLYLINE
  8
2
 62
7
  6
L000000000000000000
 70
1
 66
1
  0
VERTEX
 10
16.100000
 20
28.400000
 30
0.000000
  8
2
 62
7
  6
L000000000000000000
  0
VERTEX
 10
16.100000
 20
28.700000
 30
0.000000
  8
2
 62
7
  6
L000000000000000000
  0
VERTEX
 10
14.900000
 20
28.700000
 30
0.000000
  8
2
 62
7
  6
L000000000000000000
  0
VERTEX
 10
14.900000
 20
28.400000
 30
0.000000
  8
2
 62
7
  6
L000000000000000000
  0
SEQEND
  0
POLYLINE
  8
2
 62
7
  6
CONTINUOUS
 70
1
 66
1
  0
VERTEX
 10
16.100000
 20
27.600000
 30
0.000000
  8
2
 62
7
  6
CONTINUOUS
  0
VERTEX
 10
16.100000
 20
28.400000
 30
0.000000
  8
2
 62
7
  6
CONTINUOUS
  0
VERTEX
 10
14.900000
 20
28.400000
 30
0.000000
  8
2
 62
7
  6
CONTINUOUS
  0
VERTEX
 10
14.900000
 20
27.600000
 30
0.000000
  8
2
 62
7
  6
CONTINUOUS
  0
SEQEND
  0
POLYLINE
  8
2
 62
255
  6
L000000000000FFFFFF
 70
0
 66
1
  0
VERTEX
 10
14.900000
 20
27.800000
  8
2
 62
255
  6
L000000000000FFFFFF
  0
VERTEX
 10
16.100000
 20
27.800000
  8
2
 62
255
  6
L000000000000FFFFFF
  0
SEQEND
  0
POLYLINE
  8
2
 62
7
  6
CONTINUOUS
 70
1
 66
1
  0
VERTEX
 10
16.300000
 20
26.800000
 30
0.000000
  8
2
 62
7
  6
CONTINUOUS
  0
VERTEX
 10
16.300000
 20
27.000000
 30
0.000000
  8
2
 62
7
  6
CONTINUOUS
  0
VERTEX
 10
15.900000
 20
27.000000
 30
0.000000
  8
2
 62
7
  6
CONTINUOUS
  0
VERTEX
 10
15.900000
 20
26.800000
 30
0.000000
  8
2
 62
7
  6
CONTINUOUS
  0
SEQEND
  0
POLYLINE
  8
2
 62
255
  6
L000000000000FFFFFF
 70
0
 66
1
  0
VERTEX
 10
14.900000
 20
27.700000
  8
2
 62
255
  6
L000000000000FFFFFF
  0
VERTEX
 10
16.100000
 20
27.700000
  8
2
 62
255
  6
L000000000000FFFFFF
  0
SEQEND
  0
POLYLINE
  8
2
 62
7
  6
CONTINUOUS
 70
1
 66
1
  0
VERTEX
 10
15.500000
 20
29.900000
 30
0.000000
  8
2
 62
7
  6
CONTINUOUS
  0
VERTEX
 10
15.500000
 20
30.300000
 30
0.000000
  8
2
 62
7
  6
CONTINUOUS
  0
VERTEX
 10
14.800000
 20
30.300000
 30
0.000000
  8
2
 62
7
  6
CONTINUOUS
  0
VERTEX
 10
14.800000
 20
29.900000
 30
0.000000
  8
2
 62
7
  6
CONTINUOUS
  0
SEQEND
  0
POLYLINE
  8
2
 62
7
  6
CONTINUOUS
 70
1
 66
1
  0
VERTEX
 10
18.200000
 20
26.400000
 30
0.000000
  8
2
 62
7
  6
CONTINUOUS
  0
VERTEX
 10
18.200000
 20
31.000000
 30
0.000000
  8
2
 62
7
  6
CONTINUOUS
  0
VERTEX
 10
16.400000
 20
31.000000
 30
0.000000
  8
2
 62
7
  6
CONTINUOUS
  0
VERTEX
 10
16.400000
 20
26.400000
 30
0.000000
  8
2
 62
7
  6
CONTINUOUS
  0
SEQEND
  0
LINE
  8
2
 62
7
  6
L000000000000000000
 10
16.400000
 20
27.400000
 11
18.200000
 21
27.400000
  0
LINE
  8
2
 62
7
  6
L000000000000000000
 10
16.400000
 20
28.900000
 11
18.200000
 21
28.900000
  0
POLYLINE
  8
2
 62
7
  6
CONTINUOUS
 70
1
 66
1
  0
VERTEX
 10
17.900000
 20
27.400000
 30
0.000000
  8
2
 62
7
  6
CONTINUOUS
  0
VERTEX
 10
17.900000
 20
28.700000
 30
0.000000
  8
2
 62
7
  6
CONTINUOUS
  0
VERTEX
 10
16.700000
 20
28.700000
 30
0.000000
  8
2
 62
7
  6
CONTINUOUS
  0
VERTEX
 10
16.700000
 20
27.400000
 30
0.000000
  8
2
 62
7
  6
CONTINUOUS
  0
SEQEND
  0
POLYLINE
  8
2
 62
7
  6
L000000000000000000
 70
1
 66
1
  0
VERTEX
 10
18.100000
 20
27.100000
 30
0.000000
  8
2
 62
7
  6
L000000000000000000
  0
VERTEX
 10
18.100000
 20
27.600000
 30
0.000000
  8
2
 62
7
  6
L000000000000000000
  0
VERTEX
 10
16.500000
 20
27.600000
 30
0.000000
  8
2
 62
7
  6
L000000000000000000
  0
VERTEX
 10
16.500000
 20
27.100000
 30
0.000000
  8
2
 62
7
  6
L000000000000000000
  0
SEQEND
  0
POLYLINE
  8
2
 62
7
  6
CONTINUOUS
 70
1
 66
1
  0
VERTEX
 10
16.500000
 20
30.400000
 30
0.000000
  8
2
 62
7
  6
CONTINUOUS
  0
VERTEX
 10
16.500000
 20
30.900000
 30
0.000000
  8
2
 62
7
  6
CONTINUOUS
  0
VERTEX
 10
18.100000
 20
30.900000
 30
0.000000
  8
2
 62
7
  6
CONTINUOUS
  0
VERTEX
 10
18.100000
 20
30.400000
 30
0.000000
  8
2
 62
7
  6
CONTINUOUS
  0
SEQEND
  0
POLYLINE
  8
2
 62
7
  6
L000000000000000000
 70
1
 66
1
  0
VERTEX
 10
17.900000
 20
28.400000
 30
0.000000
  8
2
 62
7
  6
L000000000000000000
  0
VERTEX
 10
17.900000
 20
28.700000
 30
0.000000
  8
2
 62
7
  6
L000000000000000000
  0
VERTEX
 10
16.700000
 20
28.700000
 30
0.000000
  8
2
 62
7
  6
L000000000000000000
  0
VERTEX
 10
16.700000
 20
28.400000
 30
0.000000
  8
2
 62
7
  6
L000000000000000000
  0
SEQEND
  0
POLYLINE
  8
2
 62
7
  6
CONTINUOUS
 70
1
 66
1
  0
VERTEX
 10
17.900000
 20
27.600000
 30
0.000000
  8
2
 62
7
  6
CONTINUOUS
  0
VERTEX
 10
17.900000
 20
28.400000
 30
0.000000
  8
2
 62
7
  6
CONTINUOUS
  0
VERTEX
 10
16.700000
 20
28.400000
 30
0.000000
  8
2
 62
7
  6
CONTINUOUS
  0
VERTEX
 10
16.700000
 20
27.600000
 30
0.000000
  8
2
 62
7
  6
CONTINUOUS
  0
SEQEND
  0
POLYLINE
  8
2
 62
255
  6
L000000000000FFFFFF
 70
0
 66
1
  0
VERTEX
 10
16.700000
 20
27.800000
  8
2
 62
255
  6
L000000000000FFFFFF
  0
VERTEX
 10
17.900000
 20
27.800000
  8
2
 62
255
  6
L000000000000FFFFFF
  0
SEQEND
  0
POLYLINE
  8
2
 62
7
  6
CONTINUOUS
 70
1
 66
1
  0
VERTEX
 10
18.100000
 20
26.800000
 30
0.000000
  8
2
 62
7
  6
CONTINUOUS
  0
VERTEX
 10
18.100000
 20
27.000000
 30
0.000000
  8
2
 62
7
  6
CONTINUOUS
  0
VERTEX
 10
17.700000
 20
27.000000
 30
0.000000
  8
2
 62
7
  6
CONTINUOUS
  0
VERTEX
 10
17.700000
 20
26.800000
 30
0.000000
  8
2
 62
7
  6
CONTINUOUS
  0
SEQEND
  0
POLYLINE
  8
2
 62
255
  6
L000000000000FFFFFF
 70
0
 66
1
  0
VERTEX
 10
16.700000
 20
27.700000
  8
2
 62
255
  6
L000000000000FFFFFF
  0
VERTEX
 10
17.900000
 20
27.700000
  8
2
 62
255
  6
L000000000000FFFFFF
  0
SEQEND
  0
POLYLINE
  8
2
 62
7
  6
CONTINUOUS
 70
1
 66
1
  0
VERTEX
 10
17.300000
 20
29.900000
 30
0.000000
  8
2
 62
7
  6
CONTINUOUS
  0
VERTEX
 10
17.300000
 20
30.300000
 30
0.000000
  8
2
 62
7
  6
CONTINUOUS
  0
VERTEX
 10
16.600000
 20
30.300000
 30
0.000000
  8
2
 62
7
  6
CONTINUOUS
  0
VERTEX
 10
16.600000
 20
29.900000
 30
0.000000
  8
2
 62
7
  6
CONTINUOUS
  0
SEQEND
  0
POLYLINE
  8
2
 62
7
  6
CONTINUOUS
 70
1
 66
1
  0
VERTEX
 10
20.000000
 20
26.400000
 30
0.000000
  8
2
 62
7
  6
CONTINUOUS
  0
VERTEX
 10
20.000000
 20
31.000000
 30
0.000000
  8
2
 62
7
  6
CONTINUOUS
  0
VERTEX
 10
18.200000
 20
31.000000
 30
0.000000
  8
2
 62
7
  6
CONTINUOUS
  0
VERTEX
 10
18.200000
 20
26.400000
 30
0.000000
  8
2
 62
7
  6
CONTINUOUS
  0
SEQEND
  0
LINE
  8
2
 62
7
  6
L000000000000000000
 10
18.200000
 20
27.400000
 11
20.000000
 21
27.400000
  0
LINE
  8
2
 62
7
  6
L000000000000000000
 10
18.200000
 20
28.900000
 11
20.000000
 21
28.900000
  0
POLYLINE
  8
2
 62
7
  6
CONTINUOUS
 70
1
 66
1
  0
VERTEX
 10
19.700000
 20
27.400000
 30
0.000000
  8
2
 62
7
  6
CONTINUOUS
  0
VERTEX
 10
19.700000
 20
28.700000
 30
0.000000
  8
2
 62
7
  6
CONTINUOUS
  0
VERTEX
 10
18.500000
 20
28.700000
 30
0.000000
  8
2
 62
7
  6
CONTINUOUS
  0
VERTEX
 10
18.500000
 20
27.400000
 30
0.000000
  8
2
 62
7
  6
CONTINUOUS
  0
SEQEND
  0
POLYLINE
  8
2
 62
7
  6
L000000000000000000
 70
1
 66
1
  0
VERTEX
 10
19.900000
 20
27.100000
 30
0.000000
  8
2
 62
7
  6
L000000000000000000
  0
VERTEX
 10
19.900000
 20
27.600000
 30
0.000000
  8
2
 62
7
  6
L000000000000000000
  0
VERTEX
 10
18.300000
 20
27.600000
 30
0.000000
  8
2
 62
7
  6
L000000000000000000
  0
VERTEX
 10
18.300000
 20
27.100000
 30
0.000000
  8
2
 62
7
  6
L000000000000000000
  0
SEQEND
  0
POLYLINE
  8
2
 62
7
  6
CONTINUOUS
 70
1
 66
1
  0
VERTEX
 10
18.300000
 20
30.400000
 30
0.000000
  8
2
 62
7
  6
CONTINUOUS
  0
VERTEX
 10
18.300000
 20
30.900000
 30
0.000000
  8
2
 62
7
  6
CONTINUOUS
  0
VERTEX
 10
19.900000
 20
30.900000
 30
0.000000
  8
2
 62
7
  6
CONTINUOUS
  0
VERTEX
 10
19.900000
 20
30.400000
 30
0.000000
  8
2
 62
7
  6
CONTINUOUS
  0
SEQEND
  0
POLYLINE
  8
2
 62
7
  6
L000000000000000000
 70
1
 66
1
  0
VERTEX
 10
19.700000
 20
28.400000
 30
0.000000
  8
2
 62
7
  6
L000000000000000000
  0
VERTEX
 10
19.700000
 20
28.700000
 30
0.000000
  8
2
 62
7
  6
L000000000000000000
  0
VERTEX
 10
18.500000
 20
28.700000
 30
0.000000
  8
2
 62
7
  6
L000000000000000000
  0
VERTEX
 10
18.500000
 20
28.400000
 30
0.000000
  8
2
 62
7
  6
L000000000000000000
  0
SEQEND
  0
POLYLINE
  8
2
 62
7
  6
CONTINUOUS
 70
1
 66
1
  0
VERTEX
 10
19.700000
 20
27.600000
 30
0.000000
  8
2
 62
7
  6
CONTINUOUS
  0
VERTEX
 10
19.700000
 20
28.400000
 30
0.000000
  8
2
 62
7
  6
CONTINUOUS
  0
VERTEX
 10
18.500000
 20
28.400000
 30
0.000000
  8
2
 62
7
  6
CONTINUOUS
  0
VERTEX
 10
18.500000
 20
27.600000
 30
0.000000
  8
2
 62
7
  6
CONTINUOUS
  0
SEQEND
  0
POLYLINE
  8
2
 62
255
  6
L000000000000FFFFFF
 70
0
 66
1
  0
VERTEX
 10
18.500000
 20
27.800000
  8
2
 62
255
  6
L000000000000FFFFFF
  0
VERTEX
 10
19.700000
 20
27.800000
  8
2
 62
255
  6
L000000000000FFFFFF
  0
SEQEND
  0
POLYLINE
  8
2
 62
7
  6
CONTINUOUS
 70
1
 66
1
  0
VERTEX
 10
19.900000
 20
26.800000
 30
0.000000
  8
2
 62
7
  6
CONTINUOUS
  0
VERTEX
 10
19.900000
 20
27.000000
 30
0.000000
  8
2
 62
7
  6
CONTINUOUS
  0
VERTEX
 10
19.500000
 20
27.000000
 30
0.000000
  8
2
 62
7
  6
CONTINUOUS
  0
VERTEX
 10
19.500000
 20
26.800000
 30
0.000000
  8
2
 62
7
  6
CONTINUOUS
  0
SEQEND
  0
POLYLINE
  8
2
 62
255
  6
L000000000000FFFFFF
 70
0
 66
1
  0
VERTEX
 10
18.500000
 20
27.700000
  8
2
 62
255
  6
L000000000000FFFFFF
  0
VERTEX
 10
19.700000
 20
27.700000
  8
2
 62
255
  6
L000000000000FFFFFF
  0
SEQEND
  0
POLYLINE
  8
2
 62
7
  6
CONTINUOUS
 70
1
 66
1
  0
VERTEX
 10
19.100000
 20
29.900000
 30
0.000000
  8
2
 62
7
  6
CONTINUOUS
  0
VERTEX
 10
19.100000
 20
30.300000
 30
0.000000
  8
2
 62
7
  6
CONTINUOUS
  0
VERTEX
 10
18.400000
 20
30.300000
 30
0.000000
  8
2
 62
7
  6
CONTINUOUS
  0
VERTEX
 10
18.400000
 20
29.900000
 30
0.000000
  8
2
 62
7
  6
CONTINUOUS
  0
SEQEND
  0
POLYLINE
  8
2
 62
7
  6
CONTINUOUS
 70
1
 66
1
  0
VERTEX
 10
21.800000
 20
26.400000
 30
0.000000
  8
2
 62
7
  6
CONTINUOUS
  0
VERTEX
 10
21.800000
 20
31.000000
 30
0.000000
  8
2
 62
7
  6
CONTINUOUS
  0
VERTEX
 10
20.000000
 20
31.000000
 30
0.000000
  8
2
 62
7
  6
CONTINUOUS
  0
VERTEX
 10
20.000000
 20
26.400000
 30
0.000000
  8
2
 62
7
  6
CONTINUOUS
  0
SEQEND
  0
LINE
  8
2
 62
7
  6
L000000000000000000
 10
20.000000
 20
27.400000
 11
21.800000
 21
27.400000
  0
LINE
  8
2
 62
7
  6
L000000000000000000
 10
20.000000
 20
28.900000
 11
21.800000
 21
28.900000
  0
POLYLINE
  8
2
 62
7
  6
CONTINUOUS
 70
1
 66
1
  0
VERTEX
 10
21.500000
 20
27.400000
 30
0.000000
  8
2
 62
7
  6
CONTINUOUS
  0
VERTEX
 10
21.500000
 20
28.700000
 30
0.000000
  8
2
 62
7
  6
CONTINUOUS
  0
VERTEX
 10
20.300000
 20
28.700000
 30
0.000000
  8
2
 62
7
  6
CONTINUOUS
  0
VERTEX
 10
20.300000
 20
27.400000
 30
0.000000
  8
2
 62
7
  6
CONTINUOUS
  0
SEQEND
  0
POLYLINE
  8
2
 62
7
  6
L000000000000000000
 70
1
 66
1
  0
VERTEX
 10
21.700000
 20
27.100000
 30
0.000000
  8
2
 62
7
  6
L000000000000000000
  0
VERTEX
 10
21.700000
 20
27.600000
 30
0.000000
  8
2
 62
7
  6
L000000000000000000
  0
VERTEX
 10
20.100000
 20
27.600000
 30
0.000000
  8
2
 62
7
  6
L000000000000000000
  0
VERTEX
 10
20.100000
 20
27.100000
 30
0.000000
  8
2
 62
7
  6
L000000000000000000
  0
SEQEND
  0
POLYLINE
  8
2
 62
7
  6
CONTINUOUS
 70
1
 66
1
  0
VERTEX
 10
20.100000
 20
30.400000
 30
0.000000
  8
2
 62
7
  6
CONTINUOUS
  0
VERTEX
 10
20.100000
 20
30.900000
 30
0.000000
  8
2
 62
7
  6
CONTINUOUS
  0
VERTEX
 10
21.700000
 20
30.900000
 30
0.000000
  8
2
 62
7
  6
CONTINUOUS
  0
VERTEX
 10
21.700000
 20
30.400000
 30
0.000000
  8
2
 62
7
  6
CONTINUOUS
  0
SEQEND
  0
POLYLINE
  8
2
 62
7
  6
L000000000000000000
 70
1
 66
1
  0
VERTEX
 10
21.500000
 20
28.400000
 30
0.000000
  8
2
 62
7
  6
L000000000000000000
  0
VERTEX
 10
21.500000
 20
28.700000
 30
0.000000
  8
2
 62
7
  6
L000000000000000000
  0
VERTEX
 10
20.300000
 20
28.700000
 30
0.000000
  8
2
 62
7
  6
L000000000000000000
  0
VERTEX
 10
20.300000
 20
28.400000
 30
0.000000
  8
2
 62
7
  6
L000000000000000000
  0
SEQEND
  0
POLYLINE
  8
2
 62
7
  6
CONTINUOUS
 70
1
 66
1
  0
VERTEX
 10
21.500000
 20
27.600000
 30
0.000000
  8
2
 62
7
  6
CONTINUOUS
  0
VERTEX
 10
21.500000
 20
28.400000
 30
0.000000
  8
2
 62
7
  6
CONTINUOUS
  0
VERTEX
 10
20.300000
 20
28.400000
 30
0.000000
  8
2
 62
7
  6
CONTINUOUS
  0
VERTEX
 10
20.300000
 20
27.600000
 30
0.000000
  8
2
 62
7
  6
CONTINUOUS
  0
SEQEND
  0
POLYLINE
  8
2
 62
255
  6
L000000000000FFFFFF
 70
0
 66
1
  0
VERTEX
 10
20.300000
 20
27.800000
  8
2
 62
255
  6
L000000000000FFFFFF
  0
VERTEX
 10
21.500000
 20
27.800000
  8
2
 62
255
  6
L000000000000FFFFFF
  0
SEQEND
  0
POLYLINE
  8
2
 62
7
  6
CONTINUOUS
 70
1
 66
1
  0
VERTEX
 10
21.700000
 20
26.800000
 30
0.000000
  8
2
 62
7
  6
CONTINUOUS
  0
VERTEX
 10
21.700000
 20
27.000000
 30
0.000000
  8
2
 62
7
  6
CONTINUOUS
  0
VERTEX
 10
21.300000
 20
27.000000
 30
0.000000
  8
2
 62
7
  6
CONTINUOUS
  0
VERTEX
 10
21.300000
 20
26.800000
 30
0.000000
  8
2
 62
7
  6
CONTINUOUS
  0
SEQEND
  0
POLYLINE
  8
2
 62
255
  6
L000000000000FFFFFF
 70
0
 66
1
  0
VERTEX
 10
20.300000
 20
27.700000
  8
2
 62
255
  6
L000000000000FFFFFF
  0
VERTEX
 10
21.500000
 20
27.700000
  8
2
 62
255
  6
L000000000000FFFFFF
  0
SEQEND
  0
POLYLINE
  8
2
 62
7
  6
CONTINUOUS
 70
1
 66
1
  0
VERTEX
 10
20.900000
 20
29.900000
 30
0.000000
  8
2
 62
7
  6
CONTINUOUS
  0
VERTEX
 10
20.900000
 20
30.300000
 30
0.000000
  8
2
 62
7
  6
CONTINUOUS
  0
VERTEX
 10
20.200000
 20
30.300000
 30
0.000000
  8
2
 62
7
  6
CONTINUOUS
  0
VERTEX
 10
20.200000
 20
29.900000
 30
0.000000
  8
2
 62
7
  6
CONTINUOUS
  0
SEQEND
  0
POLYLINE
  8
2
 62
7
  6
CONTINUOUS
 70
1
 66
1
  0
VERTEX
 10
23.600000
 20
26.400000
 30
0.000000
  8
2
 62
7
  6
CONTINUOUS
  0
VERTEX
 10
23.600000
 20
31.000000
 30
0.000000
  8
2
 62
7
  6
CONTINUOUS
  0
VERTEX
 10
21.800000
 20
31.000000
 30
0.000000
  8
2
 62
7
  6
CONTINUOUS
  0
VERTEX
 10
21.800000
 20
26.400000
 30
0.000000
  8
2
 62
7
  6
CONTINUOUS
  0
SEQEND
  0
LINE
  8
2
 62
7
  6
L000000000000000000
 10
21.800000
 20
27.400000
 11
23.600000
 21
27.400000
  0
LINE
  8
2
 62
7
  6
L000000000000000000
 10
21.800000
 20
28.900000
 11
23.600000
 21
28.900000
  0
POLYLINE
  8
2
 62
7
  6
CONTINUOUS
 70
1
 66
1
  0
VERTEX
 10
23.300000
 20
27.400000
 30
0.000000
  8
2
 62
7
  6
CONTINUOUS
  0
VERTEX
 10
23.300000
 20
28.700000
 30
0.000000
  8
2
 62
7
  6
CONTINUOUS
  0
VERTEX
 10
22.100000
 20
28.700000
 30
0.000000
  8
2
 62
7
  6
CONTINUOUS
  0
VERTEX
 10
22.100000
 20
27.400000
 30
0.000000
  8
2
 62
7
  6
CONTINUOUS
  0
SEQEND
  0
POLYLINE
  8
2
 62
7
  6
L000000000000000000
 70
1
 66
1
  0
VERTEX
 10
23.500000
 20
27.100000
 30
0.000000
  8
2
 62
7
  6
L000000000000000000
  0
VERTEX
 10
23.500000
 20
27.600000
 30
0.000000
  8
2
 62
7
  6
L000000000000000000
  0
VERTEX
 10
21.900000
 20
27.600000
 30
0.000000
  8
2
 62
7
  6
L000000000000000000
  0
VERTEX
 10
21.900000
 20
27.100000
 30
0.000000
  8
2
 62
7
  6
L000000000000000000
  0
SEQEND
  0
POLYLINE
  8
2
 62
7
  6
CONTINUOUS
 70
1
 66
1
  0
VERTEX
 10
21.900000
 20
30.400000
 30
0.000000
  8
2
 62
7
  6
CONTINUOUS
  0
VERTEX
 10
21.900000
 20
30.900000
 30
0.000000
  8
2
 62
7
  6
CONTINUOUS
  0
VERTEX
 10
23.500000
 20
30.900000
 30
0.000000
  8
2
 62
7
  6
CONTINUOUS
  0
VERTEX
 10
23.500000
 20
30.400000
 30
0.000000
  8
2
 62
7
  6
CONTINUOUS
  0
SEQEND
  0
POLYLINE
  8
2
 62
7
  6
L000000000000000000
 70
1
 66
1
  0
VERTEX
 10
23.300000
 20
28.400000
 30
0.000000
  8
2
 62
7
  6
L000000000000000000
  0
VERTEX
 10
23.300000
 20
28.700000
 30
0.000000
  8
2
 62
7
  6
L000000000000000000
  0
VERTEX
 10
22.100000
 20
28.700000
 30
0.000000
  8
2
 62
7
  6
L000000000000000000
  0
VERTEX
 10
22.100000
 20
28.400000
 30
0.000000
  8
2
 62
7
  6
L000000000000000000
  0
SEQEND
  0
POLYLINE
  8
2
 62
7
  6
CONTINUOUS
 70
1
 66
1
  0
VERTEX
 10
23.300000
 20
27.600000
 30
0.000000
  8
2
 62
7
  6
CONTINUOUS
  0
VERTEX
 10
23.300000
 20
28.400000
 30
0.000000
  8
2
 62
7
  6
CONTINUOUS
  0
VERTEX
 10
22.100000
 20
28.400000
 30
0.000000
  8
2
 62
7
  6
CONTINUOUS
  0
VERTEX
 10
22.100000
 20
27.600000
 30
0.000000
  8
2
 62
7
  6
CONTINUOUS
  0
SEQEND
  0
POLYLINE
  8
2
 62
255
  6
L000000000000FFFFFF
 70
0
 66
1
  0
VERTEX
 10
22.100000
 20
27.800000
  8
2
 62
255
  6
L000000000000FFFFFF
  0
VERTEX
 10
23.300000
 20
27.800000
  8
2
 62
255
  6
L000000000000FFFFFF
  0
SEQEND
  0
POLYLINE
  8
2
 62
7
  6
CONTINUOUS
 70
1
 66
1
  0
VERTEX
 10
23.500000
 20
26.800000
 30
0.000000
  8
2
 62
7
  6
CONTINUOUS
  0
VERTEX
 10
23.500000
 20
27.000000
 30
0.000000
  8
2
 62
7
  6
CONTINUOUS
  0
VERTEX
 10
23.100000
 20
27.000000
 30
0.000000
  8
2
 62
7
  6
CONTINUOUS
  0
VERTEX
 10
23.100000
 20
26.800000
 30
0.000000
  8
2
 62
7
  6
CONTINUOUS
  0
SEQEND
  0
POLYLINE
  8
2
 62
255
  6
L000000000000FFFFFF
 70
0
 66
1
  0
VERTEX
 10
22.100000
 20
27.700000
  8
2
 62
255
  6
L000000000000FFFFFF
  0
VERTEX
 10
23.300000
 20
27.700000
  8
2
 62
255
  6
L000000000000FFFFFF
  0
SEQEND
  0
POLYLINE
  8
2
 62
7
  6
CONTINUOUS
 70
1
 66
1
  0
VERTEX
 10
22.700000
 20
29.900000
 30
0.000000
  8
2
 62
7
  6
CONTINUOUS
  0
VERTEX
 10
22.700000
 20
30.300000
 30
0.000000
  8
2
 62
7
  6
CONTINUOUS
  0
VERTEX
 10
22.000000
 20
30.300000
 30
0.000000
  8
2
 62
7
  6
CONTINUOUS
  0
VERTEX
 10
22.000000
 20
29.900000
 30
0.000000
  8
2
 62
7
  6
CONTINUOUS
  0
SEQEND
  0
POLYLINE
  8
2
 62
7
  6
CONTINUOUS
 70
1
 66
1
  0
VERTEX
 10
14.600000
 20
13.900000
 30
0.000000
  8
2
 62
7
  6
CONTINUOUS
  0
VERTEX
 10
14.600000
 20
18.500000
 30
0.000000
  8
2
 62
7
  6
CONTINUOUS
  0
VERTEX
 10
7.400000
 20
18.500000
 30
0.000000
  8
2
 62
7
  6
CONTINUOUS
  0
VERTEX
 10
7.400000
 20
13.900000
 30
0.000000
  8
2
 62
7
  6
CONTINUOUS
  0
SEQEND
  0
POLYLINE
  8
2
 62
7
  6
L000000000000000000
 70
1
 66
1
  0
VERTEX
 10
8.800000
 20
14.800000
 30
0.000000
  8
2
 62
7
  6
L000000000000000000
  0
VERTEX
 10
8.800000
 20
16.200000
 30
0.000000
  8
2
 62
7
  6
L000000000000000000
  0
VERTEX
 10
7.800000
 20
16.200000
 30
0.000000
  8
2
 62
7
  6
L000000000000000000
  0
VERTEX
 10
7.800000
 20
14.800000
 30
0.000000
  8
2
 62
7
  6
L000000000000000000
  0
SEQEND
  0
POLYLINE
  8
2
 62
7
  6
CONTINUOUS
 70
1
 66
1
  0
VERTEX
 10
7.500000
 20
17.900000
 30
0.000000
  8
2
 62
7
  6
CONTINUOUS
  0
VERTEX
 10
7.500000
 20
18.400000
 30
0.000000
  8
2
 62
7
  6
CONTINUOUS
  0
VERTEX
 10
14.500000
 20
18.400000
 30
0.000000
  8
2
 62
7
  6
CONTINUOUS
  0
VERTEX
 10
14.500000
 20
17.900000
 30
0.000000
  8
2
 62
7
  6
CONTINUOUS
  0
SEQEND
  0
POLYLINE
  8
2
 62
7
  6
L000000000000000000
 70
1
 66
1
  0
VERTEX
 10
12.500000
 20
14.800000
 30
0.000000
  8
2
 62
7
  6
L000000000000000000
  0
VERTEX
 10
12.500000
 20
16.200000
 30
0.000000
  8
2
 62
7
  6
L000000000000000000
  0
VERTEX
 10
11.900000
 20
16.200000
 30
0.000000
  8
2
 62
7
  6
L000000000000000000
  0
VERTEX
 10
11.900000
 20
14.800000
 30
0.000000
  8
2
 62
7
  6
L000000000000000000
  0
SEQEND
  0
POLYLINE
  8
2
 62
7
  6
L000000000000000000
 70
1
 66
1
  0
VERTEX
 10
10.600000
 20
14.800000
 30
0.000000
  8
2
 62
7
  6
L000000000000000000
  0
VERTEX
 10
10.600000
 20
16.200000
 30
0.000000
  8
2
 62
7
  6
L000000000000000000
  0
VERTEX
 10
9.600000
 20
16.200000
 30
0.000000
  8
2
 62
7
  6
L000000000000000000
  0
VERTEX
 10
9.600000
 20
14.800000
 30
0.000000
  8
2
 62
7
  6
L000000000000000000
  0
SEQEND
  0
LINE
  8
2
 62
7
  6
L000000000000000000
 10
7.400000
 20
16.400000
 11
14.600000
 21
16.400000
  0
POLYLINE
  8
2
 62
7
  6
CONTINUOUS
 70
1
 66
1
  0
VERTEX
 10
8.300000
 20
14.400000
 30
0.000000
  8
2
 62
7
  6
CONTINUOUS
  0
VERTEX
 10
8.300000
 20
14.700000
 30
0.000000
  8
2
 62
7
  6
CONTINUOUS
  0
VERTEX
 10
7.800000
 20
14.700000
 30
0.000000
  8
2
 62
7
  6
CONTINUOUS
  0
VERTEX
 10
7.800000
 20
14.400000
 30
0.000000
  8
2
 62
7
  6
CONTINUOUS
  0
SEQEND
  0
POLYLINE
  8
2
 62
7
  6
CONTINUOUS
 70
1
 66
1
  0
VERTEX
 10
10.100000
 20
14.400000
 30
0.000000
  8
2
 62
7
  6
CONTINUOUS
  0
VERTEX
 10
10.100000
 20
14.700000
 30
0.000000
  8
2
 62
7
  6
CONTINUOUS
  0
VERTEX
 10
9.600000
 20
14.700000
 30
0.000000
  8
2
 62
7
  6
CONTINUOUS
  0
VERTEX
 10
9.600000
 20
14.400000
 30
0.000000
  8
2
 62
7
  6
CONTINUOUS
  0
SEQEND
  0
POLYLINE
  8
2
 62
7
  6
CONTINUOUS
 70
1
 66
1
  0
VERTEX
 10
11.800000
 20
14.400000
 30
0.000000
  8
2
 62
7
  6
CONTINUOUS
  0
VERTEX
 10
11.800000
 20
14.700000
 30
0.000000
  8
2
 62
7
  6
CONTINUOUS
  0
VERTEX
 10
11.300000
 20
14.700000
 30
0.000000
  8
2
 62
7
  6
CONTINUOUS
  0
VERTEX
 10
11.300000
 20
14.400000
 30
0.000000
  8
2
 62
7
  6
CONTINUOUS
  0
SEQEND
  0
POLYLINE
  8
2
 62
7
  6
CONTINUOUS
 70
1
 66
1
  0
VERTEX
 10
13.700000
 20
14.400000
 30
0.000000
  8
2
 62
7
  6
CONTINUOUS
  0
VERTEX
 10
13.700000
 20
14.700000
 30
0.000000
  8
2
 62
7
  6
CONTINUOUS
  0
VERTEX
 10
13.200000
 20
14.700000
 30
0.000000
  8
2
 62
7
  6
CONTINUOUS
  0
VERTEX
 10
13.200000
 20
14.400000
 30
0.000000
  8
2
 62
7
  6
CONTINUOUS
  0
SEQEND
  0
LINE
  8
2
 62
7
  6
L000000000000000000
 10
7.400000
 20
14.300000
 11
14.600000
 21
14.300000
  0
POLYLINE
  8
2
 62
7
  6
L000000000000000000
 70
1
 66
1
  0
VERTEX
 10
14.200000
 20
14.800000
 30
0.000000
  8
2
 62
7
  6
L000000000000000000
  0
VERTEX
 10
14.200000
 20
16.200000
 30
0.000000
  8
2
 62
7
  6
L000000000000000000
  0
VERTEX
 10
13.200000
 20
16.200000
 30
0.000000
  8
2
 62
7
  6
L000000000000000000
  0
VERTEX
 10
13.200000
 20
14.800000
 30
0.000000
  8
2
 62
7
  6
L000000000000000000
  0
SEQEND
  0
POLYLINE
  8
2
 62
7
  6
CONTINUOUS
 70
1
 66
1
  0
VERTEX
 10
14.300000
 20
15.300000
 30
0.000000
  8
2
 62
7
  6
CONTINUOUS
  0
VERTEX
 10
14.300000
 20
14.800000
 30
0.000000
  8
2
 62
7
  6
CONTINUOUS
  0
VERTEX
 10
7.700000
 20
14.800000
 30
0.000000
  8
2
 62
7
  6
CONTINUOUS
  0
VERTEX
 10
7.700000
 20
15.300000
 30
0.000000
  8
2
 62
7
  6
CONTINUOUS
  0
SEQEND
  0
ARC
  8
2
 62
7
  6
CONTINUOUS
 10
12.300000
 20
17.500000
 30
0.000000
 40
0.200000
 50
-90.000000
 51
90.000000
  0
ARC
  8
2
 62
7
  6
CONTINUOUS
 10
12.100000
 20
17.500000
 30
0.000000
 40
0.200000
 50
90.000000
 51
-90.000000
  0
TEXT
  8
2
 62
7
  6
CONTINUOUS
 10
12.200000
 20
17.433333
 40
0.200000
  1
T
 50
0.000000
 51
0.000000
 72
1
 73
0
 11
12.200000
 21
17.433333
  0
POLYLINE
  8
2
 62
7
  6
CONTINUOUS
 70
0
 66
1
  0
VERTEX
 10
12.100000
 20
17.700000
  8
2
 62
7
  6
CONTINUOUS
  0
VERTEX
 10
12.300000
 20
17.700000
  8
2
 62
7
  6
CONTINUOUS
  0
SEQEND
  0
POLYLINE
  8
2
 62
7
  6
CONTINUOUS
 70
0
 66
1
  0
VERTEX
 10
12.100000
 20
17.300000
  8
2
 62
7
  6
CONTINUOUS
  0
VERTEX
 10
12.300000
 20
17.300000
  8
2
 62
7
  6
CONTINUOUS
  0
SEQEND
  0
POLYLINE
  8
2
 62
7
  6
L014100000032000000
 70
1
 66
1
  0
VERTEX
 10
29.000000
 20
39.700000
 30
0.000000
  8
2
 62
7
  6
L014100000032000000
  0
VERTEX
 10
29.000000
 20
42.800000
 30
0.000000
  8
2
 62
7
  6
L014100000032000000
  0
VERTEX
 10
20.000000
 20
42.800000
 30
0.000000
  8
2
 62
7
  6
L014100000032000000
  0
VERTEX
 10
20.000000
 20
39.700000
 30
0.000000
  8
2
 62
7
  6
L014100000032000000
  0
SEQEND
  0
POLYLINE
  8
2
 62
7
  6
CONTINUOUS
 70
1
 66
1
  0
VERTEX
 10
25.400000
 20
26.400000
 30
0.000000
  8
2
 62
7
  6
CONTINUOUS
  0
VERTEX
 10
25.400000
 20
31.000000
 30
0.000000
  8
2
 62
7
  6
CONTINUOUS
  0
VERTEX
 10
23.600000
 20
31.000000
 30
0.000000
  8
2
 62
7
  6
CONTINUOUS
  0
VERTEX
 10
23.600000
 20
26.400000
 30
0.000000
  8
2
 62
7
  6
CONTINUOUS
  0
SEQEND
  0
LINE
  8
2
 62
7
  6
L000000000000000000
 10
23.600000
 20
27.400000
 11
25.400000
 21
27.400000
  0
LINE
  8
2
 62
7
  6
L000000000000000000
 10
23.600000
 20
28.900000
 11
25.400000
 21
28.900000
  0
POLYLINE
  8
2
 62
7
  6
CONTINUOUS
 70
1
 66
1
  0
VERTEX
 10
25.100000
 20
27.400000
 30
0.000000
  8
2
 62
7
  6
CONTINUOUS
  0
VERTEX
 10
25.100000
 20
28.700000
 30
0.000000
  8
2
 62
7
  6
CONTINUOUS
  0
VERTEX
 10
23.900000
 20
28.700000
 30
0.000000
  8
2
 62
7
  6
CONTINUOUS
  0
VERTEX
 10
23.900000
 20
27.400000
 30
0.000000
  8
2
 62
7
  6
CONTINUOUS
  0
SEQEND
  0
POLYLINE
  8
2
 62
7
  6
L000000000000000000
 70
1
 66
1
  0
VERTEX
 10
25.300000
 20
27.100000
 30
0.000000
  8
2
 62
7
  6
L000000000000000000
  0
VERTEX
 10
25.300000
 20
27.600000
 30
0.000000
  8
2
 62
7
  6
L000000000000000000
  0
VERTEX
 10
23.700000
 20
27.600000
 30
0.000000
  8
2
 62
7
  6
L000000000000000000
  0
VERTEX
 10
23.700000
 20
27.100000
 30
0.000000
  8
2
 62
7
  6
L000000000000000000
  0
SEQEND
  0
POLYLINE
  8
2
 62
7
  6
CONTINUOUS
 70
1
 66
1
  0
VERTEX
 10
23.700000
 20
30.400000
 30
0.000000
  8
2
 62
7
  6
CONTINUOUS
  0
VERTEX
 10
23.700000
 20
30.900000
 30
0.000000
  8
2
 62
7
  6
CONTINUOUS
  0
VERTEX
 10
25.300000
 20
30.900000
 30
0.000000
  8
2
 62
7
  6
CONTINUOUS
  0
VERTEX
 10
25.300000
 20
30.400000
 30
0.000000
  8
2
 62
7
  6
CONTINUOUS
  0
SEQEND
  0
POLYLINE
  8
2
 62
7
  6
L000000000000000000
 70
1
 66
1
  0
VERTEX
 10
25.100000
 20
28.400000
 30
0.000000
  8
2
 62
7
  6
L000000000000000000
  0
VERTEX
 10
25.100000
 20
28.700000
 30
0.000000
  8
2
 62
7
  6
L000000000000000000
  0
VERTEX
 10
23.900000
 20
28.700000
 30
0.000000
  8
2
 62
7
  6
L000000000000000000
  0
VERTEX
 10
23.900000
 20
28.400000
 30
0.000000
  8
2
 62
7
  6
L000000000000000000
  0
SEQEND
  0
POLYLINE
  8
2
 62
7
  6
CONTINUOUS
 70
1
 66
1
  0
VERTEX
 10
25.100000
 20
27.600000
 30
0.000000
  8
2
 62
7
  6
CONTINUOUS
  0
VERTEX
 10
25.100000
 20
28.400000
 30
0.000000
  8
2
 62
7
  6
CONTINUOUS
  0
VERTEX
 10
23.900000
 20
28.400000
 30
0.000000
  8
2
 62
7
  6
CONTINUOUS
  0
VERTEX
 10
23.900000
 20
27.600000
 30
0.000000
  8
2
 62
7
  6
CONTINUOUS
  0
SEQEND
  0
POLYLINE
  8
2
 62
255
  6
L000000000000FFFFFF
 70
0
 66
1
  0
VERTEX
 10
23.900000
 20
27.800000
  8
2
 62
255
  6
L000000000000FFFFFF
  0
VERTEX
 10
25.100000
 20
27.800000
  8
2
 62
255
  6
L000000000000FFFFFF
  0
SEQEND
  0
POLYLINE
  8
2
 62
7
  6
CONTINUOUS
 70
1
 66
1
  0
VERTEX
 10
25.300000
 20
26.800000
 30
0.000000
  8
2
 62
7
  6
CONTINUOUS
  0
VERTEX
 10
25.300000
 20
27.000000
 30
0.000000
  8
2
 62
7
  6
CONTINUOUS
  0
VERTEX
 10
24.900000
 20
27.000000
 30
0.000000
  8
2
 62
7
  6
CONTINUOUS
  0
VERTEX
 10
24.900000
 20
26.800000
 30
0.000000
  8
2
 62
7
  6
CONTINUOUS
  0
SEQEND
  0
POLYLINE
  8
2
 62
255
  6
L000000000000FFFFFF
 70
0
 66
1
  0
VERTEX
 10
23.900000
 20
27.700000
  8
2
 62
255
  6
L000000000000FFFFFF
  0
VERTEX
 10
25.100000
 20
27.700000
  8
2
 62
255
  6
L000000000000FFFFFF
  0
SEQEND
  0
POLYLINE
  8
2
 62
7
  6
CONTINUOUS
 70
1
 66
1
  0
VERTEX
 10
24.500000
 20
29.900000
 30
0.000000
  8
2
 62
7
  6
CONTINUOUS
  0
VERTEX
 10
24.500000
 20
30.300000
 30
0.000000
  8
2
 62
7
  6
CONTINUOUS
  0
VERTEX
 10
23.800000
 20
30.300000
 30
0.000000
  8
2
 62
7
  6
CONTINUOUS
  0
VERTEX
 10
23.800000
 20
29.900000
 30
0.000000
  8
2
 62
7
  6
CONTINUOUS
  0
SEQEND
  0
POLYLINE
  8
2
 62
7
  6
CONTINUOUS
 70
1
 66
1
  0
VERTEX
 10
27.200000
 20
26.400000
 30
0.000000
  8
2
 62
7
  6
CONTINUOUS
  0
VERTEX
 10
27.200000
 20
31.000000
 30
0.000000
  8
2
 62
7
  6
CONTINUOUS
  0
VERTEX
 10
25.400000
 20
31.000000
 30
0.000000
  8
2
 62
7
  6
CONTINUOUS
  0
VERTEX
 10
25.400000
 20
26.400000
 30
0.000000
  8
2
 62
7
  6
CONTINUOUS
  0
SEQEND
  0
LINE
  8
2
 62
7
  6
L000000000000000000
 10
25.400000
 20
27.400000
 11
27.200000
 21
27.400000
  0
LINE
  8
2
 62
7
  6
L000000000000000000
 10
25.400000
 20
28.900000
 11
27.200000
 21
28.900000
  0
POLYLINE
  8
2
 62
7
  6
CONTINUOUS
 70
1
 66
1
  0
VERTEX
 10
26.900000
 20
27.400000
 30
0.000000
  8
2
 62
7
  6
CONTINUOUS
  0
VERTEX
 10
26.900000
 20
28.700000
 30
0.000000
  8
2
 62
7
  6
CONTINUOUS
  0
VERTEX
 10
25.700000
 20
28.700000
 30
0.000000
  8
2
 62
7
  6
CONTINUOUS
  0
VERTEX
 10
25.700000
 20
27.400000
 30
0.000000
  8
2
 62
7
  6
CONTINUOUS
  0
SEQEND
  0
POLYLINE
  8
2
 62
7
  6
L000000000000000000
 70
1
 66
1
  0
VERTEX
 10
27.100000
 20
27.100000
 30
0.000000
  8
2
 62
7
  6
L000000000000000000
  0
VERTEX
 10
27.100000
 20
27.600000
 30
0.000000
  8
2
 62
7
  6
L000000000000000000
  0
VERTEX
 10
25.500000
 20
27.600000
 30
0.000000
  8
2
 62
7
  6
L000000000000000000
  0
VERTEX
 10
25.500000
 20
27.100000
 30
0.000000
  8
2
 62
7
  6
L000000000000000000
  0
SEQEND
  0
POLYLINE
  8
2
 62
7
  6
CONTINUOUS
 70
1
 66
1
  0
VERTEX
 10
25.500000
 20
30.400000
 30
0.000000
  8
2
 62
7
  6
CONTINUOUS
  0
VERTEX
 10
25.500000
 20
30.900000
 30
0.000000
  8
2
 62
7
  6
CONTINUOUS
  0
VERTEX
 10
27.100000
 20
30.900000
 30
0.000000
  8
2
 62
7
  6
CONTINUOUS
  0
VERTEX
 10
27.100000
 20
30.400000
 30
0.000000
  8
2
 62
7
  6
CONTINUOUS
  0
SEQEND
  0
POLYLINE
  8
2
 62
7
  6
L000000000000000000
 70
1
 66
1
  0
VERTEX
 10
26.900000
 20
28.400000
 30
0.000000
  8
2
 62
7
  6
L000000000000000000
  0
VERTEX
 10
26.900000
 20
28.700000
 30
0.000000
  8
2
 62
7
  6
L000000000000000000
  0
VERTEX
 10
25.700000
 20
28.700000
 30
0.000000
  8
2
 62
7
  6
L000000000000000000
  0
VERTEX
 10
25.700000
 20
28.400000
 30
0.000000
  8
2
 62
7
  6
L000000000000000000
  0
SEQEND
  0
POLYLINE
  8
2
 62
7
  6
CONTINUOUS
 70
1
 66
1
  0
VERTEX
 10
26.900000
 20
27.600000
 30
0.000000
  8
2
 62
7
  6
CONTINUOUS
  0
VERTEX
 10
26.900000
 20
28.400000
 30
0.000000
  8
2
 62
7
  6
CONTINUOUS
  0
VERTEX
 10
25.700000
 20
28.400000
 30
0.000000
  8
2
 62
7
  6
CONTINUOUS
  0
VERTEX
 10
25.700000
 20
27.600000
 30
0.000000
  8
2
 62
7
  6
CONTINUOUS
  0
SEQEND
  0
POLYLINE
  8
2
 62
255
  6
L000000000000FFFFFF
 70
0
 66
1
  0
VERTEX
 10
25.700000
 20
27.800000
  8
2
 62
255
  6
L000000000000FFFFFF
  0
VERTEX
 10
26.900000
 20
27.800000
  8
2
 62
255
  6
L000000000000FFFFFF
  0
SEQEND
  0
POLYLINE
  8
2
 62
7
  6
CONTINUOUS
 70
1
 66
1
  0
VERTEX
 10
27.100000
 20
26.800000
 30
0.000000
  8
2
 62
7
  6
CONTINUOUS
  0
VERTEX
 10
27.100000
 20
27.000000
 30
0.000000
  8
2
 62
7
  6
CONTINUOUS
  0
VERTEX
 10
26.700000
 20
27.000000
 30
0.000000
  8
2
 62
7
  6
CONTINUOUS
  0
VERTEX
 10
26.700000
 20
26.800000
 30
0.000000
  8
2
 62
7
  6
CONTINUOUS
  0
SEQEND
  0
POLYLINE
  8
2
 62
255
  6
L000000000000FFFFFF
 70
0
 66
1
  0
VERTEX
 10
25.700000
 20
27.700000
  8
2
 62
255
  6
L000000000000FFFFFF
  0
VERTEX
 10
26.900000
 20
27.700000
  8
2
 62
255
  6
L000000000000FFFFFF
  0
SEQEND
  0
POLYLINE
  8
2
 62
7
  6
CONTINUOUS
 70
1
 66
1
  0
VERTEX
 10
26.300000
 20
29.900000
 30
0.000000
  8
2
 62
7
  6
CONTINUOUS
  0
VERTEX
 10
26.300000
 20
30.300000
 30
0.000000
  8
2
 62
7
  6
CONTINUOUS
  0
VERTEX
 10
25.600000
 20
30.300000
 30
0.000000
  8
2
 62
7
  6
CONTINUOUS
  0
VERTEX
 10
25.600000
 20
29.900000
 30
0.000000
  8
2
 62
7
  6
CONTINUOUS
  0
SEQEND
  0
POLYLINE
  8
2
 62
7
  6
CONTINUOUS
 70
1
 66
1
  0
VERTEX
 10
29.000000
 20
26.400000
 30
0.000000
  8
2
 62
7
  6
CONTINUOUS
  0
VERTEX
 10
29.000000
 20
31.000000
 30
0.000000
  8
2
 62
7
  6
CONTINUOUS
  0
VERTEX
 10
27.200000
 20
31.000000
 30
0.000000
  8
2
 62
7
  6
CONTINUOUS
  0
VERTEX
 10
27.200000
 20
26.400000
 30
0.000000
  8
2
 62
7
  6
CONTINUOUS
  0
SEQEND
  0
LINE
  8
2
 62
7
  6
L000000000000000000
 10
27.200000
 20
27.400000
 11
29.000000
 21
27.400000
  0
LINE
  8
2
 62
7
  6
L000000000000000000
 10
27.200000
 20
28.900000
 11
29.000000
 21
28.900000
  0
POLYLINE
  8
2
 62
7
  6
CONTINUOUS
 70
1
 66
1
  0
VERTEX
 10
28.700000
 20
27.400000
 30
0.000000
  8
2
 62
7
  6
CONTINUOUS
  0
VERTEX
 10
28.700000
 20
28.700000
 30
0.000000
  8
2
 62
7
  6
CONTINUOUS
  0
VERTEX
 10
27.500000
 20
28.700000
 30
0.000000
  8
2
 62
7
  6
CONTINUOUS
  0
VERTEX
 10
27.500000
 20
27.400000
 30
0.000000
  8
2
 62
7
  6
CONTINUOUS
  0
SEQEND
  0
POLYLINE
  8
2
 62
7
  6
L000000000000000000
 70
1
 66
1
  0
VERTEX
 10
28.900000
 20
27.100000
 30
0.000000
  8
2
 62
7
  6
L000000000000000000
  0
VERTEX
 10
28.900000
 20
27.600000
 30
0.000000
  8
2
 62
7
  6
L000000000000000000
  0
VERTEX
 10
27.300000
 20
27.600000
 30
0.000000
  8
2
 62
7
  6
L000000000000000000
  0
VERTEX
 10
27.300000
 20
27.100000
 30
0.000000
  8
2
 62
7
  6
L000000000000000000
  0
SEQEND
  0
POLYLINE
  8
2
 62
7
  6
CONTINUOUS
 70
1
 66
1
  0
VERTEX
 10
27.300000
 20
30.400000
 30
0.000000
  8
2
 62
7
  6
CONTINUOUS
  0
VERTEX
 10
27.300000
 20
30.900000
 30
0.000000
  8
2
 62
7
  6
CONTINUOUS
  0
VERTEX
 10
28.900000
 20
30.900000
 30
0.000000
  8
2
 62
7
  6
CONTINUOUS
  0
VERTEX
 10
28.900000
 20
30.400000
 30
0.000000
  8
2
 62
7
  6
CONTINUOUS
  0
SEQEND
  0
POLYLINE
  8
2
 62
7
  6
L000000000000000000
 70
1
 66
1
  0
VERTEX
 10
28.700000
 20
28.400000
 30
0.000000
  8
2
 62
7
  6
L000000000000000000
  0
VERTEX
 10
28.700000
 20
28.700000
 30
0.000000
  8
2
 62
7
  6
L000000000000000000
  0
VERTEX
 10
27.500000
 20
28.700000
 30
0.000000
  8
2
 62
7
  6
L000000000000000000
  0
VERTEX
 10
27.500000
 20
28.400000
 30
0.000000
  8
2
 62
7
  6
L000000000000000000
  0
SEQEND
  0
POLYLINE
  8
2
 62
7
  6
CONTINUOUS
 70
1
 66
1
  0
VERTEX
 10
28.700000
 20
27.600000
 30
0.000000
  8
2
 62
7
  6
CONTINUOUS
  0
VERTEX
 10
28.700000
 20
28.400000
 30
0.000000
  8
2
 62
7
  6
CONTINUOUS
  0
VERTEX
 10
27.500000
 20
28.400000
 30
0.000000
  8
2
 62
7
  6
CONTINUOUS
  0
VERTEX
 10
27.500000
 20
27.600000
 30
0.000000
  8
2
 62
7
  6
CONTINUOUS
  0
SEQEND
  0
POLYLINE
  8
2
 62
255
  6
L000000000000FFFFFF
 70
0
 66
1
  0
VERTEX
 10
27.500000
 20
27.800000
  8
2
 62
255
  6
L000000000000FFFFFF
  0
VERTEX
 10
28.700000
 20
27.800000
  8
2
 62
255
  6
L000000000000FFFFFF
  0
SEQEND
  0
POLYLINE
  8
2
 62
7
  6
CONTINUOUS
 70
1
 66
1
  0
VERTEX
 10
28.900000
 20
26.800000
 30
0.000000
  8
2
 62
7
  6
CONTINUOUS
  0
VERTEX
 10
28.900000
 20
27.000000
 30
0.000000
  8
2
 62
7
  6
CONTINUOUS
  0
VERTEX
 10
28.500000
 20
27.000000
 30
0.000000
  8
2
 62
7
  6
CONTINUOUS
  0
VERTEX
 10
28.500000
 20
26.800000
 30
0.000000
  8
2
 62
7
  6
CONTINUOUS
  0
SEQEND
  0
POLYLINE
  8
2
 62
255
  6
L000000000000FFFFFF
 70
0
 66
1
  0
VERTEX
 10
27.500000
 20
27.700000
  8
2
 62
255
  6
L000000000000FFFFFF
  0
VERTEX
 10
28.700000
 20
27.700000
  8
2
 62
255
  6
L000000000000FFFFFF
  0
SEQEND
  0
POLYLINE
  8
2
 62
7
  6
CONTINUOUS
 70
1
 66
1
  0
VERTEX
 10
28.100000
 20
29.900000
 30
0.000000
  8
2
 62
7
  6
CONTINUOUS
  0
VERTEX
 10
28.100000
 20
30.300000
 30
0.000000
  8
2
 62
7
  6
CONTINUOUS
  0
VERTEX
 10
27.400000
 20
30.300000
 30
0.000000
  8
2
 62
7
  6
CONTINUOUS
  0
VERTEX
 10
27.400000
 20
29.900000
 30
0.000000
  8
2
 62
7
  6
CONTINUOUS
  0
SEQEND
  0
ENDBLK
  0
BLOCK
  8
3
  2
bl630
 70
 0
 10
0.0
 20
0.0
 30
0.0
  0
POLYLINE
  8
3
 62
7
  6
CONTINUOUS
 70
1
 66
1
  0
VERTEX
 10
37.400000
 20
-1.300000
 30
0.000000
  8
3
 62
7
  6
CONTINUOUS
  0
VERTEX
 10
37.400000
 20
61.000000
 30
0.000000
  8
3
 62
7
  6
CONTINUOUS
  0
VERTEX
 10
-1.000000
 20
61.000000
 30
0.000000
  8
3
 62
7
  6
CONTINUOUS
  0
VERTEX
 10
-1.000000
 20
-1.300000
 30
0.000000
  8
3
 62
7
  6
CONTINUOUS
  0
SEQEND
  0
POLYLINE
  8
3
 62
7
  6
CONTINUOUS
 70
1
 66
1
  0
VERTEX
 10
33.900000
 20
2.200000
 30
0.000000
  8
3
 62
7
  6
CONTINUOUS
  0
VERTEX
 10
33.900000
 20
57.500000
 30
0.000000
  8
3
 62
7
  6
CONTINUOUS
  0
VERTEX
 10
2.500000
 20
57.500000
 30
0.000000
  8
3
 62
7
  6
CONTINUOUS
  0
VERTEX
 10
2.500000
 20
2.200000
 30
0.000000
  8
3
 62
7
  6
CONTINUOUS
  0
SEQEND
  0
POLYLINE
  8
3
 62
7
  6
CONTINUOUS
 70
1
 66
1
  0
VERTEX
 10
37.400000
 20
-1.300000
 30
0.000000
  8
3
 62
7
  6
CONTINUOUS
  0
VERTEX
 10
37.400000
 20
61.000000
 30
0.000000
  8
3
 62
7
  6
CONTINUOUS
  0
VERTEX
 10
-1.000000
 20
61.000000
 30
0.000000
  8
3
 62
7
  6
CONTINUOUS
  0
VERTEX
 10
-1.000000
 20
-1.300000
 30
0.000000
  8
3
 62
7
  6
CONTINUOUS
  0
SEQEND
  0
POLYLINE
  8
3
 62
7
  6
CONTINUOUS
 70
1
 66
1
  0
VERTEX
 10
-1.000000
 20
-1.300000
  8
3
 62
7
  6
CONTINUOUS
  0
VERTEX
 10
2.500000
 20
2.200000
  8
3
 62
7
  6
CONTINUOUS
  0
VERTEX
 10
33.900000
 20
2.200000
  8
3
 62
7
  6
CONTINUOUS
  0
VERTEX
 10
37.400000
 20
-1.300000
  8
3
 62
7
  6
CONTINUOUS
  0
SEQEND
  0
POLYLINE
  8
3
 62
7
  6
CONTINUOUS
 70
1
 66
1
  0
VERTEX
 10
37.400000
 20
61.000000
  8
3
 62
7
  6
CONTINUOUS
  0
VERTEX
 10
33.900000
 20
57.500000
  8
3
 62
7
  6
CONTINUOUS
  0
VERTEX
 10
33.900000
 20
2.200000
  8
3
 62
7
  6
CONTINUOUS
  0
VERTEX
 10
37.400000
 20
-1.300000
  8
3
 62
7
  6
CONTINUOUS
  0
SEQEND
  0
POLYLINE
  8
3
 62
7
  6
CONTINUOUS
 70
1
 66
1
  0
VERTEX
 10
-1.000000
 20
61.000000
  8
3
 62
7
  6
CONTINUOUS
  0
VERTEX
 10
2.500000
 20
57.500000
  8
3
 62
7
  6
CONTINUOUS
  0
VERTEX
 10
2.500000
 20
2.200000
  8
3
 62
7
  6
CONTINUOUS
  0
VERTEX
 10
-1.000000
 20
-1.300000
  8
3
 62
7
  6
CONTINUOUS
  0
SEQEND
  0
POLYLINE
  8
3
 62
7
  6
CONTINUOUS
 70
1
 66
1
  0
VERTEX
 10
-1.000000
 20
61.000000
  8
3
 62
7
  6
CONTINUOUS
  0
VERTEX
 10
2.500000
 20
57.500000
  8
3
 62
7
  6
CONTINUOUS
  0
VERTEX
 10
33.900000
 20
57.500000
  8
3
 62
7
  6
CONTINUOUS
  0
VERTEX
 10
37.400000
 20
61.000000
  8
3
 62
7
  6
CONTINUOUS
  0
SEQEND
  0
POLYLINE
  8
3
 62
7
  6
CONTINUOUS
 70
1
 66
1
  0
VERTEX
 10
33.800000
 20
2.300000
 30
0.000000
  8
3
 62
7
  6
CONTINUOUS
  0
VERTEX
 10
33.800000
 20
57.400000
 30
0.000000
  8
3
 62
7
  6
CONTINUOUS
  0
VERTEX
 10
2.600000
 20
57.400000
 30
0.000000
  8
3
 62
7
  6
CONTINUOUS
  0
VERTEX
 10
2.600000
 20
2.300000
 30
0.000000
  8
3
 62
7
  6
CONTINUOUS
  0
SEQEND
  0
POLYLINE
  8
3
 62
7
  6
CONTINUOUS
 70
1
 66
1
  0
VERTEX
 10
33.700000
 20
2.400000
 30
0.000000
  8
3
 62
7
  6
CONTINUOUS
  0
VERTEX
 10
33.700000
 20
57.300000
 30
0.000000
  8
3
 62
7
  6
CONTINUOUS
  0
VERTEX
 10
2.700000
 20
57.300000
 30
0.000000
  8
3
 62
7
  6
CONTINUOUS
  0
VERTEX
 10
2.700000
 20
2.400000
 30
0.000000
  8
3
 62
7
  6
CONTINUOUS
  0
SEQEND
  0
POLYLINE
  8
3
 62
7
  6
CONTINUOUS
 70
1
 66
1
  0
VERTEX
 10
7.000000
 20
27.100000
 30
0.000000
  8
3
 62
7
  6
CONTINUOUS
  0
VERTEX
 10
7.000000
 20
32.700000
 30
0.000000
  8
3
 62
7
  6
CONTINUOUS
  0
VERTEX
 10
3.200000
 20
32.700000
 30
0.000000
  8
3
 62
7
  6
CONTINUOUS
  0
VERTEX
 10
3.200000
 20
27.100000
 30
0.000000
  8
3
 62
7
  6
CONTINUOUS
  0
SEQEND
  0
POLYLINE
  8
47
 62
7
  6
CONTINUOUS
 70
1
 66
1
  0
VERTEX
 10
7.100000
 20
27.000000
 30
0.000000
  8
47
 62
7
  6
CONTINUOUS
  0
VERTEX
 10
7.100000
 20
32.800000
 30
0.000000
  8
47
 62
7
  6
CONTINUOUS
  0
VERTEX
 10
3.100000
 20
32.800000
 30
0.000000
  8
47
 62
7
  6
CONTINUOUS
  0
VERTEX
 10
3.100000
 20
27.000000
 30
0.000000
  8
47
 62
7
  6
CONTINUOUS
  0
SEQEND
  0
POLYLINE
  8
47
 62
7
  6
CONTINUOUS
 70
1
 66
1
  0
VERTEX
 10
6.800000
 20
27.300000
 30
0.000000
  8
47
 62
7
  6
CONTINUOUS
  0
VERTEX
 10
6.800000
 20
32.500000
 30
0.000000
  8
47
 62
7
  6
CONTINUOUS
  0
VERTEX
 10
3.400000
 20
32.500000
 30
0.000000
  8
47
 62
7
  6
CONTINUOUS
  0
VERTEX
 10
3.400000
 20
27.300000
 30
0.000000
  8
47
 62
7
  6
CONTINUOUS
  0
SEQEND
  0
POLYLINE
  8
47
 62
7
  6
CONTINUOUS
 70
0
 66
1
  0
VERTEX
 10
3.100000
 20
32.800000
  8
47
 62
7
  6
CONTINUOUS
  0
VERTEX
 10
3.400000
 20
32.500000
  8
47
 62
7
  6
CONTINUOUS
  0
SEQEND
  0
POLYLINE
  8
47
 62
7
  6
CONTINUOUS
 70
0
 66
1
  0
VERTEX
 10
7.100000
 20
32.800000
  8
47
 62
7
  6
CONTINUOUS
  0
VERTEX
 10
6.800000
 20
32.500000
  8
47
 62
7
  6
CONTINUOUS
  0
SEQEND
  0
POLYLINE
  8
47
 62
7
  6
CONTINUOUS
 70
0
 66
1
  0
VERTEX
 10
3.100000
 20
27.000000
  8
47
 62
7
  6
CONTINUOUS
  0
VERTEX
 10
3.400000
 20
27.300000
  8
47
 62
7
  6
CONTINUOUS
  0
SEQEND
  0
POLYLINE
  8
47
 62
7
  6
CONTINUOUS
 70
0
 66
1
  0
VERTEX
 10
6.800000
 20
27.300000
  8
47
 62
7
  6
CONTINUOUS
  0
VERTEX
 10
7.100000
 20
27.000000
  8
47
 62
7
  6
CONTINUOUS
  0
SEQEND
  0
TEXT
  8
47
 62
7
  6
CONTINUOUS
 10
4.433333
 20
29.900000
 40
1.000000
  1
ABB
 50
90.000000
 51
0.000000
 72
1
 73
0
 11
4.433333
 21
29.900000
  0
POLYLINE
  8
47
 62
7
  6
CONTINUOUS
 70
1
 66
1
  0
VERTEX
 10
5.500000
 20
32.200000
 30
0.000000
  8
47
 62
7
  6
CONTINUOUS
  0
VERTEX
 10
5.500000
 20
32.400000
 30
0.000000
  8
47
 62
7
  6
CONTINUOUS
  0
VERTEX
 10
5.300000
 20
32.400000
 30
0.000000
  8
47
 62
7
  6
CONTINUOUS
  0
VERTEX
 10
5.300000
 20
32.200000
 30
0.000000
  8
47
 62
7
  6
CONTINUOUS
  0
SEQEND
  0
POLYLINE
  8
47
 62
7
  6
CONTINUOUS
 70
1
 66
1
  0
VERTEX
 10
5.500000
 20
31.800000
 30
0.000000
  8
47
 62
7
  6
CONTINUOUS
  0
VERTEX
 10
5.500000
 20
32.000000
 30
0.000000
  8
47
 62
7
  6
CONTINUOUS
  0
VERTEX
 10
5.300000
 20
32.000000
 30
0.000000
  8
47
 62
7
  6
CONTINUOUS
  0
VERTEX
 10
5.300000
 20
31.800000
 30
0.000000
  8
47
 62
7
  6
CONTINUOUS
  0
SEQEND
  0
POLYLINE
  8
47
 62
7
  6
CONTINUOUS
 70
1
 66
1
  0
VERTEX
 10
5.500000
 20
31.400000
 30
0.000000
  8
47
 62
7
  6
CONTINUOUS
  0
VERTEX
 10
5.500000
 20
31.600000
 30
0.000000
  8
47
 62
7
  6
CONTINUOUS
  0
VERTEX
 10
5.300000
 20
31.600000
 30
0.000000
  8
47
 62
7
  6
CONTINUOUS
  0
VERTEX
 10
5.300000
 20
31.400000
 30
0.000000
  8
47
 62
7
  6
CONTINUOUS
  0
SEQEND
  0
POLYLINE
  8
47
 62
7
  6
CONTINUOUS
 70
1
 66
1
  0
VERTEX
 10
5.500000
 20
31.000000
 30
0.000000
  8
47
 62
7
  6
CONTINUOUS
  0
VERTEX
 10
5.500000
 20
31.200000
 30
0.000000
  8
47
 62
7
  6
CONTINUOUS
  0
VERTEX
 10
5.300000
 20
31.200000
 30
0.000000
  8
47
 62
7
  6
CONTINUOUS
  0
VERTEX
 10
5.300000
 20
31.000000
 30
0.000000
  8
47
 62
7
  6
CONTINUOUS
  0
SEQEND
  0
POLYLINE
  8
47
 62
7
  6
CONTINUOUS
 70
1
 66
1
  0
VERTEX
 10
5.500000
 20
30.600000
 30
0.000000
  8
47
 62
7
  6
CONTINUOUS
  0
VERTEX
 10
5.500000
 20
30.800000
 30
0.000000
  8
47
 62
7
  6
CONTINUOUS
  0
VERTEX
 10
5.300000
 20
30.800000
 30
0.000000
  8
47
 62
7
  6
CONTINUOUS
  0
VERTEX
 10
5.300000
 20
30.600000
 30
0.000000
  8
47
 62
7
  6
CONTINUOUS
  0
SEQEND
  0
POLYLINE
  8
47
 62
7
  6
CONTINUOUS
 70
1
 66
1
  0
VERTEX
 10
5.500000
 20
30.200000
 30
0.000000
  8
47
 62
7
  6
CONTINUOUS
  0
VERTEX
 10
5.500000
 20
30.400000
 30
0.000000
  8
47
 62
7
  6
CONTINUOUS
  0
VERTEX
 10
5.300000
 20
30.400000
 30
0.000000
  8
47
 62
7
  6
CONTINUOUS
  0
VERTEX
 10
5.300000
 20
30.200000
 30
0.000000
  8
47
 62
7
  6
CONTINUOUS
  0
SEQEND
  0
POLYLINE
  8
47
 62
7
  6
CONTINUOUS
 70
1
 66
1
  0
VERTEX
 10
5.500000
 20
29.800000
 30
0.000000
  8
47
 62
7
  6
CONTINUOUS
  0
VERTEX
 10
5.500000
 20
30.000000
 30
0.000000
  8
47
 62
7
  6
CONTINUOUS
  0
VERTEX
 10
5.300000
 20
30.000000
 30
0.000000
  8
47
 62
7
  6
CONTINUOUS
  0
VERTEX
 10
5.300000
 20
29.800000
 30
0.000000
  8
47
 62
7
  6
CONTINUOUS
  0
SEQEND
  0
POLYLINE
  8
47
 62
7
  6
CONTINUOUS
 70
1
 66
1
  0
VERTEX
 10
5.500000
 20
29.400000
 30
0.000000
  8
47
 62
7
  6
CONTINUOUS
  0
VERTEX
 10
5.500000
 20
29.600000
 30
0.000000
  8
47
 62
7
  6
CONTINUOUS
  0
VERTEX
 10
5.300000
 20
29.600000
 30
0.000000
  8
47
 62
7
  6
CONTINUOUS
  0
VERTEX
 10
5.300000
 20
29.400000
 30
0.000000
  8
47
 62
7
  6
CONTINUOUS
  0
SEQEND
  0
POLYLINE
  8
47
 62
7
  6
CONTINUOUS
 70
1
 66
1
  0
VERTEX
 10
5.500000
 20
29.000000
 30
0.000000
  8
47
 62
7
  6
CONTINUOUS
  0
VERTEX
 10
5.500000
 20
29.200000
 30
0.000000
  8
47
 62
7
  6
CONTINUOUS
  0
VERTEX
 10
5.300000
 20
29.200000
 30
0.000000
  8
47
 62
7
  6
CONTINUOUS
  0
VERTEX
 10
5.300000
 20
29.000000
 30
0.000000
  8
47
 62
7
  6
CONTINUOUS
  0
SEQEND
  0
POLYLINE
  8
47
 62
7
  6
CONTINUOUS
 70
1
 66
1
  0
VERTEX
 10
5.500000
 20
28.600000
 30
0.000000
  8
47
 62
7
  6
CONTINUOUS
  0
VERTEX
 10
5.500000
 20
28.800000
 30
0.000000
  8
47
 62
7
  6
CONTINUOUS
  0
VERTEX
 10
5.300000
 20
28.800000
 30
0.000000
  8
47
 62
7
  6
CONTINUOUS
  0
VERTEX
 10
5.300000
 20
28.600000
 30
0.000000
  8
47
 62
7
  6
CONTINUOUS
  0
SEQEND
  0
POLYLINE
  8
47
 62
7
  6
CONTINUOUS
 70
1
 66
1
  0
VERTEX
 10
5.500000
 20
28.200000
 30
0.000000
  8
47
 62
7
  6
CONTINUOUS
  0
VERTEX
 10
5.500000
 20
28.400000
 30
0.000000
  8
47
 62
7
  6
CONTINUOUS
  0
VERTEX
 10
5.300000
 20
28.400000
 30
0.000000
  8
47
 62
7
  6
CONTINUOUS
  0
VERTEX
 10
5.300000
 20
28.200000
 30
0.000000
  8
47
 62
7
  6
CONTINUOUS
  0
SEQEND
  0
POLYLINE
  8
47
 62
7
  6
CONTINUOUS
 70
1
 66
1
  0
VERTEX
 10
5.500000
 20
27.800000
 30
0.000000
  8
47
 62
7
  6
CONTINUOUS
  0
VERTEX
 10
5.500000
 20
28.000000
 30
0.000000
  8
47
 62
7
  6
CONTINUOUS
  0
VERTEX
 10
5.300000
 20
28.000000
 30
0.000000
  8
47
 62
7
  6
CONTINUOUS
  0
VERTEX
 10
5.300000
 20
27.800000
 30
0.000000
  8
47
 62
7
  6
CONTINUOUS
  0
SEQEND
  0
POLYLINE
  8
47
 62
7
  6
CONTINUOUS
 70
1
 66
1
  0
VERTEX
 10
5.500000
 20
27.400000
 30
0.000000
  8
47
 62
7
  6
CONTINUOUS
  0
VERTEX
 10
5.500000
 20
27.600000
 30
0.000000
  8
47
 62
7
  6
CONTINUOUS
  0
VERTEX
 10
5.300000
 20
27.600000
 30
0.000000
  8
47
 62
7
  6
CONTINUOUS
  0
VERTEX
 10
5.300000
 20
27.400000
 30
0.000000
  8
47
 62
7
  6
CONTINUOUS
  0
SEQEND
  0
POLYLINE
  8
47
 62
7
  6
CONTINUOUS
 70
1
 66
1
  0
VERTEX
 10
5.900000
 20
30.200000
 30
0.000000
  8
47
 62
7
  6
CONTINUOUS
  0
VERTEX
 10
5.900000
 20
30.400000
 30
0.000000
  8
47
 62
7
  6
CONTINUOUS
  0
VERTEX
 10
5.700000
 20
30.400000
 30
0.000000
  8
47
 62
7
  6
CONTINUOUS
  0
VERTEX
 10
5.700000
 20
30.200000
 30
0.000000
  8
47
 62
7
  6
CONTINUOUS
  0
SEQEND
  0
POLYLINE
  8
47
 62
7
  6
CONTINUOUS
 70
1
 66
1
  0
VERTEX
 10
5.900000
 20
32.200000
 30
0.000000
  8
47
 62
7
  6
CONTINUOUS
  0
VERTEX
 10
5.900000
 20
32.400000
 30
0.000000
  8
47
 62
7
  6
CONTINUOUS
  0
VERTEX
 10
5.700000
 20
32.400000
 30
0.000000
  8
47
 62
7
  6
CONTINUOUS
  0
VERTEX
 10
5.700000
 20
32.200000
 30
0.000000
  8
47
 62
7
  6
CONTINUOUS
  0
SEQEND
  0
POLYLINE
  8
47
 62
7
  6
CONTINUOUS
 70
1
 66
1
  0
VERTEX
 10
5.900000
 20
31.800000
 30
0.000000
  8
47
 62
7
  6
CONTINUOUS
  0
VERTEX
 10
5.900000
 20
32.000000
 30
0.000000
  8
47
 62
7
  6
CONTINUOUS
  0
VERTEX
 10
5.700000
 20
32.000000
 30
0.000000
  8
47
 62
7
  6
CONTINUOUS
  0
VERTEX
 10
5.700000
 20
31.800000
 30
0.000000
  8
47
 62
7
  6
CONTINUOUS
  0
SEQEND
  0
POLYLINE
  8
47
 62
7
  6
CONTINUOUS
 70
1
 66
1
  0
VERTEX
 10
5.900000
 20
31.400000
 30
0.000000
  8
47
 62
7
  6
CONTINUOUS
  0
VERTEX
 10
5.900000
 20
31.600000
 30
0.000000
  8
47
 62
7
  6
CONTINUOUS
  0
VERTEX
 10
5.700000
 20
31.600000
 30
0.000000
  8
47
 62
7
  6
CONTINUOUS
  0
VERTEX
 10
5.700000
 20
31.400000
 30
0.000000
  8
47
 62
7
  6
CONTINUOUS
  0
SEQEND
  0
POLYLINE
  8
47
 62
7
  6
CONTINUOUS
 70
1
 66
1
  0
VERTEX
 10
5.900000
 20
31.000000
 30
0.000000
  8
47
 62
7
  6
CONTINUOUS
  0
VERTEX
 10
5.900000
 20
31.200000
 30
0.000000
  8
47
 62
7
  6
CONTINUOUS
  0
VERTEX
 10
5.700000
 20
31.200000
 30
0.000000
  8
47
 62
7
  6
CONTINUOUS
  0
VERTEX
 10
5.700000
 20
31.000000
 30
0.000000
  8
47
 62
7
  6
CONTINUOUS
  0
SEQEND
  0
POLYLINE
  8
47
 62
7
  6
CONTINUOUS
 70
1
 66
1
  0
VERTEX
 10
5.900000
 20
30.600000
 30
0.000000
  8
47
 62
7
  6
CONTINUOUS
  0
VERTEX
 10
5.900000
 20
30.800000
 30
0.000000
  8
47
 62
7
  6
CONTINUOUS
  0
VERTEX
 10
5.700000
 20
30.800000
 30
0.000000
  8
47
 62
7
  6
CONTINUOUS
  0
VERTEX
 10
5.700000
 20
30.600000
 30
0.000000
  8
47
 62
7
  6
CONTINUOUS
  0
SEQEND
  0
POLYLINE
  8
47
 62
7
  6
CONTINUOUS
 70
1
 66
1
  0
VERTEX
 10
5.900000
 20
29.800000
 30
0.000000
  8
47
 62
7
  6
CONTINUOUS
  0
VERTEX
 10
5.900000
 20
30.000000
 30
0.000000
  8
47
 62
7
  6
CONTINUOUS
  0
VERTEX
 10
5.700000
 20
30.000000
 30
0.000000
  8
47
 62
7
  6
CONTINUOUS
  0
VERTEX
 10
5.700000
 20
29.800000
 30
0.000000
  8
47
 62
7
  6
CONTINUOUS
  0
SEQEND
  0
POLYLINE
  8
47
 62
7
  6
CONTINUOUS
 70
1
 66
1
  0
VERTEX
 10
5.900000
 20
29.400000
 30
0.000000
  8
47
 62
7
  6
CONTINUOUS
  0
VERTEX
 10
5.900000
 20
29.600000
 30
0.000000
  8
47
 62
7
  6
CONTINUOUS
  0
VERTEX
 10
5.700000
 20
29.600000
 30
0.000000
  8
47
 62
7
  6
CONTINUOUS
  0
VERTEX
 10
5.700000
 20
29.400000
 30
0.000000
  8
47
 62
7
  6
CONTINUOUS
  0
SEQEND
  0
POLYLINE
  8
47
 62
7
  6
CONTINUOUS
 70
1
 66
1
  0
VERTEX
 10
5.900000
 20
29.000000
 30
0.000000
  8
47
 62
7
  6
CONTINUOUS
  0
VERTEX
 10
5.900000
 20
29.200000
 30
0.000000
  8
47
 62
7
  6
CONTINUOUS
  0
VERTEX
 10
5.700000
 20
29.200000
 30
0.000000
  8
47
 62
7
  6
CONTINUOUS
  0
VERTEX
 10
5.700000
 20
29.000000
 30
0.000000
  8
47
 62
7
  6
CONTINUOUS
  0
SEQEND
  0
POLYLINE
  8
47
 62
7
  6
CONTINUOUS
 70
1
 66
1
  0
VERTEX
 10
5.900000
 20
28.600000
 30
0.000000
  8
47
 62
7
  6
CONTINUOUS
  0
VERTEX
 10
5.900000
 20
28.800000
 30
0.000000
  8
47
 62
7
  6
CONTINUOUS
  0
VERTEX
 10
5.700000
 20
28.800000
 30
0.000000
  8
47
 62
7
  6
CONTINUOUS
  0
VERTEX
 10
5.700000
 20
28.600000
 30
0.000000
  8
47
 62
7
  6
CONTINUOUS
  0
SEQEND
  0
POLYLINE
  8
47
 62
7
  6
CONTINUOUS
 70
1
 66
1
  0
VERTEX
 10
5.900000
 20
28.200000
 30
0.000000
  8
47
 62
7
  6
CONTINUOUS
  0
VERTEX
 10
5.900000
 20
28.400000
 30
0.000000
  8
47
 62
7
  6
CONTINUOUS
  0
VERTEX
 10
5.700000
 20
28.400000
 30
0.000000
  8
47
 62
7
  6
CONTINUOUS
  0
VERTEX
 10
5.700000
 20
28.200000
 30
0.000000
  8
47
 62
7
  6
CONTINUOUS
  0
SEQEND
  0
POLYLINE
  8
47
 62
7
  6
CONTINUOUS
 70
1
 66
1
  0
VERTEX
 10
5.900000
 20
27.800000
 30
0.000000
  8
47
 62
7
  6
CONTINUOUS
  0
VERTEX
 10
5.900000
 20
28.000000
 30
0.000000
  8
47
 62
7
  6
CONTINUOUS
  0
VERTEX
 10
5.700000
 20
28.000000
 30
0.000000
  8
47
 62
7
  6
CONTINUOUS
  0
VERTEX
 10
5.700000
 20
27.800000
 30
0.000000
  8
47
 62
7
  6
CONTINUOUS
  0
SEQEND
  0
POLYLINE
  8
47
 62
7
  6
CONTINUOUS
 70
1
 66
1
  0
VERTEX
 10
5.900000
 20
27.400000
 30
0.000000
  8
47
 62
7
  6
CONTINUOUS
  0
VERTEX
 10
5.900000
 20
27.600000
 30
0.000000
  8
47
 62
7
  6
CONTINUOUS
  0
VERTEX
 10
5.700000
 20
27.600000
 30
0.000000
  8
47
 62
7
  6
CONTINUOUS
  0
VERTEX
 10
5.700000
 20
27.400000
 30
0.000000
  8
47
 62
7
  6
CONTINUOUS
  0
SEQEND
  0
POLYLINE
  8
47
 62
7
  6
CONTINUOUS
 70
1
 66
1
  0
VERTEX
 10
6.300000
 20
30.200000
 30
0.000000
  8
47
 62
7
  6
CONTINUOUS
  0
VERTEX
 10
6.300000
 20
30.400000
 30
0.000000
  8
47
 62
7
  6
CONTINUOUS
  0
VERTEX
 10
6.100000
 20
30.400000
 30
0.000000
  8
47
 62
7
  6
CONTINUOUS
  0
VERTEX
 10
6.100000
 20
30.200000
 30
0.000000
  8
47
 62
7
  6
CONTINUOUS
  0
SEQEND
  0
POLYLINE
  8
47
 62
7
  6
CONTINUOUS
 70
1
 66
1
  0
VERTEX
 10
6.300000
 20
32.200000
 30
0.000000
  8
47
 62
7
  6
CONTINUOUS
  0
VERTEX
 10
6.300000
 20
32.400000
 30
0.000000
  8
47
 62
7
  6
CONTINUOUS
  0
VERTEX
 10
6.100000
 20
32.400000
 30
0.000000
  8
47
 62
7
  6
CONTINUOUS
  0
VERTEX
 10
6.100000
 20
32.200000
 30
0.000000
  8
47
 62
7
  6
CONTINUOUS
  0
SEQEND
  0
POLYLINE
  8
47
 62
7
  6
CONTINUOUS
 70
1
 66
1
  0
VERTEX
 10
6.300000
 20
31.800000
 30
0.000000
  8
47
 62
7
  6
CONTINUOUS
  0
VERTEX
 10
6.300000
 20
32.000000
 30
0.000000
  8
47
 62
7
  6
CONTINUOUS
  0
VERTEX
 10
6.100000
 20
32.000000
 30
0.000000
  8
47
 62
7
  6
CONTINUOUS
  0
VERTEX
 10
6.100000
 20
31.800000
 30
0.000000
  8
47
 62
7
  6
CONTINUOUS
  0
SEQEND
  0
POLYLINE
  8
47
 62
7
  6
CONTINUOUS
 70
1
 66
1
  0
VERTEX
 10
6.300000
 20
31.400000
 30
0.000000
  8
47
 62
7
  6
CONTINUOUS
  0
VERTEX
 10
6.300000
 20
31.600000
 30
0.000000
  8
47
 62
7
  6
CONTINUOUS
  0
VERTEX
 10
6.100000
 20
31.600000
 30
0.000000
  8
47
 62
7
  6
CONTINUOUS
  0
VERTEX
 10
6.100000
 20
31.400000
 30
0.000000
  8
47
 62
7
  6
CONTINUOUS
  0
SEQEND
  0
POLYLINE
  8
47
 62
7
  6
CONTINUOUS
 70
1
 66
1
  0
VERTEX
 10
6.300000
 20
31.000000
 30
0.000000
  8
47
 62
7
  6
CONTINUOUS
  0
VERTEX
 10
6.300000
 20
31.200000
 30
0.000000
  8
47
 62
7
  6
CONTINUOUS
  0
VERTEX
 10
6.100000
 20
31.200000
 30
0.000000
  8
47
 62
7
  6
CONTINUOUS
  0
VERTEX
 10
6.100000
 20
31.000000
 30
0.000000
  8
47
 62
7
  6
CONTINUOUS
  0
SEQEND
  0
POLYLINE
  8
47
 62
7
  6
CONTINUOUS
 70
1
 66
1
  0
VERTEX
 10
6.300000
 20
30.600000
 30
0.000000
  8
47
 62
7
  6
CONTINUOUS
  0
VERTEX
 10
6.300000
 20
30.800000
 30
0.000000
  8
47
 62
7
  6
CONTINUOUS
  0
VERTEX
 10
6.100000
 20
30.800000
 30
0.000000
  8
47
 62
7
  6
CONTINUOUS
  0
VERTEX
 10
6.100000
 20
30.600000
 30
0.000000
  8
47
 62
7
  6
CONTINUOUS
  0
SEQEND
  0
POLYLINE
  8
47
 62
7
  6
CONTINUOUS
 70
1
 66
1
  0
VERTEX
 10
6.300000
 20
29.800000
 30
0.000000
  8
47
 62
7
  6
CONTINUOUS
  0
VERTEX
 10
6.300000
 20
30.000000
 30
0.000000
  8
47
 62
7
  6
CONTINUOUS
  0
VERTEX
 10
6.100000
 20
30.000000
 30
0.000000
  8
47
 62
7
  6
CONTINUOUS
  0
VERTEX
 10
6.100000
 20
29.800000
 30
0.000000
  8
47
 62
7
  6
CONTINUOUS
  0
SEQEND
  0
POLYLINE
  8
47
 62
7
  6
CONTINUOUS
 70
1
 66
1
  0
VERTEX
 10
6.300000
 20
29.400000
 30
0.000000
  8
47
 62
7
  6
CONTINUOUS
  0
VERTEX
 10
6.300000
 20
29.600000
 30
0.000000
  8
47
 62
7
  6
CONTINUOUS
  0
VERTEX
 10
6.100000
 20
29.600000
 30
0.000000
  8
47
 62
7
  6
CONTINUOUS
  0
VERTEX
 10
6.100000
 20
29.400000
 30
0.000000
  8
47
 62
7
  6
CONTINUOUS
  0
SEQEND
  0
POLYLINE
  8
47
 62
7
  6
CONTINUOUS
 70
1
 66
1
  0
VERTEX
 10
6.300000
 20
29.000000
 30
0.000000
  8
47
 62
7
  6
CONTINUOUS
  0
VERTEX
 10
6.300000
 20
29.200000
 30
0.000000
  8
47
 62
7
  6
CONTINUOUS
  0
VERTEX
 10
6.100000
 20
29.200000
 30
0.000000
  8
47
 62
7
  6
CONTINUOUS
  0
VERTEX
 10
6.100000
 20
29.000000
 30
0.000000
  8
47
 62
7
  6
CONTINUOUS
  0
SEQEND
  0
POLYLINE
  8
47
 62
7
  6
CONTINUOUS
 70
1
 66
1
  0
VERTEX
 10
6.300000
 20
28.600000
 30
0.000000
  8
47
 62
7
  6
CONTINUOUS
  0
VERTEX
 10
6.300000
 20
28.800000
 30
0.000000
  8
47
 62
7
  6
CONTINUOUS
  0
VERTEX
 10
6.100000
 20
28.800000
 30
0.000000
  8
47
 62
7
  6
CONTINUOUS
  0
VERTEX
 10
6.100000
 20
28.600000
 30
0.000000
  8
47
 62
7
  6
CONTINUOUS
  0
SEQEND
  0
POLYLINE
  8
47
 62
7
  6
CONTINUOUS
 70
1
 66
1
  0
VERTEX
 10
6.300000
 20
28.200000
 30
0.000000
  8
47
 62
7
  6
CONTINUOUS
  0
VERTEX
 10
6.300000
 20
28.400000
 30
0.000000
  8
47
 62
7
  6
CONTINUOUS
  0
VERTEX
 10
6.100000
 20
28.400000
 30
0.000000
  8
47
 62
7
  6
CONTINUOUS
  0
VERTEX
 10
6.100000
 20
28.200000
 30
0.000000
  8
47
 62
7
  6
CONTINUOUS
  0
SEQEND
  0
POLYLINE
  8
47
 62
7
  6
CONTINUOUS
 70
1
 66
1
  0
VERTEX
 10
6.300000
 20
27.800000
 30
0.000000
  8
47
 62
7
  6
CONTINUOUS
  0
VERTEX
 10
6.300000
 20
28.000000
 30
0.000000
  8
47
 62
7
  6
CONTINUOUS
  0
VERTEX
 10
6.100000
 20
28.000000
 30
0.000000
  8
47
 62
7
  6
CONTINUOUS
  0
VERTEX
 10
6.100000
 20
27.800000
 30
0.000000
  8
47
 62
7
  6
CONTINUOUS
  0
SEQEND
  0
POLYLINE
  8
47
 62
7
  6
CONTINUOUS
 70
1
 66
1
  0
VERTEX
 10
6.300000
 20
27.400000
 30
0.000000
  8
47
 62
7
  6
CONTINUOUS
  0
VERTEX
 10
6.300000
 20
27.600000
 30
0.000000
  8
47
 62
7
  6
CONTINUOUS
  0
VERTEX
 10
6.100000
 20
27.600000
 30
0.000000
  8
47
 62
7
  6
CONTINUOUS
  0
VERTEX
 10
6.100000
 20
27.400000
 30
0.000000
  8
47
 62
7
  6
CONTINUOUS
  0
SEQEND
  0
POLYLINE
  8
47
 62
7
  6
CONTINUOUS
 70
1
 66
1
  0
VERTEX
 10
6.700000
 20
30.200000
 30
0.000000
  8
47
 62
7
  6
CONTINUOUS
  0
VERTEX
 10
6.700000
 20
30.400000
 30
0.000000
  8
47
 62
7
  6
CONTINUOUS
  0
VERTEX
 10
6.500000
 20
30.400000
 30
0.000000
  8
47
 62
7
  6
CONTINUOUS
  0
VERTEX
 10
6.500000
 20
30.200000
 30
0.000000
  8
47
 62
7
  6
CONTINUOUS
  0
SEQEND
  0
POLYLINE
  8
47
 62
7
  6
CONTINUOUS
 70
1
 66
1
  0
VERTEX
 10
6.700000
 20
32.200000
 30
0.000000
  8
47
 62
7
  6
CONTINUOUS
  0
VERTEX
 10
6.700000
 20
32.400000
 30
0.000000
  8
47
 62
7
  6
CONTINUOUS
  0
VERTEX
 10
6.500000
 20
32.400000
 30
0.000000
  8
47
 62
7
  6
CONTINUOUS
  0
VERTEX
 10
6.500000
 20
32.200000
 30
0.000000
  8
47
 62
7
  6
CONTINUOUS
  0
SEQEND
  0
POLYLINE
  8
47
 62
7
  6
CONTINUOUS
 70
1
 66
1
  0
VERTEX
 10
6.700000
 20
31.800000
 30
0.000000
  8
47
 62
7
  6
CONTINUOUS
  0
VERTEX
 10
6.700000
 20
32.000000
 30
0.000000
  8
47
 62
7
  6
CONTINUOUS
  0
VERTEX
 10
6.500000
 20
32.000000
 30
0.000000
  8
47
 62
7
  6
CONTINUOUS
  0
VERTEX
 10
6.500000
 20
31.800000
 30
0.000000
  8
47
 62
7
  6
CONTINUOUS
  0
SEQEND
  0
POLYLINE
  8
47
 62
7
  6
CONTINUOUS
 70
1
 66
1
  0
VERTEX
 10
6.700000
 20
31.400000
 30
0.000000
  8
47
 62
7
  6
CONTINUOUS
  0
VERTEX
 10
6.700000
 20
31.600000
 30
0.000000
  8
47
 62
7
  6
CONTINUOUS
  0
VERTEX
 10
6.500000
 20
31.600000
 30
0.000000
  8
47
 62
7
  6
CONTINUOUS
  0
VERTEX
 10
6.500000
 20
31.400000
 30
0.000000
  8
47
 62
7
  6
CONTINUOUS
  0
SEQEND
  0
POLYLINE
  8
47
 62
7
  6
CONTINUOUS
 70
1
 66
1
  0
VERTEX
 10
6.700000
 20
31.000000
 30
0.000000
  8
47
 62
7
  6
CONTINUOUS
  0
VERTEX
 10
6.700000
 20
31.200000
 30
0.000000
  8
47
 62
7
  6
CONTINUOUS
  0
VERTEX
 10
6.500000
 20
31.200000
 30
0.000000
  8
47
 62
7
  6
CONTINUOUS
  0
VERTEX
 10
6.500000
 20
31.000000
 30
0.000000
  8
47
 62
7
  6
CONTINUOUS
  0
SEQEND
  0
POLYLINE
  8
47
 62
7
  6
CONTINUOUS
 70
1
 66
1
  0
VERTEX
 10
6.700000
 20
30.600000
 30
0.000000
  8
47
 62
7
  6
CONTINUOUS
  0
VERTEX
 10
6.700000
 20
30.800000
 30
0.000000
  8
47
 62
7
  6
CONTINUOUS
  0
VERTEX
 10
6.500000
 20
30.800000
 30
0.000000
  8
47
 62
7
  6
CONTINUOUS
  0
VERTEX
 10
6.500000
 20
30.600000
 30
0.000000
  8
47
 62
7
  6
CONTINUOUS
  0
SEQEND
  0
POLYLINE
  8
47
 62
7
  6
CONTINUOUS
 70
1
 66
1
  0
VERTEX
 10
6.700000
 20
29.800000
 30
0.000000
  8
47
 62
7
  6
CONTINUOUS
  0
VERTEX
 10
6.700000
 20
30.000000
 30
0.000000
  8
47
 62
7
  6
CONTINUOUS
  0
VERTEX
 10
6.500000
 20
30.000000
 30
0.000000
  8
47
 62
7
  6
CONTINUOUS
  0
VERTEX
 10
6.500000
 20
29.800000
 30
0.000000
  8
47
 62
7
  6
CONTINUOUS
  0
SEQEND
  0
POLYLINE
  8
47
 62
7
  6
CONTINUOUS
 70
1
 66
1
  0
VERTEX
 10
6.700000
 20
29.400000
 30
0.000000
  8
47
 62
7
  6
CONTINUOUS
  0
VERTEX
 10
6.700000
 20
29.600000
 30
0.000000
  8
47
 62
7
  6
CONTINUOUS
  0
VERTEX
 10
6.500000
 20
29.600000
 30
0.000000
  8
47
 62
7
  6
CONTINUOUS
  0
VERTEX
 10
6.500000
 20
29.400000
 30
0.000000
  8
47
 62
7
  6
CONTINUOUS
  0
SEQEND
  0
POLYLINE
  8
47
 62
7
  6
CONTINUOUS
 70
1
 66
1
  0
VERTEX
 10
6.700000
 20
29.000000
 30
0.000000
  8
47
 62
7
  6
CONTINUOUS
  0
VERTEX
 10
6.700000
 20
29.200000
 30
0.000000
  8
47
 62
7
  6
CONTINUOUS
  0
VERTEX
 10
6.500000
 20
29.200000
 30
0.000000
  8
47
 62
7
  6
CONTINUOUS
  0
VERTEX
 10
6.500000
 20
29.000000
 30
0.000000
  8
47
 62
7
  6
CONTINUOUS
  0
SEQEND
  0
POLYLINE
  8
47
 62
7
  6
CONTINUOUS
 70
1
 66
1
  0
VERTEX
 10
6.700000
 20
28.600000
 30
0.000000
  8
47
 62
7
  6
CONTINUOUS
  0
VERTEX
 10
6.700000
 20
28.800000
 30
0.000000
  8
47
 62
7
  6
CONTINUOUS
  0
VERTEX
 10
6.500000
 20
28.800000
 30
0.000000
  8
47
 62
7
  6
CONTINUOUS
  0
VERTEX
 10
6.500000
 20
28.600000
 30
0.000000
  8
47
 62
7
  6
CONTINUOUS
  0
SEQEND
  0
POLYLINE
  8
47
 62
7
  6
CONTINUOUS
 70
1
 66
1
  0
VERTEX
 10
6.700000
 20
28.200000
 30
0.000000
  8
47
 62
7
  6
CONTINUOUS
  0
VERTEX
 10
6.700000
 20
28.400000
 30
0.000000
  8
47
 62
7
  6
CONTINUOUS
  0
VERTEX
 10
6.500000
 20
28.400000
 30
0.000000
  8
47
 62
7
  6
CONTINUOUS
  0
VERTEX
 10
6.500000
 20
28.200000
 30
0.000000
  8
47
 62
7
  6
CONTINUOUS
  0
SEQEND
  0
POLYLINE
  8
47
 62
7
  6
CONTINUOUS
 70
1
 66
1
  0
VERTEX
 10
6.700000
 20
27.800000
 30
0.000000
  8
47
 62
7
  6
CONTINUOUS
  0
VERTEX
 10
6.700000
 20
28.000000
 30
0.000000
  8
47
 62
7
  6
CONTINUOUS
  0
VERTEX
 10
6.500000
 20
28.000000
 30
0.000000
  8
47
 62
7
  6
CONTINUOUS
  0
VERTEX
 10
6.500000
 20
27.800000
 30
0.000000
  8
47
 62
7
  6
CONTINUOUS
  0
SEQEND
  0
POLYLINE
  8
47
 62
7
  6
CONTINUOUS
 70
1
 66
1
  0
VERTEX
 10
6.700000
 20
27.400000
 30
0.000000
  8
47
 62
7
  6
CONTINUOUS
  0
VERTEX
 10
6.700000
 20
27.600000
 30
0.000000
  8
47
 62
7
  6
CONTINUOUS
  0
VERTEX
 10
6.500000
 20
27.600000
 30
0.000000
  8
47
 62
7
  6
CONTINUOUS
  0
VERTEX
 10
6.500000
 20
27.400000
 30
0.000000
  8
47
 62
7
  6
CONTINUOUS
  0
SEQEND
  0
POLYLINE
  8
47
 62
7
  6
CONTINUOUS
 70
1
 66
1
  0
VERTEX
 10
5.100000
 20
30.200000
 30
0.000000
  8
47
 62
7
  6
CONTINUOUS
  0
VERTEX
 10
5.100000
 20
30.400000
 30
0.000000
  8
47
 62
7
  6
CONTINUOUS
  0
VERTEX
 10
4.900000
 20
30.400000
 30
0.000000
  8
47
 62
7
  6
CONTINUOUS
  0
VERTEX
 10
4.900000
 20
30.200000
 30
0.000000
  8
47
 62
7
  6
CONTINUOUS
  0
SEQEND
  0
POLYLINE
  8
47
 62
7
  6
CONTINUOUS
 70
1
 66
1
  0
VERTEX
 10
5.100000
 20
32.200000
 30
0.000000
  8
47
 62
7
  6
CONTINUOUS
  0
VERTEX
 10
5.100000
 20
32.400000
 30
0.000000
  8
47
 62
7
  6
CONTINUOUS
  0
VERTEX
 10
4.900000
 20
32.400000
 30
0.000000
  8
47
 62
7
  6
CONTINUOUS
  0
VERTEX
 10
4.900000
 20
32.200000
 30
0.000000
  8
47
 62
7
  6
CONTINUOUS
  0
SEQEND
  0
POLYLINE
  8
47
 62
7
  6
CONTINUOUS
 70
1
 66
1
  0
VERTEX
 10
5.100000
 20
31.800000
 30
0.000000
  8
47
 62
7
  6
CONTINUOUS
  0
VERTEX
 10
5.100000
 20
32.000000
 30
0.000000
  8
47
 62
7
  6
CONTINUOUS
  0
VERTEX
 10
4.900000
 20
32.000000
 30
0.000000
  8
47
 62
7
  6
CONTINUOUS
  0
VERTEX
 10
4.900000
 20
31.800000
 30
0.000000
  8
47
 62
7
  6
CONTINUOUS
  0
SEQEND
  0
POLYLINE
  8
47
 62
7
  6
CONTINUOUS
 70
1
 66
1
  0
VERTEX
 10
5.100000
 20
31.400000
 30
0.000000
  8
47
 62
7
  6
CONTINUOUS
  0
VERTEX
 10
5.100000
 20
31.600000
 30
0.000000
  8
47
 62
7
  6
CONTINUOUS
  0
VERTEX
 10
4.900000
 20
31.600000
 30
0.000000
  8
47
 62
7
  6
CONTINUOUS
  0
VERTEX
 10
4.900000
 20
31.400000
 30
0.000000
  8
47
 62
7
  6
CONTINUOUS
  0
SEQEND
  0
POLYLINE
  8
47
 62
7
  6
CONTINUOUS
 70
1
 66
1
  0
VERTEX
 10
5.100000
 20
31.000000
 30
0.000000
  8
47
 62
7
  6
CONTINUOUS
  0
VERTEX
 10
5.100000
 20
31.200000
 30
0.000000
  8
47
 62
7
  6
CONTINUOUS
  0
VERTEX
 10
4.900000
 20
31.200000
 30
0.000000
  8
47
 62
7
  6
CONTINUOUS
  0
VERTEX
 10
4.900000
 20
31.000000
 30
0.000000
  8
47
 62
7
  6
CONTINUOUS
  0
SEQEND
  0
POLYLINE
  8
47
 62
7
  6
CONTINUOUS
 70
1
 66
1
  0
VERTEX
 10
5.100000
 20
30.600000
 30
0.000000
  8
47
 62
7
  6
CONTINUOUS
  0
VERTEX
 10
5.100000
 20
30.800000
 30
0.000000
  8
47
 62
7
  6
CONTINUOUS
  0
VERTEX
 10
4.900000
 20
30.800000
 30
0.000000
  8
47
 62
7
  6
CONTINUOUS
  0
VERTEX
 10
4.900000
 20
30.600000
 30
0.000000
  8
47
 62
7
  6
CONTINUOUS
  0
SEQEND
  0
POLYLINE
  8
47
 62
7
  6
CONTINUOUS
 70
1
 66
1
  0
VERTEX
 10
5.100000
 20
29.800000
 30
0.000000
  8
47
 62
7
  6
CONTINUOUS
  0
VERTEX
 10
5.100000
 20
30.000000
 30
0.000000
  8
47
 62
7
  6
CONTINUOUS
  0
VERTEX
 10
4.900000
 20
30.000000
 30
0.000000
  8
47
 62
7
  6
CONTINUOUS
  0
VERTEX
 10
4.900000
 20
29.800000
 30
0.000000
  8
47
 62
7
  6
CONTINUOUS
  0
SEQEND
  0
POLYLINE
  8
47
 62
7
  6
CONTINUOUS
 70
1
 66
1
  0
VERTEX
 10
5.100000
 20
29.400000
 30
0.000000
  8
47
 62
7
  6
CONTINUOUS
  0
VERTEX
 10
5.100000
 20
29.600000
 30
0.000000
  8
47
 62
7
  6
CONTINUOUS
  0
VERTEX
 10
4.900000
 20
29.600000
 30
0.000000
  8
47
 62
7
  6
CONTINUOUS
  0
VERTEX
 10
4.900000
 20
29.400000
 30
0.000000
  8
47
 62
7
  6
CONTINUOUS
  0
SEQEND
  0
POLYLINE
  8
47
 62
7
  6
CONTINUOUS
 70
1
 66
1
  0
VERTEX
 10
5.100000
 20
29.000000
 30
0.000000
  8
47
 62
7
  6
CONTINUOUS
  0
VERTEX
 10
5.100000
 20
29.200000
 30
0.000000
  8
47
 62
7
  6
CONTINUOUS
  0
VERTEX
 10
4.900000
 20
29.200000
 30
0.000000
  8
47
 62
7
  6
CONTINUOUS
  0
VERTEX
 10
4.900000
 20
29.000000
 30
0.000000
  8
47
 62
7
  6
CONTINUOUS
  0
SEQEND
  0
POLYLINE
  8
47
 62
7
  6
CONTINUOUS
 70
1
 66
1
  0
VERTEX
 10
5.100000
 20
28.600000
 30
0.000000
  8
47
 62
7
  6
CONTINUOUS
  0
VERTEX
 10
5.100000
 20
28.800000
 30
0.000000
  8
47
 62
7
  6
CONTINUOUS
  0
VERTEX
 10
4.900000
 20
28.800000
 30
0.000000
  8
47
 62
7
  6
CONTINUOUS
  0
VERTEX
 10
4.900000
 20
28.600000
 30
0.000000
  8
47
 62
7
  6
CONTINUOUS
  0
SEQEND
  0
POLYLINE
  8
47
 62
7
  6
CONTINUOUS
 70
1
 66
1
  0
VERTEX
 10
5.100000
 20
28.200000
 30
0.000000
  8
47
 62
7
  6
CONTINUOUS
  0
VERTEX
 10
5.100000
 20
28.400000
 30
0.000000
  8
47
 62
7
  6
CONTINUOUS
  0
VERTEX
 10
4.900000
 20
28.400000
 30
0.000000
  8
47
 62
7
  6
CONTINUOUS
  0
VERTEX
 10
4.900000
 20
28.200000
 30
0.000000
  8
47
 62
7
  6
CONTINUOUS
  0
SEQEND
  0
POLYLINE
  8
47
 62
7
  6
CONTINUOUS
 70
1
 66
1
  0
VERTEX
 10
5.100000
 20
27.800000
 30
0.000000
  8
47
 62
7
  6
CONTINUOUS
  0
VERTEX
 10
5.100000
 20
28.000000
 30
0.000000
  8
47
 62
7
  6
CONTINUOUS
  0
VERTEX
 10
4.900000
 20
28.000000
 30
0.000000
  8
47
 62
7
  6
CONTINUOUS
  0
VERTEX
 10
4.900000
 20
27.800000
 30
0.000000
  8
47
 62
7
  6
CONTINUOUS
  0
SEQEND
  0
POLYLINE
  8
47
 62
7
  6
CONTINUOUS
 70
1
 66
1
  0
VERTEX
 10
5.100000
 20
27.400000
 30
0.000000
  8
47
 62
7
  6
CONTINUOUS
  0
VERTEX
 10
5.100000
 20
27.600000
 30
0.000000
  8
47
 62
7
  6
CONTINUOUS
  0
VERTEX
 10
4.900000
 20
27.600000
 30
0.000000
  8
47
 62
7
  6
CONTINUOUS
  0
VERTEX
 10
4.900000
 20
27.400000
 30
0.000000
  8
47
 62
7
  6
CONTINUOUS
  0
SEQEND
  0
ENDBLK
  0
ENDSEC
  0
SECTION
  2
ENTITIES
  0
INSERT
  8
0
 2
ukb3bok13d
 10
0.000000
 20
0.000000
 30
0.0
 50
0.0
  0
INSERT
  8
3
 2
bl630
 10
0.000000
 20
0.000000
 30
0.0
 50
0.0
  0
ENDSEC
  0
EOF
