  0
SECTION
  2
HEADER
  9
$ACADVER
  1
AC1009
  9
$INSBASE
 10
0.0
 20
0.0
 30
0.0
  9
$EXTMIN
 10
0.0
 20
0.0
 30
0.0
  9
$EXTMAX
 10
0.000000
 20
0.000000
 30
0.0
  9
$LIMMIN
 10
0.0
 20
0.0
  9
$LIMMAX
 10
0.000000
 20
0.000000
  0
ENDSEC
  0
SECTION
  2
TABLES
  0
TABLE
  2
LTYPE
 70
4
  0
LTYPE
  2
CONTINUOUS
 70
64
  3
Solid line
 72
65
 73
0
 40
0.000000
  0
LTYPE
  2
L000000000000000000
 70
64
  3
Solid line
 72
65
 73
0
 40
0.000000
  0
LTYPE
  2
L000000020000FFFFFF
 70
64
  3
Solid line
 72
65
 73
0
 40
0.000000
  0
LTYPE
  2
L000000020000808080
 70
64
  3
Solid line
 72
65
 73
0
 40
0.000000
  0
ENDTAB
  0
TABLE
  2
LAYER
 70
8
  0
LAYER
  2
0
 70
64
 62
7
  6
CONTINUOUS
  0
LAYER
  2
1
 70
64
 62
7
  6
CONTINUOUS
  0
LAYER
  2
2
 70
64
 62
7
  6
CONTINUOUS
  0
LAYER
  2
3
 70
64
 62
7
  6
CONTINUOUS
  0
LAYER
  2
4
 70
64
 62
7
  6
CONTINUOUS
  0
LAYER
  2
5
 70
64
 62
7
  6
CONTINUOUS
  0
LAYER
  2
6
 70
64
 62
7
  6
CONTINUOUS
  0
LAYER
  2
7
 70
64
 62
7
  6
CONTINUOUS
  0
LAYER
  2
8
 70
64
 62
7
  6
CONTINUOUS
  0
LAYER
  2
9
 70
64
 62
7
  6
CONTINUOUS
  0
LAYER
  2
10
 70
64
 62
7
  6
CONTINUOUS
  0
LAYER
  2
11
 70
64
 62
7
  6
CONTINUOUS
  0
LAYER
  2
12
 70
64
 62
7
  6
CONTINUOUS
  0
LAYER
  2
13
 70
64
 62
7
  6
CONTINUOUS
  0
LAYER
  2
14
 70
64
 62
7
  6
CONTINUOUS
  0
LAYER
  2
15
 70
64
 62
7
  6
CONTINUOUS
  0
LAYER
  2
16
 70
64
 62
7
  6
CONTINUOUS
  0
LAYER
  2
17
 70
64
 62
7
  6
CONTINUOUS
  0
LAYER
  2
18
 70
64
 62
7
  6
CONTINUOUS
  0
LAYER
  2
19
 70
64
 62
7
  6
CONTINUOUS
  0
LAYER
  2
20
 70
64
 62
7
  6
CONTINUOUS
  0
LAYER
  2
21
 70
64
 62
7
  6
CONTINUOUS
  0
LAYER
  2
22
 70
64
 62
7
  6
CONTINUOUS
  0
LAYER
  2
23
 70
64
 62
7
  6
CONTINUOUS
  0
LAYER
  2
24
 70
64
 62
7
  6
CONTINUOUS
  0
LAYER
  2
25
 70
64
 62
7
  6
CONTINUOUS
  0
LAYER
  2
26
 70
64
 62
7
  6
CONTINUOUS
  0
LAYER
  2
27
 70
64
 62
7
  6
CONTINUOUS
  0
LAYER
  2
28
 70
64
 62
7
  6
CONTINUOUS
  0
LAYER
  2
29
 70
64
 62
-7
  6
CONTINUOUS
  0
LAYER
  2
30
 70
64
 62
-7
  6
CONTINUOUS
  0
LAYER
  2
31
 70
64
 62
7
  6
CONTINUOUS
  0
LAYER
  2
32
 70
64
 62
7
  6
CONTINUOUS
  0
LAYER
  2
33
 70
64
 62
7
  6
CONTINUOUS
  0
LAYER
  2
34
 70
64
 62
7
  6
CONTINUOUS
  0
LAYER
  2
35
 70
64
 62
7
  6
CONTINUOUS
  0
LAYER
  2
36
 70
64
 62
7
  6
CONTINUOUS
  0
LAYER
  2
37
 70
64
 62
7
  6
CONTINUOUS
  0
LAYER
  2
38
 70
64
 62
-7
  6
CONTINUOUS
  0
LAYER
  2
39
 70
64
 62
7
  6
CONTINUOUS
  0
LAYER
  2
40
 70
64
 62
7
  6
CONTINUOUS
  0
LAYER
  2
41
 70
64
 62
7
  6
CONTINUOUS
  0
LAYER
  2
42
 70
64
 62
7
  6
CONTINUOUS
  0
LAYER
  2
43
 70
64
 62
7
  6
CONTINUOUS
  0
LAYER
  2
44
 70
64
 62
7
  6
CONTINUOUS
  0
LAYER
  2
45
 70
64
 62
7
  6
CONTINUOUS
  0
LAYER
  2
46
 70
64
 62
7
  6
CONTINUOUS
  0
LAYER
  2
47
 70
64
 62
7
  6
CONTINUOUS
  0
LAYER
  2
48
 70
64
 62
7
  6
CONTINUOUS
  0
LAYER
  2
49
 70
64
 62
7
  6
CONTINUOUS
  0
LAYER
  2
50
 70
64
 62
7
  6
CONTINUOUS
  0
LAYER
  2
51
 70
64
 62
7
  6
CONTINUOUS
  0
LAYER
  2
52
 70
64
 62
7
  6
CONTINUOUS
  0
LAYER
  2
53
 70
64
 62
7
  6
CONTINUOUS
  0
LAYER
  2
54
 70
64
 62
7
  6
CONTINUOUS
  0
LAYER
  2
55
 70
64
 62
7
  6
CONTINUOUS
  0
LAYER
  2
56
 70
64
 62
-7
  6
CONTINUOUS
  0
LAYER
  2
57
 70
64
 62
-7
  6
CONTINUOUS
  0
LAYER
  2
58
 70
64
 62
7
  6
CONTINUOUS
  0
LAYER
  2
59
 70
64
 62
-7
  6
CONTINUOUS
  0
LAYER
  2
60
 70
64
 62
-7
  6
CONTINUOUS
  0
LAYER
  2
61
 70
64
 62
7
  6
CONTINUOUS
  0
LAYER
  2
62
 70
64
 62
7
  6
CONTINUOUS
  0
LAYER
  2
63
 70
64
 62
7
  6
CONTINUOUS
  0
LAYER
  2
64
 70
64
 62
7
  6
CONTINUOUS
  0
LAYER
  2
65
 70
64
 62
7
  6
CONTINUOUS
  0
LAYER
  2
66
 70
64
 62
7
  6
CONTINUOUS
  0
LAYER
  2
67
 70
64
 62
7
  6
CONTINUOUS
  0
LAYER
  2
68
 70
64
 62
7
  6
CONTINUOUS
  0
LAYER
  2
69
 70
64
 62
7
  6
CONTINUOUS
  0
LAYER
  2
70
 70
64
 62
7
  6
CONTINUOUS
  0
LAYER
  2
71
 70
64
 62
7
  6
CONTINUOUS
  0
LAYER
  2
72
 70
64
 62
7
  6
CONTINUOUS
  0
LAYER
  2
73
 70
64
 62
7
  6
CONTINUOUS
  0
LAYER
  2
74
 70
64
 62
7
  6
CONTINUOUS
  0
LAYER
  2
75
 70
64
 62
7
  6
CONTINUOUS
  0
LAYER
  2
76
 70
64
 62
7
  6
CONTINUOUS
  0
LAYER
  2
77
 70
64
 62
7
  6
CONTINUOUS
  0
LAYER
  2
78
 70
64
 62
7
  6
CONTINUOUS
  0
LAYER
  2
79
 70
64
 62
7
  6
CONTINUOUS
  0
LAYER
  2
80
 70
64
 62
7
  6
CONTINUOUS
  0
LAYER
  2
81
 70
64
 62
7
  6
CONTINUOUS
  0
LAYER
  2
82
 70
64
 62
7
  6
CONTINUOUS
  0
LAYER
  2
83
 70
64
 62
7
  6
CONTINUOUS
  0
LAYER
  2
84
 70
64
 62
7
  6
CONTINUOUS
  0
LAYER
  2
85
 70
64
 62
7
  6
CONTINUOUS
  0
LAYER
  2
86
 70
64
 62
7
  6
CONTINUOUS
  0
LAYER
  2
87
 70
64
 62
7
  6
CONTINUOUS
  0
LAYER
  2
88
 70
64
 62
7
  6
CONTINUOUS
  0
LAYER
  2
89
 70
64
 62
7
  6
CONTINUOUS
  0
LAYER
  2
90
 70
64
 62
7
  6
CONTINUOUS
  0
LAYER
  2
91
 70
64
 62
7
  6
CONTINUOUS
  0
LAYER
  2
92
 70
64
 62
7
  6
CONTINUOUS
  0
LAYER
  2
93
 70
64
 62
7
  6
CONTINUOUS
  0
LAYER
  2
94
 70
64
 62
7
  6
CONTINUOUS
  0
LAYER
  2
95
 70
64
 62
7
  6
CONTINUOUS
  0
LAYER
  2
96
 70
64
 62
7
  6
CONTINUOUS
  0
LAYER
  2
97
 70
64
 62
7
  6
CONTINUOUS
  0
LAYER
  2
98
 70
64
 62
7
  6
CONTINUOUS
  0
LAYER
  2
99
 70
64
 62
7
  6
CONTINUOUS
  0
LAYER
  2
100
 70
64
 62
7
  6
CONTINUOUS
  0
LAYER
  2
101
 70
64
 62
7
  6
CONTINUOUS
  0
LAYER
  2
102
 70
64
 62
7
  6
CONTINUOUS
  0
LAYER
  2
103
 70
64
 62
7
  6
CONTINUOUS
  0
LAYER
  2
104
 70
64
 62
7
  6
CONTINUOUS
  0
LAYER
  2
105
 70
64
 62
7
  6
CONTINUOUS
  0
LAYER
  2
106
 70
64
 62
7
  6
CONTINUOUS
  0
LAYER
  2
107
 70
64
 62
7
  6
CONTINUOUS
  0
LAYER
  2
108
 70
64
 62
7
  6
CONTINUOUS
  0
LAYER
  2
109
 70
64
 62
7
  6
CONTINUOUS
  0
LAYER
  2
110
 70
64
 62
7
  6
CONTINUOUS
  0
LAYER
  2
111
 70
64
 62
7
  6
CONTINUOUS
  0
LAYER
  2
112
 70
64
 62
7
  6
CONTINUOUS
  0
LAYER
  2
113
 70
64
 62
7
  6
CONTINUOUS
  0
LAYER
  2
114
 70
64
 62
7
  6
CONTINUOUS
  0
LAYER
  2
115
 70
64
 62
7
  6
CONTINUOUS
  0
LAYER
  2
116
 70
64
 62
7
  6
CONTINUOUS
  0
LAYER
  2
117
 70
64
 62
7
  6
CONTINUOUS
  0
LAYER
  2
118
 70
64
 62
7
  6
CONTINUOUS
  0
LAYER
  2
119
 70
64
 62
7
  6
CONTINUOUS
  0
LAYER
  2
120
 70
64
 62
7
  6
CONTINUOUS
  0
LAYER
  2
121
 70
64
 62
7
  6
CONTINUOUS
  0
LAYER
  2
122
 70
64
 62
7
  6
CONTINUOUS
  0
LAYER
  2
123
 70
64
 62
7
  6
CONTINUOUS
  0
LAYER
  2
124
 70
64
 62
7
  6
CONTINUOUS
  0
LAYER
  2
125
 70
64
 62
7
  6
CONTINUOUS
  0
LAYER
  2
126
 70
64
 62
7
  6
CONTINUOUS
  0
LAYER
  2
127
 70
64
 62
7
  6
CONTINUOUS
  0
LAYER
  2
128
 70
64
 62
7
  6
CONTINUOUS
  0
LAYER
  2
129
 70
64
 62
7
  6
CONTINUOUS
  0
LAYER
  2
130
 70
64
 62
7
  6
CONTINUOUS
  0
LAYER
  2
131
 70
64
 62
7
  6
CONTINUOUS
  0
LAYER
  2
132
 70
64
 62
7
  6
CONTINUOUS
  0
LAYER
  2
133
 70
64
 62
7
  6
CONTINUOUS
  0
LAYER
  2
134
 70
64
 62
7
  6
CONTINUOUS
  0
LAYER
  2
135
 70
64
 62
7
  6
CONTINUOUS
  0
LAYER
  2
136
 70
64
 62
7
  6
CONTINUOUS
  0
LAYER
  2
137
 70
64
 62
7
  6
CONTINUOUS
  0
LAYER
  2
138
 70
64
 62
7
  6
CONTINUOUS
  0
LAYER
  2
139
 70
64
 62
7
  6
CONTINUOUS
  0
LAYER
  2
140
 70
64
 62
7
  6
CONTINUOUS
  0
LAYER
  2
141
 70
64
 62
7
  6
CONTINUOUS
  0
LAYER
  2
142
 70
64
 62
7
  6
CONTINUOUS
  0
LAYER
  2
143
 70
64
 62
7
  6
CONTINUOUS
  0
LAYER
  2
144
 70
64
 62
7
  6
CONTINUOUS
  0
LAYER
  2
145
 70
64
 62
7
  6
CONTINUOUS
  0
LAYER
  2
146
 70
64
 62
7
  6
CONTINUOUS
  0
LAYER
  2
147
 70
64
 62
7
  6
CONTINUOUS
  0
LAYER
  2
148
 70
64
 62
7
  6
CONTINUOUS
  0
LAYER
  2
149
 70
64
 62
7
  6
CONTINUOUS
  0
LAYER
  2
150
 70
64
 62
7
  6
CONTINUOUS
  0
LAYER
  2
151
 70
64
 62
7
  6
CONTINUOUS
  0
LAYER
  2
152
 70
64
 62
7
  6
CONTINUOUS
  0
LAYER
  2
153
 70
64
 62
7
  6
CONTINUOUS
  0
LAYER
  2
154
 70
64
 62
7
  6
CONTINUOUS
  0
LAYER
  2
155
 70
64
 62
7
  6
CONTINUOUS
  0
LAYER
  2
156
 70
64
 62
7
  6
CONTINUOUS
  0
LAYER
  2
157
 70
64
 62
7
  6
CONTINUOUS
  0
LAYER
  2
158
 70
64
 62
7
  6
CONTINUOUS
  0
LAYER
  2
159
 70
64
 62
7
  6
CONTINUOUS
  0
LAYER
  2
160
 70
64
 62
7
  6
CONTINUOUS
  0
LAYER
  2
161
 70
64
 62
7
  6
CONTINUOUS
  0
LAYER
  2
162
 70
64
 62
7
  6
CONTINUOUS
  0
LAYER
  2
163
 70
64
 62
7
  6
CONTINUOUS
  0
LAYER
  2
164
 70
64
 62
7
  6
CONTINUOUS
  0
LAYER
  2
165
 70
64
 62
7
  6
CONTINUOUS
  0
LAYER
  2
166
 70
64
 62
7
  6
CONTINUOUS
  0
LAYER
  2
167
 70
64
 62
7
  6
CONTINUOUS
  0
LAYER
  2
168
 70
64
 62
7
  6
CONTINUOUS
  0
LAYER
  2
169
 70
64
 62
7
  6
CONTINUOUS
  0
LAYER
  2
170
 70
64
 62
7
  6
CONTINUOUS
  0
LAYER
  2
171
 70
64
 62
7
  6
CONTINUOUS
  0
LAYER
  2
172
 70
64
 62
7
  6
CONTINUOUS
  0
LAYER
  2
173
 70
64
 62
7
  6
CONTINUOUS
  0
LAYER
  2
174
 70
64
 62
7
  6
CONTINUOUS
  0
LAYER
  2
175
 70
64
 62
7
  6
CONTINUOUS
  0
LAYER
  2
176
 70
64
 62
7
  6
CONTINUOUS
  0
LAYER
  2
177
 70
64
 62
7
  6
CONTINUOUS
  0
LAYER
  2
178
 70
64
 62
7
  6
CONTINUOUS
  0
LAYER
  2
179
 70
64
 62
7
  6
CONTINUOUS
  0
LAYER
  2
180
 70
64
 62
7
  6
CONTINUOUS
  0
LAYER
  2
181
 70
64
 62
7
  6
CONTINUOUS
  0
LAYER
  2
182
 70
64
 62
7
  6
CONTINUOUS
  0
LAYER
  2
183
 70
64
 62
7
  6
CONTINUOUS
  0
LAYER
  2
184
 70
64
 62
7
  6
CONTINUOUS
  0
LAYER
  2
185
 70
64
 62
7
  6
CONTINUOUS
  0
LAYER
  2
186
 70
64
 62
7
  6
CONTINUOUS
  0
LAYER
  2
187
 70
64
 62
7
  6
CONTINUOUS
  0
LAYER
  2
188
 70
64
 62
7
  6
CONTINUOUS
  0
LAYER
  2
189
 70
64
 62
7
  6
CONTINUOUS
  0
LAYER
  2
190
 70
64
 62
7
  6
CONTINUOUS
  0
LAYER
  2
191
 70
64
 62
7
  6
CONTINUOUS
  0
LAYER
  2
192
 70
64
 62
7
  6
CONTINUOUS
  0
LAYER
  2
193
 70
64
 62
7
  6
CONTINUOUS
  0
LAYER
  2
194
 70
64
 62
7
  6
CONTINUOUS
  0
LAYER
  2
195
 70
64
 62
7
  6
CONTINUOUS
  0
LAYER
  2
196
 70
64
 62
7
  6
CONTINUOUS
  0
LAYER
  2
197
 70
64
 62
7
  6
CONTINUOUS
  0
LAYER
  2
198
 70
64
 62
7
  6
CONTINUOUS
  0
LAYER
  2
199
 70
64
 62
7
  6
CONTINUOUS
  0
ENDTAB
  0
ENDSEC
  0
SECTION
  2
BLOCKS
  0
BLOCK
  8
0
  2
tzt206
 70
 0
 10
0.0
 20
0.0
 30
0.0
  0
SOLID
  8
3
 62
255
  6
L000000020000FFFFFF
 10
-2.000000
 20
-2.000000
 11
-2.000000
 21
7.900000
 12
52.000000
 22
-2.000000
 13
52.000000
 23
7.900000
  0
POLYLINE
  8
3
 62
255
  6
L000000020000FFFFFF
 70
1
 66
1
  0
VERTEX
 10
-2.000000
 20
-2.000000
 30
0.000000
  8
3
 62
255
  6
L000000020000FFFFFF
  0
VERTEX
 10
-2.000000
 20
7.900000
 30
0.000000
  8
3
 62
255
  6
L000000020000FFFFFF
  0
VERTEX
 10
52.000000
 20
7.900000
 30
0.000000
  8
3
 62
255
  6
L000000020000FFFFFF
  0
VERTEX
 10
52.000000
 20
-2.000000
 30
0.000000
  8
3
 62
255
  6
L000000020000FFFFFF
  0
SEQEND
  0
SOLID
  8
3
 62
255
  6
L000000020000FFFFFF
 10
-2.000000
 20
7.900000
 11
-2.000000
 21
82.100000
 12
8.000000
 22
7.900000
 13
8.000000
 23
82.100000
  0
POLYLINE
  8
3
 62
255
  6
L000000020000FFFFFF
 70
1
 66
1
  0
VERTEX
 10
-2.000000
 20
7.900000
 30
0.000000
  8
3
 62
255
  6
L000000020000FFFFFF
  0
VERTEX
 10
-2.000000
 20
82.100000
 30
0.000000
  8
3
 62
255
  6
L000000020000FFFFFF
  0
VERTEX
 10
8.000000
 20
82.100000
 30
0.000000
  8
3
 62
255
  6
L000000020000FFFFFF
  0
VERTEX
 10
8.000000
 20
7.900000
 30
0.000000
  8
3
 62
255
  6
L000000020000FFFFFF
  0
SEQEND
  0
SOLID
  8
3
 62
255
  6
L000000020000FFFFFF
 10
-2.000000
 20
82.100000
 11
-2.000000
 21
92.000000
 12
52.000000
 22
82.100000
 13
52.000000
 23
92.000000
  0
POLYLINE
  8
3
 62
255
  6
L000000020000FFFFFF
 70
1
 66
1
  0
VERTEX
 10
-2.000000
 20
82.100000
 30
0.000000
  8
3
 62
255
  6
L000000020000FFFFFF
  0
VERTEX
 10
-2.000000
 20
92.000000
 30
0.000000
  8
3
 62
255
  6
L000000020000FFFFFF
  0
VERTEX
 10
52.000000
 20
92.000000
 30
0.000000
  8
3
 62
255
  6
L000000020000FFFFFF
  0
VERTEX
 10
52.000000
 20
82.100000
 30
0.000000
  8
3
 62
255
  6
L000000020000FFFFFF
  0
SEQEND
  0
SOLID
  8
3
 62
255
  6
L000000020000FFFFFF
 10
42.000000
 20
7.900000
 11
42.000000
 21
82.100000
 12
52.000000
 22
7.900000
 13
52.000000
 23
82.100000
  0
POLYLINE
  8
3
 62
255
  6
L000000020000FFFFFF
 70
1
 66
1
  0
VERTEX
 10
42.000000
 20
7.900000
 30
0.000000
  8
3
 62
255
  6
L000000020000FFFFFF
  0
VERTEX
 10
42.000000
 20
82.100000
 30
0.000000
  8
3
 62
255
  6
L000000020000FFFFFF
  0
VERTEX
 10
52.000000
 20
82.100000
 30
0.000000
  8
3
 62
255
  6
L000000020000FFFFFF
  0
VERTEX
 10
52.000000
 20
7.900000
 30
0.000000
  8
3
 62
255
  6
L000000020000FFFFFF
  0
SEQEND
  0
POLYLINE
  8
3
 62
7
  6
L000000000000000000
 70
1
 66
1
  0
VERTEX
 10
5.500000
 20
-1.600000
 30
0.000000
  8
3
 62
7
  6
L000000000000000000
  0
VERTEX
 10
5.500000
 20
91.600000
 30
0.000000
  8
3
 62
7
  6
L000000000000000000
  0
VERTEX
 10
52.000000
 20
91.600000
 30
0.000000
  8
3
 62
7
  6
L000000000000000000
  0
VERTEX
 10
52.000000
 20
-1.600000
 30
0.000000
  8
3
 62
7
  6
L000000000000000000
  0
SEQEND
  0
POLYLINE
  8
3
 62
7
  6
CONTINUOUS
 70
1
 66
1
  0
VERTEX
 10
52.000000
 20
92.000000
 30
0.000000
  8
3
 62
7
  6
CONTINUOUS
  0
VERTEX
 10
52.000000
 20
-2.000000
 30
0.000000
  8
3
 62
7
  6
CONTINUOUS
  0
VERTEX
 10
-2.000000
 20
-2.000000
 30
0.000000
  8
3
 62
7
  6
CONTINUOUS
  0
VERTEX
 10
-2.000000
 20
92.000000
 30
0.000000
  8
3
 62
7
  6
CONTINUOUS
  0
SEQEND
  0
SOLID
  8
3
 62
7
  6
CONTINUOUS
 10
51.000000
 20
12.500000
 11
51.000000
 21
7.500000
 12
52.000000
 22
12.500000
 13
52.000000
 23
7.500000
  0
POLYLINE
  8
3
 62
7
  6
CONTINUOUS
 70
1
 66
1
  0
VERTEX
 10
51.000000
 20
12.500000
 30
0.000000
  8
3
 62
7
  6
CONTINUOUS
  0
VERTEX
 10
51.000000
 20
7.500000
 30
0.000000
  8
3
 62
7
  6
CONTINUOUS
  0
VERTEX
 10
52.000000
 20
7.500000
 30
0.000000
  8
3
 62
7
  6
CONTINUOUS
  0
VERTEX
 10
52.000000
 20
12.500000
 30
0.000000
  8
3
 62
7
  6
CONTINUOUS
  0
SEQEND
  0
SOLID
  8
3
 62
7
  6
CONTINUOUS
 10
51.000000
 20
77.500000
 11
51.000000
 21
82.500000
 12
52.000000
 22
77.500000
 13
52.000000
 23
82.500000
  0
POLYLINE
  8
3
 62
7
  6
CONTINUOUS
 70
1
 66
1
  0
VERTEX
 10
51.000000
 20
77.500000
 30
0.000000
  8
3
 62
7
  6
CONTINUOUS
  0
VERTEX
 10
51.000000
 20
82.500000
 30
0.000000
  8
3
 62
7
  6
CONTINUOUS
  0
VERTEX
 10
52.000000
 20
82.500000
 30
0.000000
  8
3
 62
7
  6
CONTINUOUS
  0
VERTEX
 10
52.000000
 20
77.500000
 30
0.000000
  8
3
 62
7
  6
CONTINUOUS
  0
SEQEND
  0
POLYLINE
  8
3
 62
7
  6
CONTINUOUS
 70
1
 66
1
  0
VERTEX
 10
8.000000
 20
7.900000
 30
0.000000
  8
3
 62
7
  6
CONTINUOUS
  0
VERTEX
 10
8.000000
 20
82.100000
 30
0.000000
  8
3
 62
7
  6
CONTINUOUS
  0
VERTEX
 10
42.000000
 20
82.100000
 30
0.000000
  8
3
 62
7
  6
CONTINUOUS
  0
VERTEX
 10
42.000000
 20
7.900000
 30
0.000000
  8
3
 62
7
  6
CONTINUOUS
  0
SEQEND
  0
TEXT
  8
3
 62
9
  6
L000000020000808080
 10
46.500000
 20
44.900000
 40
3.000000
  1
ABB
 50
-90.000000
 51
0.000000
 72
1
 73
0
 11
46.500000
 21
44.900000
  0
POLYLINE
  8
3
 62
7
  6
L000000000000000000
 70
1
 66
1
  0
VERTEX
 10
8.600000
 20
90.000000
  8
3
 62
7
  6
L000000000000000000
  0
VERTEX
 10
8.600000
 20
84.400000
  8
3
 62
7
  6
L000000000000000000
  0
VERTEX
 10
44.600000
 20
84.400000
  8
3
 62
7
  6
L000000000000000000
  0
VERTEX
 10
44.600000
 20
51.400000
  8
3
 62
7
  6
L000000000000000000
  0
VERTEX
 10
49.800000
 20
51.400000
  8
3
 62
7
  6
L000000000000000000
  0
VERTEX
 10
49.800000
 20
90.000000
  8
3
 62
7
  6
L000000000000000000
  0
SEQEND
  0
POLYLINE
  8
3
 62
7
  6
L000000000000000000
 70
1
 66
1
  0
VERTEX
 10
48.600000
 20
69.100000
 30
0.000000
  8
3
 62
7
  6
L000000000000000000
  0
VERTEX
 10
48.600000
 20
70.000000
 30
0.000000
  8
3
 62
7
  6
L000000000000000000
  0
VERTEX
 10
49.400000
 20
70.000000
 30
0.000000
  8
3
 62
7
  6
L000000000000000000
  0
VERTEX
 10
49.400000
 20
69.100000
 30
0.000000
  8
3
 62
7
  6
L000000000000000000
  0
SEQEND
  0
POLYLINE
  8
3
 62
7
  6
L000000000000000000
 70
1
 66
1
  0
VERTEX
 10
47.400000
 20
69.100000
 30
0.000000
  8
3
 62
7
  6
L000000000000000000
  0
VERTEX
 10
47.400000
 20
70.000000
 30
0.000000
  8
3
 62
7
  6
L000000000000000000
  0
VERTEX
 10
48.200000
 20
70.000000
 30
0.000000
  8
3
 62
7
  6
L000000000000000000
  0
VERTEX
 10
48.200000
 20
69.100000
 30
0.000000
  8
3
 62
7
  6
L000000000000000000
  0
SEQEND
  0
POLYLINE
  8
3
 62
7
  6
L000000000000000000
 70
1
 66
1
  0
VERTEX
 10
46.200000
 20
69.100000
 30
0.000000
  8
3
 62
7
  6
L000000000000000000
  0
VERTEX
 10
46.200000
 20
70.000000
 30
0.000000
  8
3
 62
7
  6
L000000000000000000
  0
VERTEX
 10
47.000000
 20
70.000000
 30
0.000000
  8
3
 62
7
  6
L000000000000000000
  0
VERTEX
 10
47.000000
 20
69.100000
 30
0.000000
  8
3
 62
7
  6
L000000000000000000
  0
SEQEND
  0
POLYLINE
  8
3
 62
7
  6
L000000000000000000
 70
1
 66
1
  0
VERTEX
 10
45.000000
 20
69.100000
 30
0.000000
  8
3
 62
7
  6
L000000000000000000
  0
VERTEX
 10
45.000000
 20
70.000000
 30
0.000000
  8
3
 62
7
  6
L000000000000000000
  0
VERTEX
 10
45.800000
 20
70.000000
 30
0.000000
  8
3
 62
7
  6
L000000000000000000
  0
VERTEX
 10
45.800000
 20
69.100000
 30
0.000000
  8
3
 62
7
  6
L000000000000000000
  0
SEQEND
  0
POLYLINE
  8
3
 62
7
  6
L000000000000000000
 70
1
 66
1
  0
VERTEX
 10
48.600000
 20
67.800000
 30
0.000000
  8
3
 62
7
  6
L000000000000000000
  0
VERTEX
 10
48.600000
 20
68.700000
 30
0.000000
  8
3
 62
7
  6
L000000000000000000
  0
VERTEX
 10
49.400000
 20
68.700000
 30
0.000000
  8
3
 62
7
  6
L000000000000000000
  0
VERTEX
 10
49.400000
 20
67.800000
 30
0.000000
  8
3
 62
7
  6
L000000000000000000
  0
SEQEND
  0
POLYLINE
  8
3
 62
7
  6
L000000000000000000
 70
1
 66
1
  0
VERTEX
 10
47.400000
 20
67.800000
 30
0.000000
  8
3
 62
7
  6
L000000000000000000
  0
VERTEX
 10
47.400000
 20
68.700000
 30
0.000000
  8
3
 62
7
  6
L000000000000000000
  0
VERTEX
 10
48.200000
 20
68.700000
 30
0.000000
  8
3
 62
7
  6
L000000000000000000
  0
VERTEX
 10
48.200000
 20
67.800000
 30
0.000000
  8
3
 62
7
  6
L000000000000000000
  0
SEQEND
  0
POLYLINE
  8
3
 62
7
  6
L000000000000000000
 70
1
 66
1
  0
VERTEX
 10
46.200000
 20
67.800000
 30
0.000000
  8
3
 62
7
  6
L000000000000000000
  0
VERTEX
 10
46.200000
 20
68.700000
 30
0.000000
  8
3
 62
7
  6
L000000000000000000
  0
VERTEX
 10
47.000000
 20
68.700000
 30
0.000000
  8
3
 62
7
  6
L000000000000000000
  0
VERTEX
 10
47.000000
 20
67.800000
 30
0.000000
  8
3
 62
7
  6
L000000000000000000
  0
SEQEND
  0
POLYLINE
  8
3
 62
7
  6
L000000000000000000
 70
1
 66
1
  0
VERTEX
 10
45.000000
 20
67.800000
 30
0.000000
  8
3
 62
7
  6
L000000000000000000
  0
VERTEX
 10
45.000000
 20
68.700000
 30
0.000000
  8
3
 62
7
  6
L000000000000000000
  0
VERTEX
 10
45.800000
 20
68.700000
 30
0.000000
  8
3
 62
7
  6
L000000000000000000
  0
VERTEX
 10
45.800000
 20
67.800000
 30
0.000000
  8
3
 62
7
  6
L000000000000000000
  0
SEQEND
  0
POLYLINE
  8
3
 62
7
  6
L000000000000000000
 70
1
 66
1
  0
VERTEX
 10
48.600000
 20
74.400000
 30
0.000000
  8
3
 62
7
  6
L000000000000000000
  0
VERTEX
 10
48.600000
 20
75.300000
 30
0.000000
  8
3
 62
7
  6
L000000000000000000
  0
VERTEX
 10
49.400000
 20
75.300000
 30
0.000000
  8
3
 62
7
  6
L000000000000000000
  0
VERTEX
 10
49.400000
 20
74.400000
 30
0.000000
  8
3
 62
7
  6
L000000000000000000
  0
SEQEND
  0
POLYLINE
  8
3
 62
7
  6
L000000000000000000
 70
1
 66
1
  0
VERTEX
 10
47.400000
 20
74.400000
 30
0.000000
  8
3
 62
7
  6
L000000000000000000
  0
VERTEX
 10
47.400000
 20
75.300000
 30
0.000000
  8
3
 62
7
  6
L000000000000000000
  0
VERTEX
 10
48.200000
 20
75.300000
 30
0.000000
  8
3
 62
7
  6
L000000000000000000
  0
VERTEX
 10
48.200000
 20
74.400000
 30
0.000000
  8
3
 62
7
  6
L000000000000000000
  0
SEQEND
  0
POLYLINE
  8
3
 62
7
  6
L000000000000000000
 70
1
 66
1
  0
VERTEX
 10
46.200000
 20
74.400000
 30
0.000000
  8
3
 62
7
  6
L000000000000000000
  0
VERTEX
 10
46.200000
 20
75.300000
 30
0.000000
  8
3
 62
7
  6
L000000000000000000
  0
VERTEX
 10
47.000000
 20
75.300000
 30
0.000000
  8
3
 62
7
  6
L000000000000000000
  0
VERTEX
 10
47.000000
 20
74.400000
 30
0.000000
  8
3
 62
7
  6
L000000000000000000
  0
SEQEND
  0
POLYLINE
  8
3
 62
7
  6
L000000000000000000
 70
1
 66
1
  0
VERTEX
 10
45.000000
 20
74.400000
 30
0.000000
  8
3
 62
7
  6
L000000000000000000
  0
VERTEX
 10
45.000000
 20
75.300000
 30
0.000000
  8
3
 62
7
  6
L000000000000000000
  0
VERTEX
 10
45.800000
 20
75.300000
 30
0.000000
  8
3
 62
7
  6
L000000000000000000
  0
VERTEX
 10
45.800000
 20
74.400000
 30
0.000000
  8
3
 62
7
  6
L000000000000000000
  0
SEQEND
  0
POLYLINE
  8
3
 62
7
  6
L000000000000000000
 70
1
 66
1
  0
VERTEX
 10
48.600000
 20
73.100000
 30
0.000000
  8
3
 62
7
  6
L000000000000000000
  0
VERTEX
 10
48.600000
 20
74.000000
 30
0.000000
  8
3
 62
7
  6
L000000000000000000
  0
VERTEX
 10
49.400000
 20
74.000000
 30
0.000000
  8
3
 62
7
  6
L000000000000000000
  0
VERTEX
 10
49.400000
 20
73.100000
 30
0.000000
  8
3
 62
7
  6
L000000000000000000
  0
SEQEND
  0
POLYLINE
  8
3
 62
7
  6
L000000000000000000
 70
1
 66
1
  0
VERTEX
 10
47.400000
 20
73.100000
 30
0.000000
  8
3
 62
7
  6
L000000000000000000
  0
VERTEX
 10
47.400000
 20
74.000000
 30
0.000000
  8
3
 62
7
  6
L000000000000000000
  0
VERTEX
 10
48.200000
 20
74.000000
 30
0.000000
  8
3
 62
7
  6
L000000000000000000
  0
VERTEX
 10
48.200000
 20
73.100000
 30
0.000000
  8
3
 62
7
  6
L000000000000000000
  0
SEQEND
  0
POLYLINE
  8
3
 62
7
  6
L000000000000000000
 70
1
 66
1
  0
VERTEX
 10
46.200000
 20
73.100000
 30
0.000000
  8
3
 62
7
  6
L000000000000000000
  0
VERTEX
 10
46.200000
 20
74.000000
 30
0.000000
  8
3
 62
7
  6
L000000000000000000
  0
VERTEX
 10
47.000000
 20
74.000000
 30
0.000000
  8
3
 62
7
  6
L000000000000000000
  0
VERTEX
 10
47.000000
 20
73.100000
 30
0.000000
  8
3
 62
7
  6
L000000000000000000
  0
SEQEND
  0
POLYLINE
  8
3
 62
7
  6
L000000000000000000
 70
1
 66
1
  0
VERTEX
 10
45.000000
 20
73.100000
 30
0.000000
  8
3
 62
7
  6
L000000000000000000
  0
VERTEX
 10
45.000000
 20
74.000000
 30
0.000000
  8
3
 62
7
  6
L000000000000000000
  0
VERTEX
 10
45.800000
 20
74.000000
 30
0.000000
  8
3
 62
7
  6
L000000000000000000
  0
VERTEX
 10
45.800000
 20
73.100000
 30
0.000000
  8
3
 62
7
  6
L000000000000000000
  0
SEQEND
  0
POLYLINE
  8
3
 62
7
  6
L000000000000000000
 70
1
 66
1
  0
VERTEX
 10
48.600000
 20
71.800000
 30
0.000000
  8
3
 62
7
  6
L000000000000000000
  0
VERTEX
 10
48.600000
 20
72.700000
 30
0.000000
  8
3
 62
7
  6
L000000000000000000
  0
VERTEX
 10
49.400000
 20
72.700000
 30
0.000000
  8
3
 62
7
  6
L000000000000000000
  0
VERTEX
 10
49.400000
 20
71.800000
 30
0.000000
  8
3
 62
7
  6
L000000000000000000
  0
SEQEND
  0
POLYLINE
  8
3
 62
7
  6
L000000000000000000
 70
1
 66
1
  0
VERTEX
 10
47.400000
 20
71.800000
 30
0.000000
  8
3
 62
7
  6
L000000000000000000
  0
VERTEX
 10
47.400000
 20
72.700000
 30
0.000000
  8
3
 62
7
  6
L000000000000000000
  0
VERTEX
 10
48.200000
 20
72.700000
 30
0.000000
  8
3
 62
7
  6
L000000000000000000
  0
VERTEX
 10
48.200000
 20
71.800000
 30
0.000000
  8
3
 62
7
  6
L000000000000000000
  0
SEQEND
  0
POLYLINE
  8
3
 62
7
  6
L000000000000000000
 70
1
 66
1
  0
VERTEX
 10
46.200000
 20
71.800000
 30
0.000000
  8
3
 62
7
  6
L000000000000000000
  0
VERTEX
 10
46.200000
 20
72.700000
 30
0.000000
  8
3
 62
7
  6
L000000000000000000
  0
VERTEX
 10
47.000000
 20
72.700000
 30
0.000000
  8
3
 62
7
  6
L000000000000000000
  0
VERTEX
 10
47.000000
 20
71.800000
 30
0.000000
  8
3
 62
7
  6
L000000000000000000
  0
SEQEND
  0
POLYLINE
  8
3
 62
7
  6
L000000000000000000
 70
1
 66
1
  0
VERTEX
 10
45.000000
 20
71.800000
 30
0.000000
  8
3
 62
7
  6
L000000000000000000
  0
VERTEX
 10
45.000000
 20
72.700000
 30
0.000000
  8
3
 62
7
  6
L000000000000000000
  0
VERTEX
 10
45.800000
 20
72.700000
 30
0.000000
  8
3
 62
7
  6
L000000000000000000
  0
VERTEX
 10
45.800000
 20
71.800000
 30
0.000000
  8
3
 62
7
  6
L000000000000000000
  0
SEQEND
  0
POLYLINE
  8
3
 62
7
  6
L000000000000000000
 70
1
 66
1
  0
VERTEX
 10
48.600000
 20
70.500000
 30
0.000000
  8
3
 62
7
  6
L000000000000000000
  0
VERTEX
 10
48.600000
 20
71.400000
 30
0.000000
  8
3
 62
7
  6
L000000000000000000
  0
VERTEX
 10
49.400000
 20
71.400000
 30
0.000000
  8
3
 62
7
  6
L000000000000000000
  0
VERTEX
 10
49.400000
 20
70.500000
 30
0.000000
  8
3
 62
7
  6
L000000000000000000
  0
SEQEND
  0
POLYLINE
  8
3
 62
7
  6
L000000000000000000
 70
1
 66
1
  0
VERTEX
 10
47.400000
 20
70.500000
 30
0.000000
  8
3
 62
7
  6
L000000000000000000
  0
VERTEX
 10
47.400000
 20
71.400000
 30
0.000000
  8
3
 62
7
  6
L000000000000000000
  0
VERTEX
 10
48.200000
 20
71.400000
 30
0.000000
  8
3
 62
7
  6
L000000000000000000
  0
VERTEX
 10
48.200000
 20
70.500000
 30
0.000000
  8
3
 62
7
  6
L000000000000000000
  0
SEQEND
  0
POLYLINE
  8
3
 62
7
  6
L000000000000000000
 70
1
 66
1
  0
VERTEX
 10
46.200000
 20
70.500000
 30
0.000000
  8
3
 62
7
  6
L000000000000000000
  0
VERTEX
 10
46.200000
 20
71.400000
 30
0.000000
  8
3
 62
7
  6
L000000000000000000
  0
VERTEX
 10
47.000000
 20
71.400000
 30
0.000000
  8
3
 62
7
  6
L000000000000000000
  0
VERTEX
 10
47.000000
 20
70.500000
 30
0.000000
  8
3
 62
7
  6
L000000000000000000
  0
SEQEND
  0
POLYLINE
  8
3
 62
7
  6
L000000000000000000
 70
1
 66
1
  0
VERTEX
 10
45.000000
 20
70.500000
 30
0.000000
  8
3
 62
7
  6
L000000000000000000
  0
VERTEX
 10
45.000000
 20
71.400000
 30
0.000000
  8
3
 62
7
  6
L000000000000000000
  0
VERTEX
 10
45.800000
 20
71.400000
 30
0.000000
  8
3
 62
7
  6
L000000000000000000
  0
VERTEX
 10
45.800000
 20
70.500000
 30
0.000000
  8
3
 62
7
  6
L000000000000000000
  0
SEQEND
  0
POLYLINE
  8
3
 62
7
  6
L000000000000000000
 70
1
 66
1
  0
VERTEX
 10
48.600000
 20
79.600000
 30
0.000000
  8
3
 62
7
  6
L000000000000000000
  0
VERTEX
 10
48.600000
 20
80.500000
 30
0.000000
  8
3
 62
7
  6
L000000000000000000
  0
VERTEX
 10
49.400000
 20
80.500000
 30
0.000000
  8
3
 62
7
  6
L000000000000000000
  0
VERTEX
 10
49.400000
 20
79.600000
 30
0.000000
  8
3
 62
7
  6
L000000000000000000
  0
SEQEND
  0
POLYLINE
  8
3
 62
7
  6
L000000000000000000
 70
1
 66
1
  0
VERTEX
 10
47.400000
 20
79.600000
 30
0.000000
  8
3
 62
7
  6
L000000000000000000
  0
VERTEX
 10
47.400000
 20
80.500000
 30
0.000000
  8
3
 62
7
  6
L000000000000000000
  0
VERTEX
 10
48.200000
 20
80.500000
 30
0.000000
  8
3
 62
7
  6
L000000000000000000
  0
VERTEX
 10
48.200000
 20
79.600000
 30
0.000000
  8
3
 62
7
  6
L000000000000000000
  0
SEQEND
  0
POLYLINE
  8
3
 62
7
  6
L000000000000000000
 70
1
 66
1
  0
VERTEX
 10
46.200000
 20
79.600000
 30
0.000000
  8
3
 62
7
  6
L000000000000000000
  0
VERTEX
 10
46.200000
 20
80.500000
 30
0.000000
  8
3
 62
7
  6
L000000000000000000
  0
VERTEX
 10
47.000000
 20
80.500000
 30
0.000000
  8
3
 62
7
  6
L000000000000000000
  0
VERTEX
 10
47.000000
 20
79.600000
 30
0.000000
  8
3
 62
7
  6
L000000000000000000
  0
SEQEND
  0
POLYLINE
  8
3
 62
7
  6
L000000000000000000
 70
1
 66
1
  0
VERTEX
 10
45.000000
 20
79.600000
 30
0.000000
  8
3
 62
7
  6
L000000000000000000
  0
VERTEX
 10
45.000000
 20
80.500000
 30
0.000000
  8
3
 62
7
  6
L000000000000000000
  0
VERTEX
 10
45.800000
 20
80.500000
 30
0.000000
  8
3
 62
7
  6
L000000000000000000
  0
VERTEX
 10
45.800000
 20
79.600000
 30
0.000000
  8
3
 62
7
  6
L000000000000000000
  0
SEQEND
  0
POLYLINE
  8
3
 62
7
  6
L000000000000000000
 70
1
 66
1
  0
VERTEX
 10
48.600000
 20
78.300000
 30
0.000000
  8
3
 62
7
  6
L000000000000000000
  0
VERTEX
 10
48.600000
 20
79.200000
 30
0.000000
  8
3
 62
7
  6
L000000000000000000
  0
VERTEX
 10
49.400000
 20
79.200000
 30
0.000000
  8
3
 62
7
  6
L000000000000000000
  0
VERTEX
 10
49.400000
 20
78.300000
 30
0.000000
  8
3
 62
7
  6
L000000000000000000
  0
SEQEND
  0
POLYLINE
  8
3
 62
7
  6
L000000000000000000
 70
1
 66
1
  0
VERTEX
 10
47.400000
 20
78.300000
 30
0.000000
  8
3
 62
7
  6
L000000000000000000
  0
VERTEX
 10
47.400000
 20
79.200000
 30
0.000000
  8
3
 62
7
  6
L000000000000000000
  0
VERTEX
 10
48.200000
 20
79.200000
 30
0.000000
  8
3
 62
7
  6
L000000000000000000
  0
VERTEX
 10
48.200000
 20
78.300000
 30
0.000000
  8
3
 62
7
  6
L000000000000000000
  0
SEQEND
  0
POLYLINE
  8
3
 62
7
  6
L000000000000000000
 70
1
 66
1
  0
VERTEX
 10
46.200000
 20
78.300000
 30
0.000000
  8
3
 62
7
  6
L000000000000000000
  0
VERTEX
 10
46.200000
 20
79.200000
 30
0.000000
  8
3
 62
7
  6
L000000000000000000
  0
VERTEX
 10
47.000000
 20
79.200000
 30
0.000000
  8
3
 62
7
  6
L000000000000000000
  0
VERTEX
 10
47.000000
 20
78.300000
 30
0.000000
  8
3
 62
7
  6
L000000000000000000
  0
SEQEND
  0
POLYLINE
  8
3
 62
7
  6
L000000000000000000
 70
1
 66
1
  0
VERTEX
 10
45.000000
 20
78.300000
 30
0.000000
  8
3
 62
7
  6
L000000000000000000
  0
VERTEX
 10
45.000000
 20
79.200000
 30
0.000000
  8
3
 62
7
  6
L000000000000000000
  0
VERTEX
 10
45.800000
 20
79.200000
 30
0.000000
  8
3
 62
7
  6
L000000000000000000
  0
VERTEX
 10
45.800000
 20
78.300000
 30
0.000000
  8
3
 62
7
  6
L000000000000000000
  0
SEQEND
  0
POLYLINE
  8
3
 62
7
  6
L000000000000000000
 70
1
 66
1
  0
VERTEX
 10
48.600000
 20
77.000000
 30
0.000000
  8
3
 62
7
  6
L000000000000000000
  0
VERTEX
 10
48.600000
 20
77.900000
 30
0.000000
  8
3
 62
7
  6
L000000000000000000
  0
VERTEX
 10
49.400000
 20
77.900000
 30
0.000000
  8
3
 62
7
  6
L000000000000000000
  0
VERTEX
 10
49.400000
 20
77.000000
 30
0.000000
  8
3
 62
7
  6
L000000000000000000
  0
SEQEND
  0
POLYLINE
  8
3
 62
7
  6
L000000000000000000
 70
1
 66
1
  0
VERTEX
 10
47.400000
 20
77.000000
 30
0.000000
  8
3
 62
7
  6
L000000000000000000
  0
VERTEX
 10
47.400000
 20
77.900000
 30
0.000000
  8
3
 62
7
  6
L000000000000000000
  0
VERTEX
 10
48.200000
 20
77.900000
 30
0.000000
  8
3
 62
7
  6
L000000000000000000
  0
VERTEX
 10
48.200000
 20
77.000000
 30
0.000000
  8
3
 62
7
  6
L000000000000000000
  0
SEQEND
  0
POLYLINE
  8
3
 62
7
  6
L000000000000000000
 70
1
 66
1
  0
VERTEX
 10
46.200000
 20
77.000000
 30
0.000000
  8
3
 62
7
  6
L000000000000000000
  0
VERTEX
 10
46.200000
 20
77.900000
 30
0.000000
  8
3
 62
7
  6
L000000000000000000
  0
VERTEX
 10
47.000000
 20
77.900000
 30
0.000000
  8
3
 62
7
  6
L000000000000000000
  0
VERTEX
 10
47.000000
 20
77.000000
 30
0.000000
  8
3
 62
7
  6
L000000000000000000
  0
SEQEND
  0
POLYLINE
  8
3
 62
7
  6
L000000000000000000
 70
1
 66
1
  0
VERTEX
 10
45.000000
 20
77.000000
 30
0.000000
  8
3
 62
7
  6
L000000000000000000
  0
VERTEX
 10
45.000000
 20
77.900000
 30
0.000000
  8
3
 62
7
  6
L000000000000000000
  0
VERTEX
 10
45.800000
 20
77.900000
 30
0.000000
  8
3
 62
7
  6
L000000000000000000
  0
VERTEX
 10
45.800000
 20
77.000000
 30
0.000000
  8
3
 62
7
  6
L000000000000000000
  0
SEQEND
  0
POLYLINE
  8
3
 62
7
  6
L000000000000000000
 70
1
 66
1
  0
VERTEX
 10
48.600000
 20
75.700000
 30
0.000000
  8
3
 62
7
  6
L000000000000000000
  0
VERTEX
 10
48.600000
 20
76.600000
 30
0.000000
  8
3
 62
7
  6
L000000000000000000
  0
VERTEX
 10
49.400000
 20
76.600000
 30
0.000000
  8
3
 62
7
  6
L000000000000000000
  0
VERTEX
 10
49.400000
 20
75.700000
 30
0.000000
  8
3
 62
7
  6
L000000000000000000
  0
SEQEND
  0
POLYLINE
  8
3
 62
7
  6
L000000000000000000
 70
1
 66
1
  0
VERTEX
 10
47.400000
 20
75.700000
 30
0.000000
  8
3
 62
7
  6
L000000000000000000
  0
VERTEX
 10
47.400000
 20
76.600000
 30
0.000000
  8
3
 62
7
  6
L000000000000000000
  0
VERTEX
 10
48.200000
 20
76.600000
 30
0.000000
  8
3
 62
7
  6
L000000000000000000
  0
VERTEX
 10
48.200000
 20
75.700000
 30
0.000000
  8
3
 62
7
  6
L000000000000000000
  0
SEQEND
  0
POLYLINE
  8
3
 62
7
  6
L000000000000000000
 70
1
 66
1
  0
VERTEX
 10
46.200000
 20
75.700000
 30
0.000000
  8
3
 62
7
  6
L000000000000000000
  0
VERTEX
 10
46.200000
 20
76.600000
 30
0.000000
  8
3
 62
7
  6
L000000000000000000
  0
VERTEX
 10
47.000000
 20
76.600000
 30
0.000000
  8
3
 62
7
  6
L000000000000000000
  0
VERTEX
 10
47.000000
 20
75.700000
 30
0.000000
  8
3
 62
7
  6
L000000000000000000
  0
SEQEND
  0
POLYLINE
  8
3
 62
7
  6
L000000000000000000
 70
1
 66
1
  0
VERTEX
 10
45.000000
 20
75.700000
 30
0.000000
  8
3
 62
7
  6
L000000000000000000
  0
VERTEX
 10
45.000000
 20
76.600000
 30
0.000000
  8
3
 62
7
  6
L000000000000000000
  0
VERTEX
 10
45.800000
 20
76.600000
 30
0.000000
  8
3
 62
7
  6
L000000000000000000
  0
VERTEX
 10
45.800000
 20
75.700000
 30
0.000000
  8
3
 62
7
  6
L000000000000000000
  0
SEQEND
  0
POLYLINE
  8
3
 62
7
  6
L000000000000000000
 70
1
 66
1
  0
VERTEX
 10
48.600000
 20
83.500000
 30
0.000000
  8
3
 62
7
  6
L000000000000000000
  0
VERTEX
 10
48.600000
 20
84.400000
 30
0.000000
  8
3
 62
7
  6
L000000000000000000
  0
VERTEX
 10
49.400000
 20
84.400000
 30
0.000000
  8
3
 62
7
  6
L000000000000000000
  0
VERTEX
 10
49.400000
 20
83.500000
 30
0.000000
  8
3
 62
7
  6
L000000000000000000
  0
SEQEND
  0
POLYLINE
  8
3
 62
7
  6
L000000000000000000
 70
1
 66
1
  0
VERTEX
 10
47.400000
 20
83.500000
 30
0.000000
  8
3
 62
7
  6
L000000000000000000
  0
VERTEX
 10
47.400000
 20
84.400000
 30
0.000000
  8
3
 62
7
  6
L000000000000000000
  0
VERTEX
 10
48.200000
 20
84.400000
 30
0.000000
  8
3
 62
7
  6
L000000000000000000
  0
VERTEX
 10
48.200000
 20
83.500000
 30
0.000000
  8
3
 62
7
  6
L000000000000000000
  0
SEQEND
  0
POLYLINE
  8
3
 62
7
  6
L000000000000000000
 70
1
 66
1
  0
VERTEX
 10
46.200000
 20
83.500000
 30
0.000000
  8
3
 62
7
  6
L000000000000000000
  0
VERTEX
 10
46.200000
 20
84.400000
 30
0.000000
  8
3
 62
7
  6
L000000000000000000
  0
VERTEX
 10
47.000000
 20
84.400000
 30
0.000000
  8
3
 62
7
  6
L000000000000000000
  0
VERTEX
 10
47.000000
 20
83.500000
 30
0.000000
  8
3
 62
7
  6
L000000000000000000
  0
SEQEND
  0
POLYLINE
  8
3
 62
7
  6
L000000000000000000
 70
1
 66
1
  0
VERTEX
 10
45.000000
 20
83.500000
 30
0.000000
  8
3
 62
7
  6
L000000000000000000
  0
VERTEX
 10
45.000000
 20
84.400000
 30
0.000000
  8
3
 62
7
  6
L000000000000000000
  0
VERTEX
 10
45.800000
 20
84.400000
 30
0.000000
  8
3
 62
7
  6
L000000000000000000
  0
VERTEX
 10
45.800000
 20
83.500000
 30
0.000000
  8
3
 62
7
  6
L000000000000000000
  0
SEQEND
  0
POLYLINE
  8
3
 62
7
  6
L000000000000000000
 70
1
 66
1
  0
VERTEX
 10
48.600000
 20
82.200000
 30
0.000000
  8
3
 62
7
  6
L000000000000000000
  0
VERTEX
 10
48.600000
 20
83.100000
 30
0.000000
  8
3
 62
7
  6
L000000000000000000
  0
VERTEX
 10
49.400000
 20
83.100000
 30
0.000000
  8
3
 62
7
  6
L000000000000000000
  0
VERTEX
 10
49.400000
 20
82.200000
 30
0.000000
  8
3
 62
7
  6
L000000000000000000
  0
SEQEND
  0
POLYLINE
  8
3
 62
7
  6
L000000000000000000
 70
1
 66
1
  0
VERTEX
 10
47.400000
 20
82.200000
 30
0.000000
  8
3
 62
7
  6
L000000000000000000
  0
VERTEX
 10
47.400000
 20
83.100000
 30
0.000000
  8
3
 62
7
  6
L000000000000000000
  0
VERTEX
 10
48.200000
 20
83.100000
 30
0.000000
  8
3
 62
7
  6
L000000000000000000
  0
VERTEX
 10
48.200000
 20
82.200000
 30
0.000000
  8
3
 62
7
  6
L000000000000000000
  0
SEQEND
  0
POLYLINE
  8
3
 62
7
  6
L000000000000000000
 70
1
 66
1
  0
VERTEX
 10
46.200000
 20
82.200000
 30
0.000000
  8
3
 62
7
  6
L000000000000000000
  0
VERTEX
 10
46.200000
 20
83.100000
 30
0.000000
  8
3
 62
7
  6
L000000000000000000
  0
VERTEX
 10
47.000000
 20
83.100000
 30
0.000000
  8
3
 62
7
  6
L000000000000000000
  0
VERTEX
 10
47.000000
 20
82.200000
 30
0.000000
  8
3
 62
7
  6
L000000000000000000
  0
SEQEND
  0
POLYLINE
  8
3
 62
7
  6
L000000000000000000
 70
1
 66
1
  0
VERTEX
 10
45.000000
 20
82.200000
 30
0.000000
  8
3
 62
7
  6
L000000000000000000
  0
VERTEX
 10
45.000000
 20
83.100000
 30
0.000000
  8
3
 62
7
  6
L000000000000000000
  0
VERTEX
 10
45.800000
 20
83.100000
 30
0.000000
  8
3
 62
7
  6
L000000000000000000
  0
VERTEX
 10
45.800000
 20
82.200000
 30
0.000000
  8
3
 62
7
  6
L000000000000000000
  0
SEQEND
  0
POLYLINE
  8
3
 62
7
  6
L000000000000000000
 70
1
 66
1
  0
VERTEX
 10
48.600000
 20
80.900000
 30
0.000000
  8
3
 62
7
  6
L000000000000000000
  0
VERTEX
 10
48.600000
 20
81.800000
 30
0.000000
  8
3
 62
7
  6
L000000000000000000
  0
VERTEX
 10
49.400000
 20
81.800000
 30
0.000000
  8
3
 62
7
  6
L000000000000000000
  0
VERTEX
 10
49.400000
 20
80.900000
 30
0.000000
  8
3
 62
7
  6
L000000000000000000
  0
SEQEND
  0
POLYLINE
  8
3
 62
7
  6
L000000000000000000
 70
1
 66
1
  0
VERTEX
 10
47.400000
 20
80.900000
 30
0.000000
  8
3
 62
7
  6
L000000000000000000
  0
VERTEX
 10
47.400000
 20
81.800000
 30
0.000000
  8
3
 62
7
  6
L000000000000000000
  0
VERTEX
 10
48.200000
 20
81.800000
 30
0.000000
  8
3
 62
7
  6
L000000000000000000
  0
VERTEX
 10
48.200000
 20
80.900000
 30
0.000000
  8
3
 62
7
  6
L000000000000000000
  0
SEQEND
  0
POLYLINE
  8
3
 62
7
  6
L000000000000000000
 70
1
 66
1
  0
VERTEX
 10
46.200000
 20
80.900000
 30
0.000000
  8
3
 62
7
  6
L000000000000000000
  0
VERTEX
 10
46.200000
 20
81.800000
 30
0.000000
  8
3
 62
7
  6
L000000000000000000
  0
VERTEX
 10
47.000000
 20
81.800000
 30
0.000000
  8
3
 62
7
  6
L000000000000000000
  0
VERTEX
 10
47.000000
 20
80.900000
 30
0.000000
  8
3
 62
7
  6
L000000000000000000
  0
SEQEND
  0
POLYLINE
  8
3
 62
7
  6
L000000000000000000
 70
1
 66
1
  0
VERTEX
 10
45.000000
 20
80.900000
 30
0.000000
  8
3
 62
7
  6
L000000000000000000
  0
VERTEX
 10
45.000000
 20
81.800000
 30
0.000000
  8
3
 62
7
  6
L000000000000000000
  0
VERTEX
 10
45.800000
 20
81.800000
 30
0.000000
  8
3
 62
7
  6
L000000000000000000
  0
VERTEX
 10
45.800000
 20
80.900000
 30
0.000000
  8
3
 62
7
  6
L000000000000000000
  0
SEQEND
  0
POLYLINE
  8
3
 62
7
  6
L000000000000000000
 70
1
 66
1
  0
VERTEX
 10
48.600000
 20
88.700000
 30
0.000000
  8
3
 62
7
  6
L000000000000000000
  0
VERTEX
 10
48.600000
 20
89.600000
 30
0.000000
  8
3
 62
7
  6
L000000000000000000
  0
VERTEX
 10
49.400000
 20
89.600000
 30
0.000000
  8
3
 62
7
  6
L000000000000000000
  0
VERTEX
 10
49.400000
 20
88.700000
 30
0.000000
  8
3
 62
7
  6
L000000000000000000
  0
SEQEND
  0
POLYLINE
  8
3
 62
7
  6
L000000000000000000
 70
1
 66
1
  0
VERTEX
 10
47.400000
 20
88.700000
 30
0.000000
  8
3
 62
7
  6
L000000000000000000
  0
VERTEX
 10
47.400000
 20
89.600000
 30
0.000000
  8
3
 62
7
  6
L000000000000000000
  0
VERTEX
 10
48.200000
 20
89.600000
 30
0.000000
  8
3
 62
7
  6
L000000000000000000
  0
VERTEX
 10
48.200000
 20
88.700000
 30
0.000000
  8
3
 62
7
  6
L000000000000000000
  0
SEQEND
  0
POLYLINE
  8
3
 62
7
  6
L000000000000000000
 70
1
 66
1
  0
VERTEX
 10
46.200000
 20
88.700000
 30
0.000000
  8
3
 62
7
  6
L000000000000000000
  0
VERTEX
 10
46.200000
 20
89.600000
 30
0.000000
  8
3
 62
7
  6
L000000000000000000
  0
VERTEX
 10
47.000000
 20
89.600000
 30
0.000000
  8
3
 62
7
  6
L000000000000000000
  0
VERTEX
 10
47.000000
 20
88.700000
 30
0.000000
  8
3
 62
7
  6
L000000000000000000
  0
SEQEND
  0
POLYLINE
  8
3
 62
7
  6
L000000000000000000
 70
1
 66
1
  0
VERTEX
 10
48.600000
 20
87.400000
 30
0.000000
  8
3
 62
7
  6
L000000000000000000
  0
VERTEX
 10
48.600000
 20
88.300000
 30
0.000000
  8
3
 62
7
  6
L000000000000000000
  0
VERTEX
 10
49.400000
 20
88.300000
 30
0.000000
  8
3
 62
7
  6
L000000000000000000
  0
VERTEX
 10
49.400000
 20
87.400000
 30
0.000000
  8
3
 62
7
  6
L000000000000000000
  0
SEQEND
  0
POLYLINE
  8
3
 62
7
  6
L000000000000000000
 70
1
 66
1
  0
VERTEX
 10
47.400000
 20
87.400000
 30
0.000000
  8
3
 62
7
  6
L000000000000000000
  0
VERTEX
 10
47.400000
 20
88.300000
 30
0.000000
  8
3
 62
7
  6
L000000000000000000
  0
VERTEX
 10
48.200000
 20
88.300000
 30
0.000000
  8
3
 62
7
  6
L000000000000000000
  0
VERTEX
 10
48.200000
 20
87.400000
 30
0.000000
  8
3
 62
7
  6
L000000000000000000
  0
SEQEND
  0
POLYLINE
  8
3
 62
7
  6
L000000000000000000
 70
1
 66
1
  0
VERTEX
 10
46.200000
 20
87.400000
 30
0.000000
  8
3
 62
7
  6
L000000000000000000
  0
VERTEX
 10
46.200000
 20
88.300000
 30
0.000000
  8
3
 62
7
  6
L000000000000000000
  0
VERTEX
 10
47.000000
 20
88.300000
 30
0.000000
  8
3
 62
7
  6
L000000000000000000
  0
VERTEX
 10
47.000000
 20
87.400000
 30
0.000000
  8
3
 62
7
  6
L000000000000000000
  0
SEQEND
  0
POLYLINE
  8
3
 62
7
  6
L000000000000000000
 70
1
 66
1
  0
VERTEX
 10
48.600000
 20
86.100000
 30
0.000000
  8
3
 62
7
  6
L000000000000000000
  0
VERTEX
 10
48.600000
 20
87.000000
 30
0.000000
  8
3
 62
7
  6
L000000000000000000
  0
VERTEX
 10
49.400000
 20
87.000000
 30
0.000000
  8
3
 62
7
  6
L000000000000000000
  0
VERTEX
 10
49.400000
 20
86.100000
 30
0.000000
  8
3
 62
7
  6
L000000000000000000
  0
SEQEND
  0
POLYLINE
  8
3
 62
7
  6
L000000000000000000
 70
1
 66
1
  0
VERTEX
 10
47.400000
 20
86.100000
 30
0.000000
  8
3
 62
7
  6
L000000000000000000
  0
VERTEX
 10
47.400000
 20
87.000000
 30
0.000000
  8
3
 62
7
  6
L000000000000000000
  0
VERTEX
 10
48.200000
 20
87.000000
 30
0.000000
  8
3
 62
7
  6
L000000000000000000
  0
VERTEX
 10
48.200000
 20
86.100000
 30
0.000000
  8
3
 62
7
  6
L000000000000000000
  0
SEQEND
  0
POLYLINE
  8
3
 62
7
  6
L000000000000000000
 70
1
 66
1
  0
VERTEX
 10
46.200000
 20
86.100000
 30
0.000000
  8
3
 62
7
  6
L000000000000000000
  0
VERTEX
 10
46.200000
 20
87.000000
 30
0.000000
  8
3
 62
7
  6
L000000000000000000
  0
VERTEX
 10
47.000000
 20
87.000000
 30
0.000000
  8
3
 62
7
  6
L000000000000000000
  0
VERTEX
 10
47.000000
 20
86.100000
 30
0.000000
  8
3
 62
7
  6
L000000000000000000
  0
SEQEND
  0
POLYLINE
  8
3
 62
7
  6
L000000000000000000
 70
1
 66
1
  0
VERTEX
 10
48.600000
 20
84.800000
 30
0.000000
  8
3
 62
7
  6
L000000000000000000
  0
VERTEX
 10
48.600000
 20
85.700000
 30
0.000000
  8
3
 62
7
  6
L000000000000000000
  0
VERTEX
 10
49.400000
 20
85.700000
 30
0.000000
  8
3
 62
7
  6
L000000000000000000
  0
VERTEX
 10
49.400000
 20
84.800000
 30
0.000000
  8
3
 62
7
  6
L000000000000000000
  0
SEQEND
  0
POLYLINE
  8
3
 62
7
  6
L000000000000000000
 70
1
 66
1
  0
VERTEX
 10
47.400000
 20
84.800000
 30
0.000000
  8
3
 62
7
  6
L000000000000000000
  0
VERTEX
 10
47.400000
 20
85.700000
 30
0.000000
  8
3
 62
7
  6
L000000000000000000
  0
VERTEX
 10
48.200000
 20
85.700000
 30
0.000000
  8
3
 62
7
  6
L000000000000000000
  0
VERTEX
 10
48.200000
 20
84.800000
 30
0.000000
  8
3
 62
7
  6
L000000000000000000
  0
SEQEND
  0
POLYLINE
  8
3
 62
7
  6
L000000000000000000
 70
1
 66
1
  0
VERTEX
 10
46.200000
 20
84.800000
 30
0.000000
  8
3
 62
7
  6
L000000000000000000
  0
VERTEX
 10
46.200000
 20
85.700000
 30
0.000000
  8
3
 62
7
  6
L000000000000000000
  0
VERTEX
 10
47.000000
 20
85.700000
 30
0.000000
  8
3
 62
7
  6
L000000000000000000
  0
VERTEX
 10
47.000000
 20
84.800000
 30
0.000000
  8
3
 62
7
  6
L000000000000000000
  0
SEQEND
  0
POLYLINE
  8
3
 62
7
  6
L000000000000000000
 70
1
 66
1
  0
VERTEX
 10
45.000000
 20
88.700000
 30
0.000000
  8
3
 62
7
  6
L000000000000000000
  0
VERTEX
 10
45.000000
 20
89.600000
 30
0.000000
  8
3
 62
7
  6
L000000000000000000
  0
VERTEX
 10
45.800000
 20
89.600000
 30
0.000000
  8
3
 62
7
  6
L000000000000000000
  0
VERTEX
 10
45.800000
 20
88.700000
 30
0.000000
  8
3
 62
7
  6
L000000000000000000
  0
SEQEND
  0
POLYLINE
  8
3
 62
7
  6
L000000000000000000
 70
1
 66
1
  0
VERTEX
 10
43.800000
 20
88.700000
 30
0.000000
  8
3
 62
7
  6
L000000000000000000
  0
VERTEX
 10
43.800000
 20
89.600000
 30
0.000000
  8
3
 62
7
  6
L000000000000000000
  0
VERTEX
 10
44.600000
 20
89.600000
 30
0.000000
  8
3
 62
7
  6
L000000000000000000
  0
VERTEX
 10
44.600000
 20
88.700000
 30
0.000000
  8
3
 62
7
  6
L000000000000000000
  0
SEQEND
  0
POLYLINE
  8
3
 62
7
  6
L000000000000000000
 70
1
 66
1
  0
VERTEX
 10
42.600000
 20
88.700000
 30
0.000000
  8
3
 62
7
  6
L000000000000000000
  0
VERTEX
 10
42.600000
 20
89.600000
 30
0.000000
  8
3
 62
7
  6
L000000000000000000
  0
VERTEX
 10
43.400000
 20
89.600000
 30
0.000000
  8
3
 62
7
  6
L000000000000000000
  0
VERTEX
 10
43.400000
 20
88.700000
 30
0.000000
  8
3
 62
7
  6
L000000000000000000
  0
SEQEND
  0
POLYLINE
  8
3
 62
7
  6
L000000000000000000
 70
1
 66
1
  0
VERTEX
 10
41.400000
 20
88.700000
 30
0.000000
  8
3
 62
7
  6
L000000000000000000
  0
VERTEX
 10
41.400000
 20
89.600000
 30
0.000000
  8
3
 62
7
  6
L000000000000000000
  0
VERTEX
 10
42.200000
 20
89.600000
 30
0.000000
  8
3
 62
7
  6
L000000000000000000
  0
VERTEX
 10
42.200000
 20
88.700000
 30
0.000000
  8
3
 62
7
  6
L000000000000000000
  0
SEQEND
  0
POLYLINE
  8
3
 62
7
  6
L000000000000000000
 70
1
 66
1
  0
VERTEX
 10
45.000000
 20
87.400000
 30
0.000000
  8
3
 62
7
  6
L000000000000000000
  0
VERTEX
 10
45.000000
 20
88.300000
 30
0.000000
  8
3
 62
7
  6
L000000000000000000
  0
VERTEX
 10
45.800000
 20
88.300000
 30
0.000000
  8
3
 62
7
  6
L000000000000000000
  0
VERTEX
 10
45.800000
 20
87.400000
 30
0.000000
  8
3
 62
7
  6
L000000000000000000
  0
SEQEND
  0
POLYLINE
  8
3
 62
7
  6
L000000000000000000
 70
1
 66
1
  0
VERTEX
 10
43.800000
 20
87.400000
 30
0.000000
  8
3
 62
7
  6
L000000000000000000
  0
VERTEX
 10
43.800000
 20
88.300000
 30
0.000000
  8
3
 62
7
  6
L000000000000000000
  0
VERTEX
 10
44.600000
 20
88.300000
 30
0.000000
  8
3
 62
7
  6
L000000000000000000
  0
VERTEX
 10
44.600000
 20
87.400000
 30
0.000000
  8
3
 62
7
  6
L000000000000000000
  0
SEQEND
  0
POLYLINE
  8
3
 62
7
  6
L000000000000000000
 70
1
 66
1
  0
VERTEX
 10
42.600000
 20
87.400000
 30
0.000000
  8
3
 62
7
  6
L000000000000000000
  0
VERTEX
 10
42.600000
 20
88.300000
 30
0.000000
  8
3
 62
7
  6
L000000000000000000
  0
VERTEX
 10
43.400000
 20
88.300000
 30
0.000000
  8
3
 62
7
  6
L000000000000000000
  0
VERTEX
 10
43.400000
 20
87.400000
 30
0.000000
  8
3
 62
7
  6
L000000000000000000
  0
SEQEND
  0
POLYLINE
  8
3
 62
7
  6
L000000000000000000
 70
1
 66
1
  0
VERTEX
 10
41.400000
 20
87.400000
 30
0.000000
  8
3
 62
7
  6
L000000000000000000
  0
VERTEX
 10
41.400000
 20
88.300000
 30
0.000000
  8
3
 62
7
  6
L000000000000000000
  0
VERTEX
 10
42.200000
 20
88.300000
 30
0.000000
  8
3
 62
7
  6
L000000000000000000
  0
VERTEX
 10
42.200000
 20
87.400000
 30
0.000000
  8
3
 62
7
  6
L000000000000000000
  0
SEQEND
  0
POLYLINE
  8
3
 62
7
  6
L000000000000000000
 70
1
 66
1
  0
VERTEX
 10
45.000000
 20
86.100000
 30
0.000000
  8
3
 62
7
  6
L000000000000000000
  0
VERTEX
 10
45.000000
 20
87.000000
 30
0.000000
  8
3
 62
7
  6
L000000000000000000
  0
VERTEX
 10
45.800000
 20
87.000000
 30
0.000000
  8
3
 62
7
  6
L000000000000000000
  0
VERTEX
 10
45.800000
 20
86.100000
 30
0.000000
  8
3
 62
7
  6
L000000000000000000
  0
SEQEND
  0
POLYLINE
  8
3
 62
7
  6
L000000000000000000
 70
1
 66
1
  0
VERTEX
 10
43.800000
 20
86.100000
 30
0.000000
  8
3
 62
7
  6
L000000000000000000
  0
VERTEX
 10
43.800000
 20
87.000000
 30
0.000000
  8
3
 62
7
  6
L000000000000000000
  0
VERTEX
 10
44.600000
 20
87.000000
 30
0.000000
  8
3
 62
7
  6
L000000000000000000
  0
VERTEX
 10
44.600000
 20
86.100000
 30
0.000000
  8
3
 62
7
  6
L000000000000000000
  0
SEQEND
  0
POLYLINE
  8
3
 62
7
  6
L000000000000000000
 70
1
 66
1
  0
VERTEX
 10
42.600000
 20
86.100000
 30
0.000000
  8
3
 62
7
  6
L000000000000000000
  0
VERTEX
 10
42.600000
 20
87.000000
 30
0.000000
  8
3
 62
7
  6
L000000000000000000
  0
VERTEX
 10
43.400000
 20
87.000000
 30
0.000000
  8
3
 62
7
  6
L000000000000000000
  0
VERTEX
 10
43.400000
 20
86.100000
 30
0.000000
  8
3
 62
7
  6
L000000000000000000
  0
SEQEND
  0
POLYLINE
  8
3
 62
7
  6
L000000000000000000
 70
1
 66
1
  0
VERTEX
 10
41.400000
 20
86.100000
 30
0.000000
  8
3
 62
7
  6
L000000000000000000
  0
VERTEX
 10
41.400000
 20
87.000000
 30
0.000000
  8
3
 62
7
  6
L000000000000000000
  0
VERTEX
 10
42.200000
 20
87.000000
 30
0.000000
  8
3
 62
7
  6
L000000000000000000
  0
VERTEX
 10
42.200000
 20
86.100000
 30
0.000000
  8
3
 62
7
  6
L000000000000000000
  0
SEQEND
  0
POLYLINE
  8
3
 62
7
  6
L000000000000000000
 70
1
 66
1
  0
VERTEX
 10
45.000000
 20
84.800000
 30
0.000000
  8
3
 62
7
  6
L000000000000000000
  0
VERTEX
 10
45.000000
 20
85.700000
 30
0.000000
  8
3
 62
7
  6
L000000000000000000
  0
VERTEX
 10
45.800000
 20
85.700000
 30
0.000000
  8
3
 62
7
  6
L000000000000000000
  0
VERTEX
 10
45.800000
 20
84.800000
 30
0.000000
  8
3
 62
7
  6
L000000000000000000
  0
SEQEND
  0
POLYLINE
  8
3
 62
7
  6
L000000000000000000
 70
1
 66
1
  0
VERTEX
 10
43.800000
 20
84.800000
 30
0.000000
  8
3
 62
7
  6
L000000000000000000
  0
VERTEX
 10
43.800000
 20
85.700000
 30
0.000000
  8
3
 62
7
  6
L000000000000000000
  0
VERTEX
 10
44.600000
 20
85.700000
 30
0.000000
  8
3
 62
7
  6
L000000000000000000
  0
VERTEX
 10
44.600000
 20
84.800000
 30
0.000000
  8
3
 62
7
  6
L000000000000000000
  0
SEQEND
  0
POLYLINE
  8
3
 62
7
  6
L000000000000000000
 70
1
 66
1
  0
VERTEX
 10
42.600000
 20
84.800000
 30
0.000000
  8
3
 62
7
  6
L000000000000000000
  0
VERTEX
 10
42.600000
 20
85.700000
 30
0.000000
  8
3
 62
7
  6
L000000000000000000
  0
VERTEX
 10
43.400000
 20
85.700000
 30
0.000000
  8
3
 62
7
  6
L000000000000000000
  0
VERTEX
 10
43.400000
 20
84.800000
 30
0.000000
  8
3
 62
7
  6
L000000000000000000
  0
SEQEND
  0
POLYLINE
  8
3
 62
7
  6
L000000000000000000
 70
1
 66
1
  0
VERTEX
 10
41.400000
 20
84.800000
 30
0.000000
  8
3
 62
7
  6
L000000000000000000
  0
VERTEX
 10
41.400000
 20
85.700000
 30
0.000000
  8
3
 62
7
  6
L000000000000000000
  0
VERTEX
 10
42.200000
 20
85.700000
 30
0.000000
  8
3
 62
7
  6
L000000000000000000
  0
VERTEX
 10
42.200000
 20
84.800000
 30
0.000000
  8
3
 62
7
  6
L000000000000000000
  0
SEQEND
  0
POLYLINE
  8
3
 62
7
  6
L000000000000000000
 70
1
 66
1
  0
VERTEX
 10
40.200000
 20
88.700000
 30
0.000000
  8
3
 62
7
  6
L000000000000000000
  0
VERTEX
 10
40.200000
 20
89.600000
 30
0.000000
  8
3
 62
7
  6
L000000000000000000
  0
VERTEX
 10
41.000000
 20
89.600000
 30
0.000000
  8
3
 62
7
  6
L000000000000000000
  0
VERTEX
 10
41.000000
 20
88.700000
 30
0.000000
  8
3
 62
7
  6
L000000000000000000
  0
SEQEND
  0
POLYLINE
  8
3
 62
7
  6
L000000000000000000
 70
1
 66
1
  0
VERTEX
 10
39.000000
 20
88.700000
 30
0.000000
  8
3
 62
7
  6
L000000000000000000
  0
VERTEX
 10
39.000000
 20
89.600000
 30
0.000000
  8
3
 62
7
  6
L000000000000000000
  0
VERTEX
 10
39.800000
 20
89.600000
 30
0.000000
  8
3
 62
7
  6
L000000000000000000
  0
VERTEX
 10
39.800000
 20
88.700000
 30
0.000000
  8
3
 62
7
  6
L000000000000000000
  0
SEQEND
  0
POLYLINE
  8
3
 62
7
  6
L000000000000000000
 70
1
 66
1
  0
VERTEX
 10
37.800000
 20
88.700000
 30
0.000000
  8
3
 62
7
  6
L000000000000000000
  0
VERTEX
 10
37.800000
 20
89.600000
 30
0.000000
  8
3
 62
7
  6
L000000000000000000
  0
VERTEX
 10
38.600000
 20
89.600000
 30
0.000000
  8
3
 62
7
  6
L000000000000000000
  0
VERTEX
 10
38.600000
 20
88.700000
 30
0.000000
  8
3
 62
7
  6
L000000000000000000
  0
SEQEND
  0
POLYLINE
  8
3
 62
7
  6
L000000000000000000
 70
1
 66
1
  0
VERTEX
 10
36.600000
 20
88.700000
 30
0.000000
  8
3
 62
7
  6
L000000000000000000
  0
VERTEX
 10
36.600000
 20
89.600000
 30
0.000000
  8
3
 62
7
  6
L000000000000000000
  0
VERTEX
 10
37.400000
 20
89.600000
 30
0.000000
  8
3
 62
7
  6
L000000000000000000
  0
VERTEX
 10
37.400000
 20
88.700000
 30
0.000000
  8
3
 62
7
  6
L000000000000000000
  0
SEQEND
  0
POLYLINE
  8
3
 62
7
  6
L000000000000000000
 70
1
 66
1
  0
VERTEX
 10
40.200000
 20
87.400000
 30
0.000000
  8
3
 62
7
  6
L000000000000000000
  0
VERTEX
 10
40.200000
 20
88.300000
 30
0.000000
  8
3
 62
7
  6
L000000000000000000
  0
VERTEX
 10
41.000000
 20
88.300000
 30
0.000000
  8
3
 62
7
  6
L000000000000000000
  0
VERTEX
 10
41.000000
 20
87.400000
 30
0.000000
  8
3
 62
7
  6
L000000000000000000
  0
SEQEND
  0
POLYLINE
  8
3
 62
7
  6
L000000000000000000
 70
1
 66
1
  0
VERTEX
 10
39.000000
 20
87.400000
 30
0.000000
  8
3
 62
7
  6
L000000000000000000
  0
VERTEX
 10
39.000000
 20
88.300000
 30
0.000000
  8
3
 62
7
  6
L000000000000000000
  0
VERTEX
 10
39.800000
 20
88.300000
 30
0.000000
  8
3
 62
7
  6
L000000000000000000
  0
VERTEX
 10
39.800000
 20
87.400000
 30
0.000000
  8
3
 62
7
  6
L000000000000000000
  0
SEQEND
  0
POLYLINE
  8
3
 62
7
  6
L000000000000000000
 70
1
 66
1
  0
VERTEX
 10
37.800000
 20
87.400000
 30
0.000000
  8
3
 62
7
  6
L000000000000000000
  0
VERTEX
 10
37.800000
 20
88.300000
 30
0.000000
  8
3
 62
7
  6
L000000000000000000
  0
VERTEX
 10
38.600000
 20
88.300000
 30
0.000000
  8
3
 62
7
  6
L000000000000000000
  0
VERTEX
 10
38.600000
 20
87.400000
 30
0.000000
  8
3
 62
7
  6
L000000000000000000
  0
SEQEND
  0
POLYLINE
  8
3
 62
7
  6
L000000000000000000
 70
1
 66
1
  0
VERTEX
 10
36.600000
 20
87.400000
 30
0.000000
  8
3
 62
7
  6
L000000000000000000
  0
VERTEX
 10
36.600000
 20
88.300000
 30
0.000000
  8
3
 62
7
  6
L000000000000000000
  0
VERTEX
 10
37.400000
 20
88.300000
 30
0.000000
  8
3
 62
7
  6
L000000000000000000
  0
VERTEX
 10
37.400000
 20
87.400000
 30
0.000000
  8
3
 62
7
  6
L000000000000000000
  0
SEQEND
  0
POLYLINE
  8
3
 62
7
  6
L000000000000000000
 70
1
 66
1
  0
VERTEX
 10
40.200000
 20
86.100000
 30
0.000000
  8
3
 62
7
  6
L000000000000000000
  0
VERTEX
 10
40.200000
 20
87.000000
 30
0.000000
  8
3
 62
7
  6
L000000000000000000
  0
VERTEX
 10
41.000000
 20
87.000000
 30
0.000000
  8
3
 62
7
  6
L000000000000000000
  0
VERTEX
 10
41.000000
 20
86.100000
 30
0.000000
  8
3
 62
7
  6
L000000000000000000
  0
SEQEND
  0
POLYLINE
  8
3
 62
7
  6
L000000000000000000
 70
1
 66
1
  0
VERTEX
 10
39.000000
 20
86.100000
 30
0.000000
  8
3
 62
7
  6
L000000000000000000
  0
VERTEX
 10
39.000000
 20
87.000000
 30
0.000000
  8
3
 62
7
  6
L000000000000000000
  0
VERTEX
 10
39.800000
 20
87.000000
 30
0.000000
  8
3
 62
7
  6
L000000000000000000
  0
VERTEX
 10
39.800000
 20
86.100000
 30
0.000000
  8
3
 62
7
  6
L000000000000000000
  0
SEQEND
  0
POLYLINE
  8
3
 62
7
  6
L000000000000000000
 70
1
 66
1
  0
VERTEX
 10
37.800000
 20
86.100000
 30
0.000000
  8
3
 62
7
  6
L000000000000000000
  0
VERTEX
 10
37.800000
 20
87.000000
 30
0.000000
  8
3
 62
7
  6
L000000000000000000
  0
VERTEX
 10
38.600000
 20
87.000000
 30
0.000000
  8
3
 62
7
  6
L000000000000000000
  0
VERTEX
 10
38.600000
 20
86.100000
 30
0.000000
  8
3
 62
7
  6
L000000000000000000
  0
SEQEND
  0
POLYLINE
  8
3
 62
7
  6
L000000000000000000
 70
1
 66
1
  0
VERTEX
 10
36.600000
 20
86.100000
 30
0.000000
  8
3
 62
7
  6
L000000000000000000
  0
VERTEX
 10
36.600000
 20
87.000000
 30
0.000000
  8
3
 62
7
  6
L000000000000000000
  0
VERTEX
 10
37.400000
 20
87.000000
 30
0.000000
  8
3
 62
7
  6
L000000000000000000
  0
VERTEX
 10
37.400000
 20
86.100000
 30
0.000000
  8
3
 62
7
  6
L000000000000000000
  0
SEQEND
  0
POLYLINE
  8
3
 62
7
  6
L000000000000000000
 70
1
 66
1
  0
VERTEX
 10
40.200000
 20
84.800000
 30
0.000000
  8
3
 62
7
  6
L000000000000000000
  0
VERTEX
 10
40.200000
 20
85.700000
 30
0.000000
  8
3
 62
7
  6
L000000000000000000
  0
VERTEX
 10
41.000000
 20
85.700000
 30
0.000000
  8
3
 62
7
  6
L000000000000000000
  0
VERTEX
 10
41.000000
 20
84.800000
 30
0.000000
  8
3
 62
7
  6
L000000000000000000
  0
SEQEND
  0
POLYLINE
  8
3
 62
7
  6
L000000000000000000
 70
1
 66
1
  0
VERTEX
 10
39.000000
 20
84.800000
 30
0.000000
  8
3
 62
7
  6
L000000000000000000
  0
VERTEX
 10
39.000000
 20
85.700000
 30
0.000000
  8
3
 62
7
  6
L000000000000000000
  0
VERTEX
 10
39.800000
 20
85.700000
 30
0.000000
  8
3
 62
7
  6
L000000000000000000
  0
VERTEX
 10
39.800000
 20
84.800000
 30
0.000000
  8
3
 62
7
  6
L000000000000000000
  0
SEQEND
  0
POLYLINE
  8
3
 62
7
  6
L000000000000000000
 70
1
 66
1
  0
VERTEX
 10
37.800000
 20
84.800000
 30
0.000000
  8
3
 62
7
  6
L000000000000000000
  0
VERTEX
 10
37.800000
 20
85.700000
 30
0.000000
  8
3
 62
7
  6
L000000000000000000
  0
VERTEX
 10
38.600000
 20
85.700000
 30
0.000000
  8
3
 62
7
  6
L000000000000000000
  0
VERTEX
 10
38.600000
 20
84.800000
 30
0.000000
  8
3
 62
7
  6
L000000000000000000
  0
SEQEND
  0
POLYLINE
  8
3
 62
7
  6
L000000000000000000
 70
1
 66
1
  0
VERTEX
 10
36.600000
 20
84.800000
 30
0.000000
  8
3
 62
7
  6
L000000000000000000
  0
VERTEX
 10
36.600000
 20
85.700000
 30
0.000000
  8
3
 62
7
  6
L000000000000000000
  0
VERTEX
 10
37.400000
 20
85.700000
 30
0.000000
  8
3
 62
7
  6
L000000000000000000
  0
VERTEX
 10
37.400000
 20
84.800000
 30
0.000000
  8
3
 62
7
  6
L000000000000000000
  0
SEQEND
  0
POLYLINE
  8
3
 62
7
  6
L000000000000000000
 70
1
 66
1
  0
VERTEX
 10
35.400000
 20
88.700000
 30
0.000000
  8
3
 62
7
  6
L000000000000000000
  0
VERTEX
 10
35.400000
 20
89.600000
 30
0.000000
  8
3
 62
7
  6
L000000000000000000
  0
VERTEX
 10
36.200000
 20
89.600000
 30
0.000000
  8
3
 62
7
  6
L000000000000000000
  0
VERTEX
 10
36.200000
 20
88.700000
 30
0.000000
  8
3
 62
7
  6
L000000000000000000
  0
SEQEND
  0
POLYLINE
  8
3
 62
7
  6
L000000000000000000
 70
1
 66
1
  0
VERTEX
 10
34.200000
 20
88.700000
 30
0.000000
  8
3
 62
7
  6
L000000000000000000
  0
VERTEX
 10
34.200000
 20
89.600000
 30
0.000000
  8
3
 62
7
  6
L000000000000000000
  0
VERTEX
 10
35.000000
 20
89.600000
 30
0.000000
  8
3
 62
7
  6
L000000000000000000
  0
VERTEX
 10
35.000000
 20
88.700000
 30
0.000000
  8
3
 62
7
  6
L000000000000000000
  0
SEQEND
  0
POLYLINE
  8
3
 62
7
  6
L000000000000000000
 70
1
 66
1
  0
VERTEX
 10
33.000000
 20
88.700000
 30
0.000000
  8
3
 62
7
  6
L000000000000000000
  0
VERTEX
 10
33.000000
 20
89.600000
 30
0.000000
  8
3
 62
7
  6
L000000000000000000
  0
VERTEX
 10
33.800000
 20
89.600000
 30
0.000000
  8
3
 62
7
  6
L000000000000000000
  0
VERTEX
 10
33.800000
 20
88.700000
 30
0.000000
  8
3
 62
7
  6
L000000000000000000
  0
SEQEND
  0
POLYLINE
  8
3
 62
7
  6
L000000000000000000
 70
1
 66
1
  0
VERTEX
 10
31.800000
 20
88.700000
 30
0.000000
  8
3
 62
7
  6
L000000000000000000
  0
VERTEX
 10
31.800000
 20
89.600000
 30
0.000000
  8
3
 62
7
  6
L000000000000000000
  0
VERTEX
 10
32.600000
 20
89.600000
 30
0.000000
  8
3
 62
7
  6
L000000000000000000
  0
VERTEX
 10
32.600000
 20
88.700000
 30
0.000000
  8
3
 62
7
  6
L000000000000000000
  0
SEQEND
  0
POLYLINE
  8
3
 62
7
  6
L000000000000000000
 70
1
 66
1
  0
VERTEX
 10
35.400000
 20
87.400000
 30
0.000000
  8
3
 62
7
  6
L000000000000000000
  0
VERTEX
 10
35.400000
 20
88.300000
 30
0.000000
  8
3
 62
7
  6
L000000000000000000
  0
VERTEX
 10
36.200000
 20
88.300000
 30
0.000000
  8
3
 62
7
  6
L000000000000000000
  0
VERTEX
 10
36.200000
 20
87.400000
 30
0.000000
  8
3
 62
7
  6
L000000000000000000
  0
SEQEND
  0
POLYLINE
  8
3
 62
7
  6
L000000000000000000
 70
1
 66
1
  0
VERTEX
 10
34.200000
 20
87.400000
 30
0.000000
  8
3
 62
7
  6
L000000000000000000
  0
VERTEX
 10
34.200000
 20
88.300000
 30
0.000000
  8
3
 62
7
  6
L000000000000000000
  0
VERTEX
 10
35.000000
 20
88.300000
 30
0.000000
  8
3
 62
7
  6
L000000000000000000
  0
VERTEX
 10
35.000000
 20
87.400000
 30
0.000000
  8
3
 62
7
  6
L000000000000000000
  0
SEQEND
  0
POLYLINE
  8
3
 62
7
  6
L000000000000000000
 70
1
 66
1
  0
VERTEX
 10
33.000000
 20
87.400000
 30
0.000000
  8
3
 62
7
  6
L000000000000000000
  0
VERTEX
 10
33.000000
 20
88.300000
 30
0.000000
  8
3
 62
7
  6
L000000000000000000
  0
VERTEX
 10
33.800000
 20
88.300000
 30
0.000000
  8
3
 62
7
  6
L000000000000000000
  0
VERTEX
 10
33.800000
 20
87.400000
 30
0.000000
  8
3
 62
7
  6
L000000000000000000
  0
SEQEND
  0
POLYLINE
  8
3
 62
7
  6
L000000000000000000
 70
1
 66
1
  0
VERTEX
 10
31.800000
 20
87.400000
 30
0.000000
  8
3
 62
7
  6
L000000000000000000
  0
VERTEX
 10
31.800000
 20
88.300000
 30
0.000000
  8
3
 62
7
  6
L000000000000000000
  0
VERTEX
 10
32.600000
 20
88.300000
 30
0.000000
  8
3
 62
7
  6
L000000000000000000
  0
VERTEX
 10
32.600000
 20
87.400000
 30
0.000000
  8
3
 62
7
  6
L000000000000000000
  0
SEQEND
  0
POLYLINE
  8
3
 62
7
  6
L000000000000000000
 70
1
 66
1
  0
VERTEX
 10
35.400000
 20
86.100000
 30
0.000000
  8
3
 62
7
  6
L000000000000000000
  0
VERTEX
 10
35.400000
 20
87.000000
 30
0.000000
  8
3
 62
7
  6
L000000000000000000
  0
VERTEX
 10
36.200000
 20
87.000000
 30
0.000000
  8
3
 62
7
  6
L000000000000000000
  0
VERTEX
 10
36.200000
 20
86.100000
 30
0.000000
  8
3
 62
7
  6
L000000000000000000
  0
SEQEND
  0
POLYLINE
  8
3
 62
7
  6
L000000000000000000
 70
1
 66
1
  0
VERTEX
 10
34.200000
 20
86.100000
 30
0.000000
  8
3
 62
7
  6
L000000000000000000
  0
VERTEX
 10
34.200000
 20
87.000000
 30
0.000000
  8
3
 62
7
  6
L000000000000000000
  0
VERTEX
 10
35.000000
 20
87.000000
 30
0.000000
  8
3
 62
7
  6
L000000000000000000
  0
VERTEX
 10
35.000000
 20
86.100000
 30
0.000000
  8
3
 62
7
  6
L000000000000000000
  0
SEQEND
  0
POLYLINE
  8
3
 62
7
  6
L000000000000000000
 70
1
 66
1
  0
VERTEX
 10
33.000000
 20
86.100000
 30
0.000000
  8
3
 62
7
  6
L000000000000000000
  0
VERTEX
 10
33.000000
 20
87.000000
 30
0.000000
  8
3
 62
7
  6
L000000000000000000
  0
VERTEX
 10
33.800000
 20
87.000000
 30
0.000000
  8
3
 62
7
  6
L000000000000000000
  0
VERTEX
 10
33.800000
 20
86.100000
 30
0.000000
  8
3
 62
7
  6
L000000000000000000
  0
SEQEND
  0
POLYLINE
  8
3
 62
7
  6
L000000000000000000
 70
1
 66
1
  0
VERTEX
 10
31.800000
 20
86.100000
 30
0.000000
  8
3
 62
7
  6
L000000000000000000
  0
VERTEX
 10
31.800000
 20
87.000000
 30
0.000000
  8
3
 62
7
  6
L000000000000000000
  0
VERTEX
 10
32.600000
 20
87.000000
 30
0.000000
  8
3
 62
7
  6
L000000000000000000
  0
VERTEX
 10
32.600000
 20
86.100000
 30
0.000000
  8
3
 62
7
  6
L000000000000000000
  0
SEQEND
  0
POLYLINE
  8
3
 62
7
  6
L000000000000000000
 70
1
 66
1
  0
VERTEX
 10
35.400000
 20
84.800000
 30
0.000000
  8
3
 62
7
  6
L000000000000000000
  0
VERTEX
 10
35.400000
 20
85.700000
 30
0.000000
  8
3
 62
7
  6
L000000000000000000
  0
VERTEX
 10
36.200000
 20
85.700000
 30
0.000000
  8
3
 62
7
  6
L000000000000000000
  0
VERTEX
 10
36.200000
 20
84.800000
 30
0.000000
  8
3
 62
7
  6
L000000000000000000
  0
SEQEND
  0
POLYLINE
  8
3
 62
7
  6
L000000000000000000
 70
1
 66
1
  0
VERTEX
 10
34.200000
 20
84.800000
 30
0.000000
  8
3
 62
7
  6
L000000000000000000
  0
VERTEX
 10
34.200000
 20
85.700000
 30
0.000000
  8
3
 62
7
  6
L000000000000000000
  0
VERTEX
 10
35.000000
 20
85.700000
 30
0.000000
  8
3
 62
7
  6
L000000000000000000
  0
VERTEX
 10
35.000000
 20
84.800000
 30
0.000000
  8
3
 62
7
  6
L000000000000000000
  0
SEQEND
  0
POLYLINE
  8
3
 62
7
  6
L000000000000000000
 70
1
 66
1
  0
VERTEX
 10
33.000000
 20
84.800000
 30
0.000000
  8
3
 62
7
  6
L000000000000000000
  0
VERTEX
 10
33.000000
 20
85.700000
 30
0.000000
  8
3
 62
7
  6
L000000000000000000
  0
VERTEX
 10
33.800000
 20
85.700000
 30
0.000000
  8
3
 62
7
  6
L000000000000000000
  0
VERTEX
 10
33.800000
 20
84.800000
 30
0.000000
  8
3
 62
7
  6
L000000000000000000
  0
SEQEND
  0
POLYLINE
  8
3
 62
7
  6
L000000000000000000
 70
1
 66
1
  0
VERTEX
 10
31.800000
 20
84.800000
 30
0.000000
  8
3
 62
7
  6
L000000000000000000
  0
VERTEX
 10
31.800000
 20
85.700000
 30
0.000000
  8
3
 62
7
  6
L000000000000000000
  0
VERTEX
 10
32.600000
 20
85.700000
 30
0.000000
  8
3
 62
7
  6
L000000000000000000
  0
VERTEX
 10
32.600000
 20
84.800000
 30
0.000000
  8
3
 62
7
  6
L000000000000000000
  0
SEQEND
  0
POLYLINE
  8
3
 62
7
  6
L000000000000000000
 70
1
 66
1
  0
VERTEX
 10
30.600000
 20
88.700000
 30
0.000000
  8
3
 62
7
  6
L000000000000000000
  0
VERTEX
 10
30.600000
 20
89.600000
 30
0.000000
  8
3
 62
7
  6
L000000000000000000
  0
VERTEX
 10
31.400000
 20
89.600000
 30
0.000000
  8
3
 62
7
  6
L000000000000000000
  0
VERTEX
 10
31.400000
 20
88.700000
 30
0.000000
  8
3
 62
7
  6
L000000000000000000
  0
SEQEND
  0
POLYLINE
  8
3
 62
7
  6
L000000000000000000
 70
1
 66
1
  0
VERTEX
 10
29.400000
 20
88.700000
 30
0.000000
  8
3
 62
7
  6
L000000000000000000
  0
VERTEX
 10
29.400000
 20
89.600000
 30
0.000000
  8
3
 62
7
  6
L000000000000000000
  0
VERTEX
 10
30.200000
 20
89.600000
 30
0.000000
  8
3
 62
7
  6
L000000000000000000
  0
VERTEX
 10
30.200000
 20
88.700000
 30
0.000000
  8
3
 62
7
  6
L000000000000000000
  0
SEQEND
  0
POLYLINE
  8
3
 62
7
  6
L000000000000000000
 70
1
 66
1
  0
VERTEX
 10
28.200000
 20
88.700000
 30
0.000000
  8
3
 62
7
  6
L000000000000000000
  0
VERTEX
 10
28.200000
 20
89.600000
 30
0.000000
  8
3
 62
7
  6
L000000000000000000
  0
VERTEX
 10
29.000000
 20
89.600000
 30
0.000000
  8
3
 62
7
  6
L000000000000000000
  0
VERTEX
 10
29.000000
 20
88.700000
 30
0.000000
  8
3
 62
7
  6
L000000000000000000
  0
SEQEND
  0
POLYLINE
  8
3
 62
7
  6
L000000000000000000
 70
1
 66
1
  0
VERTEX
 10
27.000000
 20
88.700000
 30
0.000000
  8
3
 62
7
  6
L000000000000000000
  0
VERTEX
 10
27.000000
 20
89.600000
 30
0.000000
  8
3
 62
7
  6
L000000000000000000
  0
VERTEX
 10
27.800000
 20
89.600000
 30
0.000000
  8
3
 62
7
  6
L000000000000000000
  0
VERTEX
 10
27.800000
 20
88.700000
 30
0.000000
  8
3
 62
7
  6
L000000000000000000
  0
SEQEND
  0
POLYLINE
  8
3
 62
7
  6
L000000000000000000
 70
1
 66
1
  0
VERTEX
 10
30.600000
 20
87.400000
 30
0.000000
  8
3
 62
7
  6
L000000000000000000
  0
VERTEX
 10
30.600000
 20
88.300000
 30
0.000000
  8
3
 62
7
  6
L000000000000000000
  0
VERTEX
 10
31.400000
 20
88.300000
 30
0.000000
  8
3
 62
7
  6
L000000000000000000
  0
VERTEX
 10
31.400000
 20
87.400000
 30
0.000000
  8
3
 62
7
  6
L000000000000000000
  0
SEQEND
  0
POLYLINE
  8
3
 62
7
  6
L000000000000000000
 70
1
 66
1
  0
VERTEX
 10
29.400000
 20
87.400000
 30
0.000000
  8
3
 62
7
  6
L000000000000000000
  0
VERTEX
 10
29.400000
 20
88.300000
 30
0.000000
  8
3
 62
7
  6
L000000000000000000
  0
VERTEX
 10
30.200000
 20
88.300000
 30
0.000000
  8
3
 62
7
  6
L000000000000000000
  0
VERTEX
 10
30.200000
 20
87.400000
 30
0.000000
  8
3
 62
7
  6
L000000000000000000
  0
SEQEND
  0
POLYLINE
  8
3
 62
7
  6
L000000000000000000
 70
1
 66
1
  0
VERTEX
 10
28.200000
 20
87.400000
 30
0.000000
  8
3
 62
7
  6
L000000000000000000
  0
VERTEX
 10
28.200000
 20
88.300000
 30
0.000000
  8
3
 62
7
  6
L000000000000000000
  0
VERTEX
 10
29.000000
 20
88.300000
 30
0.000000
  8
3
 62
7
  6
L000000000000000000
  0
VERTEX
 10
29.000000
 20
87.400000
 30
0.000000
  8
3
 62
7
  6
L000000000000000000
  0
SEQEND
  0
POLYLINE
  8
3
 62
7
  6
L000000000000000000
 70
1
 66
1
  0
VERTEX
 10
27.000000
 20
87.400000
 30
0.000000
  8
3
 62
7
  6
L000000000000000000
  0
VERTEX
 10
27.000000
 20
88.300000
 30
0.000000
  8
3
 62
7
  6
L000000000000000000
  0
VERTEX
 10
27.800000
 20
88.300000
 30
0.000000
  8
3
 62
7
  6
L000000000000000000
  0
VERTEX
 10
27.800000
 20
87.400000
 30
0.000000
  8
3
 62
7
  6
L000000000000000000
  0
SEQEND
  0
POLYLINE
  8
3
 62
7
  6
L000000000000000000
 70
1
 66
1
  0
VERTEX
 10
30.600000
 20
86.100000
 30
0.000000
  8
3
 62
7
  6
L000000000000000000
  0
VERTEX
 10
30.600000
 20
87.000000
 30
0.000000
  8
3
 62
7
  6
L000000000000000000
  0
VERTEX
 10
31.400000
 20
87.000000
 30
0.000000
  8
3
 62
7
  6
L000000000000000000
  0
VERTEX
 10
31.400000
 20
86.100000
 30
0.000000
  8
3
 62
7
  6
L000000000000000000
  0
SEQEND
  0
POLYLINE
  8
3
 62
7
  6
L000000000000000000
 70
1
 66
1
  0
VERTEX
 10
29.400000
 20
86.100000
 30
0.000000
  8
3
 62
7
  6
L000000000000000000
  0
VERTEX
 10
29.400000
 20
87.000000
 30
0.000000
  8
3
 62
7
  6
L000000000000000000
  0
VERTEX
 10
30.200000
 20
87.000000
 30
0.000000
  8
3
 62
7
  6
L000000000000000000
  0
VERTEX
 10
30.200000
 20
86.100000
 30
0.000000
  8
3
 62
7
  6
L000000000000000000
  0
SEQEND
  0
POLYLINE
  8
3
 62
7
  6
L000000000000000000
 70
1
 66
1
  0
VERTEX
 10
28.200000
 20
86.100000
 30
0.000000
  8
3
 62
7
  6
L000000000000000000
  0
VERTEX
 10
28.200000
 20
87.000000
 30
0.000000
  8
3
 62
7
  6
L000000000000000000
  0
VERTEX
 10
29.000000
 20
87.000000
 30
0.000000
  8
3
 62
7
  6
L000000000000000000
  0
VERTEX
 10
29.000000
 20
86.100000
 30
0.000000
  8
3
 62
7
  6
L000000000000000000
  0
SEQEND
  0
POLYLINE
  8
3
 62
7
  6
L000000000000000000
 70
1
 66
1
  0
VERTEX
 10
27.000000
 20
86.100000
 30
0.000000
  8
3
 62
7
  6
L000000000000000000
  0
VERTEX
 10
27.000000
 20
87.000000
 30
0.000000
  8
3
 62
7
  6
L000000000000000000
  0
VERTEX
 10
27.800000
 20
87.000000
 30
0.000000
  8
3
 62
7
  6
L000000000000000000
  0
VERTEX
 10
27.800000
 20
86.100000
 30
0.000000
  8
3
 62
7
  6
L000000000000000000
  0
SEQEND
  0
POLYLINE
  8
3
 62
7
  6
L000000000000000000
 70
1
 66
1
  0
VERTEX
 10
30.600000
 20
84.800000
 30
0.000000
  8
3
 62
7
  6
L000000000000000000
  0
VERTEX
 10
30.600000
 20
85.700000
 30
0.000000
  8
3
 62
7
  6
L000000000000000000
  0
VERTEX
 10
31.400000
 20
85.700000
 30
0.000000
  8
3
 62
7
  6
L000000000000000000
  0
VERTEX
 10
31.400000
 20
84.800000
 30
0.000000
  8
3
 62
7
  6
L000000000000000000
  0
SEQEND
  0
POLYLINE
  8
3
 62
7
  6
L000000000000000000
 70
1
 66
1
  0
VERTEX
 10
29.400000
 20
84.800000
 30
0.000000
  8
3
 62
7
  6
L000000000000000000
  0
VERTEX
 10
29.400000
 20
85.700000
 30
0.000000
  8
3
 62
7
  6
L000000000000000000
  0
VERTEX
 10
30.200000
 20
85.700000
 30
0.000000
  8
3
 62
7
  6
L000000000000000000
  0
VERTEX
 10
30.200000
 20
84.800000
 30
0.000000
  8
3
 62
7
  6
L000000000000000000
  0
SEQEND
  0
POLYLINE
  8
3
 62
7
  6
L000000000000000000
 70
1
 66
1
  0
VERTEX
 10
28.200000
 20
84.800000
 30
0.000000
  8
3
 62
7
  6
L000000000000000000
  0
VERTEX
 10
28.200000
 20
85.700000
 30
0.000000
  8
3
 62
7
  6
L000000000000000000
  0
VERTEX
 10
29.000000
 20
85.700000
 30
0.000000
  8
3
 62
7
  6
L000000000000000000
  0
VERTEX
 10
29.000000
 20
84.800000
 30
0.000000
  8
3
 62
7
  6
L000000000000000000
  0
SEQEND
  0
POLYLINE
  8
3
 62
7
  6
L000000000000000000
 70
1
 66
1
  0
VERTEX
 10
27.000000
 20
84.800000
 30
0.000000
  8
3
 62
7
  6
L000000000000000000
  0
VERTEX
 10
27.000000
 20
85.700000
 30
0.000000
  8
3
 62
7
  6
L000000000000000000
  0
VERTEX
 10
27.800000
 20
85.700000
 30
0.000000
  8
3
 62
7
  6
L000000000000000000
  0
VERTEX
 10
27.800000
 20
84.800000
 30
0.000000
  8
3
 62
7
  6
L000000000000000000
  0
SEQEND
  0
POLYLINE
  8
3
 62
7
  6
L000000000000000000
 70
1
 66
1
  0
VERTEX
 10
25.800000
 20
88.700000
 30
0.000000
  8
3
 62
7
  6
L000000000000000000
  0
VERTEX
 10
25.800000
 20
89.600000
 30
0.000000
  8
3
 62
7
  6
L000000000000000000
  0
VERTEX
 10
26.600000
 20
89.600000
 30
0.000000
  8
3
 62
7
  6
L000000000000000000
  0
VERTEX
 10
26.600000
 20
88.700000
 30
0.000000
  8
3
 62
7
  6
L000000000000000000
  0
SEQEND
  0
POLYLINE
  8
3
 62
7
  6
L000000000000000000
 70
1
 66
1
  0
VERTEX
 10
24.600000
 20
88.700000
 30
0.000000
  8
3
 62
7
  6
L000000000000000000
  0
VERTEX
 10
24.600000
 20
89.600000
 30
0.000000
  8
3
 62
7
  6
L000000000000000000
  0
VERTEX
 10
25.400000
 20
89.600000
 30
0.000000
  8
3
 62
7
  6
L000000000000000000
  0
VERTEX
 10
25.400000
 20
88.700000
 30
0.000000
  8
3
 62
7
  6
L000000000000000000
  0
SEQEND
  0
POLYLINE
  8
3
 62
7
  6
L000000000000000000
 70
1
 66
1
  0
VERTEX
 10
23.400000
 20
88.700000
 30
0.000000
  8
3
 62
7
  6
L000000000000000000
  0
VERTEX
 10
23.400000
 20
89.600000
 30
0.000000
  8
3
 62
7
  6
L000000000000000000
  0
VERTEX
 10
24.200000
 20
89.600000
 30
0.000000
  8
3
 62
7
  6
L000000000000000000
  0
VERTEX
 10
24.200000
 20
88.700000
 30
0.000000
  8
3
 62
7
  6
L000000000000000000
  0
SEQEND
  0
POLYLINE
  8
3
 62
7
  6
L000000000000000000
 70
1
 66
1
  0
VERTEX
 10
22.200000
 20
88.700000
 30
0.000000
  8
3
 62
7
  6
L000000000000000000
  0
VERTEX
 10
22.200000
 20
89.600000
 30
0.000000
  8
3
 62
7
  6
L000000000000000000
  0
VERTEX
 10
23.000000
 20
89.600000
 30
0.000000
  8
3
 62
7
  6
L000000000000000000
  0
VERTEX
 10
23.000000
 20
88.700000
 30
0.000000
  8
3
 62
7
  6
L000000000000000000
  0
SEQEND
  0
POLYLINE
  8
3
 62
7
  6
L000000000000000000
 70
1
 66
1
  0
VERTEX
 10
25.800000
 20
87.400000
 30
0.000000
  8
3
 62
7
  6
L000000000000000000
  0
VERTEX
 10
25.800000
 20
88.300000
 30
0.000000
  8
3
 62
7
  6
L000000000000000000
  0
VERTEX
 10
26.600000
 20
88.300000
 30
0.000000
  8
3
 62
7
  6
L000000000000000000
  0
VERTEX
 10
26.600000
 20
87.400000
 30
0.000000
  8
3
 62
7
  6
L000000000000000000
  0
SEQEND
  0
POLYLINE
  8
3
 62
7
  6
L000000000000000000
 70
1
 66
1
  0
VERTEX
 10
24.600000
 20
87.400000
 30
0.000000
  8
3
 62
7
  6
L000000000000000000
  0
VERTEX
 10
24.600000
 20
88.300000
 30
0.000000
  8
3
 62
7
  6
L000000000000000000
  0
VERTEX
 10
25.400000
 20
88.300000
 30
0.000000
  8
3
 62
7
  6
L000000000000000000
  0
VERTEX
 10
25.400000
 20
87.400000
 30
0.000000
  8
3
 62
7
  6
L000000000000000000
  0
SEQEND
  0
POLYLINE
  8
3
 62
7
  6
L000000000000000000
 70
1
 66
1
  0
VERTEX
 10
23.400000
 20
87.400000
 30
0.000000
  8
3
 62
7
  6
L000000000000000000
  0
VERTEX
 10
23.400000
 20
88.300000
 30
0.000000
  8
3
 62
7
  6
L000000000000000000
  0
VERTEX
 10
24.200000
 20
88.300000
 30
0.000000
  8
3
 62
7
  6
L000000000000000000
  0
VERTEX
 10
24.200000
 20
87.400000
 30
0.000000
  8
3
 62
7
  6
L000000000000000000
  0
SEQEND
  0
POLYLINE
  8
3
 62
7
  6
L000000000000000000
 70
1
 66
1
  0
VERTEX
 10
22.200000
 20
87.400000
 30
0.000000
  8
3
 62
7
  6
L000000000000000000
  0
VERTEX
 10
22.200000
 20
88.300000
 30
0.000000
  8
3
 62
7
  6
L000000000000000000
  0
VERTEX
 10
23.000000
 20
88.300000
 30
0.000000
  8
3
 62
7
  6
L000000000000000000
  0
VERTEX
 10
23.000000
 20
87.400000
 30
0.000000
  8
3
 62
7
  6
L000000000000000000
  0
SEQEND
  0
POLYLINE
  8
3
 62
7
  6
L000000000000000000
 70
1
 66
1
  0
VERTEX
 10
25.800000
 20
86.100000
 30
0.000000
  8
3
 62
7
  6
L000000000000000000
  0
VERTEX
 10
25.800000
 20
87.000000
 30
0.000000
  8
3
 62
7
  6
L000000000000000000
  0
VERTEX
 10
26.600000
 20
87.000000
 30
0.000000
  8
3
 62
7
  6
L000000000000000000
  0
VERTEX
 10
26.600000
 20
86.100000
 30
0.000000
  8
3
 62
7
  6
L000000000000000000
  0
SEQEND
  0
POLYLINE
  8
3
 62
7
  6
L000000000000000000
 70
1
 66
1
  0
VERTEX
 10
24.600000
 20
86.100000
 30
0.000000
  8
3
 62
7
  6
L000000000000000000
  0
VERTEX
 10
24.600000
 20
87.000000
 30
0.000000
  8
3
 62
7
  6
L000000000000000000
  0
VERTEX
 10
25.400000
 20
87.000000
 30
0.000000
  8
3
 62
7
  6
L000000000000000000
  0
VERTEX
 10
25.400000
 20
86.100000
 30
0.000000
  8
3
 62
7
  6
L000000000000000000
  0
SEQEND
  0
POLYLINE
  8
3
 62
7
  6
L000000000000000000
 70
1
 66
1
  0
VERTEX
 10
23.400000
 20
86.100000
 30
0.000000
  8
3
 62
7
  6
L000000000000000000
  0
VERTEX
 10
23.400000
 20
87.000000
 30
0.000000
  8
3
 62
7
  6
L000000000000000000
  0
VERTEX
 10
24.200000
 20
87.000000
 30
0.000000
  8
3
 62
7
  6
L000000000000000000
  0
VERTEX
 10
24.200000
 20
86.100000
 30
0.000000
  8
3
 62
7
  6
L000000000000000000
  0
SEQEND
  0
POLYLINE
  8
3
 62
7
  6
L000000000000000000
 70
1
 66
1
  0
VERTEX
 10
22.200000
 20
86.100000
 30
0.000000
  8
3
 62
7
  6
L000000000000000000
  0
VERTEX
 10
22.200000
 20
87.000000
 30
0.000000
  8
3
 62
7
  6
L000000000000000000
  0
VERTEX
 10
23.000000
 20
87.000000
 30
0.000000
  8
3
 62
7
  6
L000000000000000000
  0
VERTEX
 10
23.000000
 20
86.100000
 30
0.000000
  8
3
 62
7
  6
L000000000000000000
  0
SEQEND
  0
POLYLINE
  8
3
 62
7
  6
L000000000000000000
 70
1
 66
1
  0
VERTEX
 10
25.800000
 20
84.800000
 30
0.000000
  8
3
 62
7
  6
L000000000000000000
  0
VERTEX
 10
25.800000
 20
85.700000
 30
0.000000
  8
3
 62
7
  6
L000000000000000000
  0
VERTEX
 10
26.600000
 20
85.700000
 30
0.000000
  8
3
 62
7
  6
L000000000000000000
  0
VERTEX
 10
26.600000
 20
84.800000
 30
0.000000
  8
3
 62
7
  6
L000000000000000000
  0
SEQEND
  0
POLYLINE
  8
3
 62
7
  6
L000000000000000000
 70
1
 66
1
  0
VERTEX
 10
24.600000
 20
84.800000
 30
0.000000
  8
3
 62
7
  6
L000000000000000000
  0
VERTEX
 10
24.600000
 20
85.700000
 30
0.000000
  8
3
 62
7
  6
L000000000000000000
  0
VERTEX
 10
25.400000
 20
85.700000
 30
0.000000
  8
3
 62
7
  6
L000000000000000000
  0
VERTEX
 10
25.400000
 20
84.800000
 30
0.000000
  8
3
 62
7
  6
L000000000000000000
  0
SEQEND
  0
POLYLINE
  8
3
 62
7
  6
L000000000000000000
 70
1
 66
1
  0
VERTEX
 10
23.400000
 20
84.800000
 30
0.000000
  8
3
 62
7
  6
L000000000000000000
  0
VERTEX
 10
23.400000
 20
85.700000
 30
0.000000
  8
3
 62
7
  6
L000000000000000000
  0
VERTEX
 10
24.200000
 20
85.700000
 30
0.000000
  8
3
 62
7
  6
L000000000000000000
  0
VERTEX
 10
24.200000
 20
84.800000
 30
0.000000
  8
3
 62
7
  6
L000000000000000000
  0
SEQEND
  0
POLYLINE
  8
3
 62
7
  6
L000000000000000000
 70
1
 66
1
  0
VERTEX
 10
22.200000
 20
84.800000
 30
0.000000
  8
3
 62
7
  6
L000000000000000000
  0
VERTEX
 10
22.200000
 20
85.700000
 30
0.000000
  8
3
 62
7
  6
L000000000000000000
  0
VERTEX
 10
23.000000
 20
85.700000
 30
0.000000
  8
3
 62
7
  6
L000000000000000000
  0
VERTEX
 10
23.000000
 20
84.800000
 30
0.000000
  8
3
 62
7
  6
L000000000000000000
  0
SEQEND
  0
POLYLINE
  8
3
 62
7
  6
L000000000000000000
 70
1
 66
1
  0
VERTEX
 10
21.000000
 20
88.700000
 30
0.000000
  8
3
 62
7
  6
L000000000000000000
  0
VERTEX
 10
21.000000
 20
89.600000
 30
0.000000
  8
3
 62
7
  6
L000000000000000000
  0
VERTEX
 10
21.800000
 20
89.600000
 30
0.000000
  8
3
 62
7
  6
L000000000000000000
  0
VERTEX
 10
21.800000
 20
88.700000
 30
0.000000
  8
3
 62
7
  6
L000000000000000000
  0
SEQEND
  0
POLYLINE
  8
3
 62
7
  6
L000000000000000000
 70
1
 66
1
  0
VERTEX
 10
19.800000
 20
88.700000
 30
0.000000
  8
3
 62
7
  6
L000000000000000000
  0
VERTEX
 10
19.800000
 20
89.600000
 30
0.000000
  8
3
 62
7
  6
L000000000000000000
  0
VERTEX
 10
20.600000
 20
89.600000
 30
0.000000
  8
3
 62
7
  6
L000000000000000000
  0
VERTEX
 10
20.600000
 20
88.700000
 30
0.000000
  8
3
 62
7
  6
L000000000000000000
  0
SEQEND
  0
POLYLINE
  8
3
 62
7
  6
L000000000000000000
 70
1
 66
1
  0
VERTEX
 10
18.600000
 20
88.700000
 30
0.000000
  8
3
 62
7
  6
L000000000000000000
  0
VERTEX
 10
18.600000
 20
89.600000
 30
0.000000
  8
3
 62
7
  6
L000000000000000000
  0
VERTEX
 10
19.400000
 20
89.600000
 30
0.000000
  8
3
 62
7
  6
L000000000000000000
  0
VERTEX
 10
19.400000
 20
88.700000
 30
0.000000
  8
3
 62
7
  6
L000000000000000000
  0
SEQEND
  0
POLYLINE
  8
3
 62
7
  6
L000000000000000000
 70
1
 66
1
  0
VERTEX
 10
17.400000
 20
88.700000
 30
0.000000
  8
3
 62
7
  6
L000000000000000000
  0
VERTEX
 10
17.400000
 20
89.600000
 30
0.000000
  8
3
 62
7
  6
L000000000000000000
  0
VERTEX
 10
18.200000
 20
89.600000
 30
0.000000
  8
3
 62
7
  6
L000000000000000000
  0
VERTEX
 10
18.200000
 20
88.700000
 30
0.000000
  8
3
 62
7
  6
L000000000000000000
  0
SEQEND
  0
POLYLINE
  8
3
 62
7
  6
L000000000000000000
 70
1
 66
1
  0
VERTEX
 10
21.000000
 20
87.400000
 30
0.000000
  8
3
 62
7
  6
L000000000000000000
  0
VERTEX
 10
21.000000
 20
88.300000
 30
0.000000
  8
3
 62
7
  6
L000000000000000000
  0
VERTEX
 10
21.800000
 20
88.300000
 30
0.000000
  8
3
 62
7
  6
L000000000000000000
  0
VERTEX
 10
21.800000
 20
87.400000
 30
0.000000
  8
3
 62
7
  6
L000000000000000000
  0
SEQEND
  0
POLYLINE
  8
3
 62
7
  6
L000000000000000000
 70
1
 66
1
  0
VERTEX
 10
19.800000
 20
87.400000
 30
0.000000
  8
3
 62
7
  6
L000000000000000000
  0
VERTEX
 10
19.800000
 20
88.300000
 30
0.000000
  8
3
 62
7
  6
L000000000000000000
  0
VERTEX
 10
20.600000
 20
88.300000
 30
0.000000
  8
3
 62
7
  6
L000000000000000000
  0
VERTEX
 10
20.600000
 20
87.400000
 30
0.000000
  8
3
 62
7
  6
L000000000000000000
  0
SEQEND
  0
POLYLINE
  8
3
 62
7
  6
L000000000000000000
 70
1
 66
1
  0
VERTEX
 10
18.600000
 20
87.400000
 30
0.000000
  8
3
 62
7
  6
L000000000000000000
  0
VERTEX
 10
18.600000
 20
88.300000
 30
0.000000
  8
3
 62
7
  6
L000000000000000000
  0
VERTEX
 10
19.400000
 20
88.300000
 30
0.000000
  8
3
 62
7
  6
L000000000000000000
  0
VERTEX
 10
19.400000
 20
87.400000
 30
0.000000
  8
3
 62
7
  6
L000000000000000000
  0
SEQEND
  0
POLYLINE
  8
3
 62
7
  6
L000000000000000000
 70
1
 66
1
  0
VERTEX
 10
17.400000
 20
87.400000
 30
0.000000
  8
3
 62
7
  6
L000000000000000000
  0
VERTEX
 10
17.400000
 20
88.300000
 30
0.000000
  8
3
 62
7
  6
L000000000000000000
  0
VERTEX
 10
18.200000
 20
88.300000
 30
0.000000
  8
3
 62
7
  6
L000000000000000000
  0
VERTEX
 10
18.200000
 20
87.400000
 30
0.000000
  8
3
 62
7
  6
L000000000000000000
  0
SEQEND
  0
POLYLINE
  8
3
 62
7
  6
L000000000000000000
 70
1
 66
1
  0
VERTEX
 10
21.000000
 20
86.100000
 30
0.000000
  8
3
 62
7
  6
L000000000000000000
  0
VERTEX
 10
21.000000
 20
87.000000
 30
0.000000
  8
3
 62
7
  6
L000000000000000000
  0
VERTEX
 10
21.800000
 20
87.000000
 30
0.000000
  8
3
 62
7
  6
L000000000000000000
  0
VERTEX
 10
21.800000
 20
86.100000
 30
0.000000
  8
3
 62
7
  6
L000000000000000000
  0
SEQEND
  0
POLYLINE
  8
3
 62
7
  6
L000000000000000000
 70
1
 66
1
  0
VERTEX
 10
19.800000
 20
86.100000
 30
0.000000
  8
3
 62
7
  6
L000000000000000000
  0
VERTEX
 10
19.800000
 20
87.000000
 30
0.000000
  8
3
 62
7
  6
L000000000000000000
  0
VERTEX
 10
20.600000
 20
87.000000
 30
0.000000
  8
3
 62
7
  6
L000000000000000000
  0
VERTEX
 10
20.600000
 20
86.100000
 30
0.000000
  8
3
 62
7
  6
L000000000000000000
  0
SEQEND
  0
POLYLINE
  8
3
 62
7
  6
L000000000000000000
 70
1
 66
1
  0
VERTEX
 10
18.600000
 20
86.100000
 30
0.000000
  8
3
 62
7
  6
L000000000000000000
  0
VERTEX
 10
18.600000
 20
87.000000
 30
0.000000
  8
3
 62
7
  6
L000000000000000000
  0
VERTEX
 10
19.400000
 20
87.000000
 30
0.000000
  8
3
 62
7
  6
L000000000000000000
  0
VERTEX
 10
19.400000
 20
86.100000
 30
0.000000
  8
3
 62
7
  6
L000000000000000000
  0
SEQEND
  0
POLYLINE
  8
3
 62
7
  6
L000000000000000000
 70
1
 66
1
  0
VERTEX
 10
17.400000
 20
86.100000
 30
0.000000
  8
3
 62
7
  6
L000000000000000000
  0
VERTEX
 10
17.400000
 20
87.000000
 30
0.000000
  8
3
 62
7
  6
L000000000000000000
  0
VERTEX
 10
18.200000
 20
87.000000
 30
0.000000
  8
3
 62
7
  6
L000000000000000000
  0
VERTEX
 10
18.200000
 20
86.100000
 30
0.000000
  8
3
 62
7
  6
L000000000000000000
  0
SEQEND
  0
POLYLINE
  8
3
 62
7
  6
L000000000000000000
 70
1
 66
1
  0
VERTEX
 10
21.000000
 20
84.800000
 30
0.000000
  8
3
 62
7
  6
L000000000000000000
  0
VERTEX
 10
21.000000
 20
85.700000
 30
0.000000
  8
3
 62
7
  6
L000000000000000000
  0
VERTEX
 10
21.800000
 20
85.700000
 30
0.000000
  8
3
 62
7
  6
L000000000000000000
  0
VERTEX
 10
21.800000
 20
84.800000
 30
0.000000
  8
3
 62
7
  6
L000000000000000000
  0
SEQEND
  0
POLYLINE
  8
3
 62
7
  6
L000000000000000000
 70
1
 66
1
  0
VERTEX
 10
19.800000
 20
84.800000
 30
0.000000
  8
3
 62
7
  6
L000000000000000000
  0
VERTEX
 10
19.800000
 20
85.700000
 30
0.000000
  8
3
 62
7
  6
L000000000000000000
  0
VERTEX
 10
20.600000
 20
85.700000
 30
0.000000
  8
3
 62
7
  6
L000000000000000000
  0
VERTEX
 10
20.600000
 20
84.800000
 30
0.000000
  8
3
 62
7
  6
L000000000000000000
  0
SEQEND
  0
POLYLINE
  8
3
 62
7
  6
L000000000000000000
 70
1
 66
1
  0
VERTEX
 10
18.600000
 20
84.800000
 30
0.000000
  8
3
 62
7
  6
L000000000000000000
  0
VERTEX
 10
18.600000
 20
85.700000
 30
0.000000
  8
3
 62
7
  6
L000000000000000000
  0
VERTEX
 10
19.400000
 20
85.700000
 30
0.000000
  8
3
 62
7
  6
L000000000000000000
  0
VERTEX
 10
19.400000
 20
84.800000
 30
0.000000
  8
3
 62
7
  6
L000000000000000000
  0
SEQEND
  0
POLYLINE
  8
3
 62
7
  6
L000000000000000000
 70
1
 66
1
  0
VERTEX
 10
17.400000
 20
84.800000
 30
0.000000
  8
3
 62
7
  6
L000000000000000000
  0
VERTEX
 10
17.400000
 20
85.700000
 30
0.000000
  8
3
 62
7
  6
L000000000000000000
  0
VERTEX
 10
18.200000
 20
85.700000
 30
0.000000
  8
3
 62
7
  6
L000000000000000000
  0
VERTEX
 10
18.200000
 20
84.800000
 30
0.000000
  8
3
 62
7
  6
L000000000000000000
  0
SEQEND
  0
POLYLINE
  8
3
 62
7
  6
L000000000000000000
 70
1
 66
1
  0
VERTEX
 10
16.200000
 20
88.700000
 30
0.000000
  8
3
 62
7
  6
L000000000000000000
  0
VERTEX
 10
16.200000
 20
89.600000
 30
0.000000
  8
3
 62
7
  6
L000000000000000000
  0
VERTEX
 10
17.000000
 20
89.600000
 30
0.000000
  8
3
 62
7
  6
L000000000000000000
  0
VERTEX
 10
17.000000
 20
88.700000
 30
0.000000
  8
3
 62
7
  6
L000000000000000000
  0
SEQEND
  0
POLYLINE
  8
3
 62
7
  6
L000000000000000000
 70
1
 66
1
  0
VERTEX
 10
16.200000
 20
87.400000
 30
0.000000
  8
3
 62
7
  6
L000000000000000000
  0
VERTEX
 10
16.200000
 20
88.300000
 30
0.000000
  8
3
 62
7
  6
L000000000000000000
  0
VERTEX
 10
17.000000
 20
88.300000
 30
0.000000
  8
3
 62
7
  6
L000000000000000000
  0
VERTEX
 10
17.000000
 20
87.400000
 30
0.000000
  8
3
 62
7
  6
L000000000000000000
  0
SEQEND
  0
POLYLINE
  8
3
 62
7
  6
L000000000000000000
 70
1
 66
1
  0
VERTEX
 10
16.200000
 20
86.100000
 30
0.000000
  8
3
 62
7
  6
L000000000000000000
  0
VERTEX
 10
16.200000
 20
87.000000
 30
0.000000
  8
3
 62
7
  6
L000000000000000000
  0
VERTEX
 10
17.000000
 20
87.000000
 30
0.000000
  8
3
 62
7
  6
L000000000000000000
  0
VERTEX
 10
17.000000
 20
86.100000
 30
0.000000
  8
3
 62
7
  6
L000000000000000000
  0
SEQEND
  0
POLYLINE
  8
3
 62
7
  6
L000000000000000000
 70
1
 66
1
  0
VERTEX
 10
16.200000
 20
84.800000
 30
0.000000
  8
3
 62
7
  6
L000000000000000000
  0
VERTEX
 10
16.200000
 20
85.700000
 30
0.000000
  8
3
 62
7
  6
L000000000000000000
  0
VERTEX
 10
17.000000
 20
85.700000
 30
0.000000
  8
3
 62
7
  6
L000000000000000000
  0
VERTEX
 10
17.000000
 20
84.800000
 30
0.000000
  8
3
 62
7
  6
L000000000000000000
  0
SEQEND
  0
POLYLINE
  8
3
 62
7
  6
L000000000000000000
 70
1
 66
1
  0
VERTEX
 10
45.000000
 20
66.500000
 30
0.000000
  8
3
 62
7
  6
L000000000000000000
  0
VERTEX
 10
45.000000
 20
67.400000
 30
0.000000
  8
3
 62
7
  6
L000000000000000000
  0
VERTEX
 10
45.800000
 20
67.400000
 30
0.000000
  8
3
 62
7
  6
L000000000000000000
  0
VERTEX
 10
45.800000
 20
66.500000
 30
0.000000
  8
3
 62
7
  6
L000000000000000000
  0
SEQEND
  0
POLYLINE
  8
3
 62
7
  6
L000000000000000000
 70
1
 66
1
  0
VERTEX
 10
46.200000
 20
66.500000
 30
0.000000
  8
3
 62
7
  6
L000000000000000000
  0
VERTEX
 10
46.200000
 20
67.400000
 30
0.000000
  8
3
 62
7
  6
L000000000000000000
  0
VERTEX
 10
47.000000
 20
67.400000
 30
0.000000
  8
3
 62
7
  6
L000000000000000000
  0
VERTEX
 10
47.000000
 20
66.500000
 30
0.000000
  8
3
 62
7
  6
L000000000000000000
  0
SEQEND
  0
POLYLINE
  8
3
 62
7
  6
L000000000000000000
 70
1
 66
1
  0
VERTEX
 10
47.400000
 20
66.500000
 30
0.000000
  8
3
 62
7
  6
L000000000000000000
  0
VERTEX
 10
47.400000
 20
67.400000
 30
0.000000
  8
3
 62
7
  6
L000000000000000000
  0
VERTEX
 10
48.200000
 20
67.400000
 30
0.000000
  8
3
 62
7
  6
L000000000000000000
  0
VERTEX
 10
48.200000
 20
66.500000
 30
0.000000
  8
3
 62
7
  6
L000000000000000000
  0
SEQEND
  0
POLYLINE
  8
3
 62
7
  6
L000000000000000000
 70
1
 66
1
  0
VERTEX
 10
48.600000
 20
66.500000
 30
0.000000
  8
3
 62
7
  6
L000000000000000000
  0
VERTEX
 10
48.600000
 20
67.400000
 30
0.000000
  8
3
 62
7
  6
L000000000000000000
  0
VERTEX
 10
49.400000
 20
67.400000
 30
0.000000
  8
3
 62
7
  6
L000000000000000000
  0
VERTEX
 10
49.400000
 20
66.500000
 30
0.000000
  8
3
 62
7
  6
L000000000000000000
  0
SEQEND
  0
POLYLINE
  8
3
 62
7
  6
L000000000000000000
 70
1
 66
1
  0
VERTEX
 10
8.600000
 20
-0.100000
  8
3
 62
7
  6
L000000000000000000
  0
VERTEX
 10
8.600000
 20
5.500000
  8
3
 62
7
  6
L000000000000000000
  0
VERTEX
 10
44.600000
 20
5.500000
  8
3
 62
7
  6
L000000000000000000
  0
VERTEX
 10
44.600000
 20
38.600000
  8
3
 62
7
  6
L000000000000000000
  0
VERTEX
 10
49.800000
 20
38.600000
  8
3
 62
7
  6
L000000000000000000
  0
VERTEX
 10
49.800000
 20
-0.100000
  8
3
 62
7
  6
L000000000000000000
  0
SEQEND
  0
POLYLINE
  8
3
 62
7
  6
L000000000000000000
 70
1
 66
1
  0
VERTEX
 10
48.600000
 20
20.800000
 30
0.000000
  8
3
 62
7
  6
L000000000000000000
  0
VERTEX
 10
48.600000
 20
19.900000
 30
0.000000
  8
3
 62
7
  6
L000000000000000000
  0
VERTEX
 10
49.400000
 20
19.900000
 30
0.000000
  8
3
 62
7
  6
L000000000000000000
  0
VERTEX
 10
49.400000
 20
20.800000
 30
0.000000
  8
3
 62
7
  6
L000000000000000000
  0
SEQEND
  0
POLYLINE
  8
3
 62
7
  6
L000000000000000000
 70
1
 66
1
  0
VERTEX
 10
47.400000
 20
20.800000
 30
0.000000
  8
3
 62
7
  6
L000000000000000000
  0
VERTEX
 10
47.400000
 20
19.900000
 30
0.000000
  8
3
 62
7
  6
L000000000000000000
  0
VERTEX
 10
48.200000
 20
19.900000
 30
0.000000
  8
3
 62
7
  6
L000000000000000000
  0
VERTEX
 10
48.200000
 20
20.800000
 30
0.000000
  8
3
 62
7
  6
L000000000000000000
  0
SEQEND
  0
POLYLINE
  8
3
 62
7
  6
L000000000000000000
 70
1
 66
1
  0
VERTEX
 10
46.200000
 20
20.800000
 30
0.000000
  8
3
 62
7
  6
L000000000000000000
  0
VERTEX
 10
46.200000
 20
19.900000
 30
0.000000
  8
3
 62
7
  6
L000000000000000000
  0
VERTEX
 10
47.000000
 20
19.900000
 30
0.000000
  8
3
 62
7
  6
L000000000000000000
  0
VERTEX
 10
47.000000
 20
20.800000
 30
0.000000
  8
3
 62
7
  6
L000000000000000000
  0
SEQEND
  0
POLYLINE
  8
3
 62
7
  6
L000000000000000000
 70
1
 66
1
  0
VERTEX
 10
45.000000
 20
20.800000
 30
0.000000
  8
3
 62
7
  6
L000000000000000000
  0
VERTEX
 10
45.000000
 20
19.900000
 30
0.000000
  8
3
 62
7
  6
L000000000000000000
  0
VERTEX
 10
45.800000
 20
19.900000
 30
0.000000
  8
3
 62
7
  6
L000000000000000000
  0
VERTEX
 10
45.800000
 20
20.800000
 30
0.000000
  8
3
 62
7
  6
L000000000000000000
  0
SEQEND
  0
POLYLINE
  8
3
 62
7
  6
L000000000000000000
 70
1
 66
1
  0
VERTEX
 10
48.600000
 20
22.100000
 30
0.000000
  8
3
 62
7
  6
L000000000000000000
  0
VERTEX
 10
48.600000
 20
21.200000
 30
0.000000
  8
3
 62
7
  6
L000000000000000000
  0
VERTEX
 10
49.400000
 20
21.200000
 30
0.000000
  8
3
 62
7
  6
L000000000000000000
  0
VERTEX
 10
49.400000
 20
22.100000
 30
0.000000
  8
3
 62
7
  6
L000000000000000000
  0
SEQEND
  0
POLYLINE
  8
3
 62
7
  6
L000000000000000000
 70
1
 66
1
  0
VERTEX
 10
47.400000
 20
22.100000
 30
0.000000
  8
3
 62
7
  6
L000000000000000000
  0
VERTEX
 10
47.400000
 20
21.200000
 30
0.000000
  8
3
 62
7
  6
L000000000000000000
  0
VERTEX
 10
48.200000
 20
21.200000
 30
0.000000
  8
3
 62
7
  6
L000000000000000000
  0
VERTEX
 10
48.200000
 20
22.100000
 30
0.000000
  8
3
 62
7
  6
L000000000000000000
  0
SEQEND
  0
POLYLINE
  8
3
 62
7
  6
L000000000000000000
 70
1
 66
1
  0
VERTEX
 10
46.200000
 20
22.100000
 30
0.000000
  8
3
 62
7
  6
L000000000000000000
  0
VERTEX
 10
46.200000
 20
21.200000
 30
0.000000
  8
3
 62
7
  6
L000000000000000000
  0
VERTEX
 10
47.000000
 20
21.200000
 30
0.000000
  8
3
 62
7
  6
L000000000000000000
  0
VERTEX
 10
47.000000
 20
22.100000
 30
0.000000
  8
3
 62
7
  6
L000000000000000000
  0
SEQEND
  0
POLYLINE
  8
3
 62
7
  6
L000000000000000000
 70
1
 66
1
  0
VERTEX
 10
45.000000
 20
22.100000
 30
0.000000
  8
3
 62
7
  6
L000000000000000000
  0
VERTEX
 10
45.000000
 20
21.200000
 30
0.000000
  8
3
 62
7
  6
L000000000000000000
  0
VERTEX
 10
45.800000
 20
21.200000
 30
0.000000
  8
3
 62
7
  6
L000000000000000000
  0
VERTEX
 10
45.800000
 20
22.100000
 30
0.000000
  8
3
 62
7
  6
L000000000000000000
  0
SEQEND
  0
POLYLINE
  8
3
 62
7
  6
L000000000000000000
 70
1
 66
1
  0
VERTEX
 10
48.600000
 20
15.500000
 30
0.000000
  8
3
 62
7
  6
L000000000000000000
  0
VERTEX
 10
48.600000
 20
14.600000
 30
0.000000
  8
3
 62
7
  6
L000000000000000000
  0
VERTEX
 10
49.400000
 20
14.600000
 30
0.000000
  8
3
 62
7
  6
L000000000000000000
  0
VERTEX
 10
49.400000
 20
15.500000
 30
0.000000
  8
3
 62
7
  6
L000000000000000000
  0
SEQEND
  0
POLYLINE
  8
3
 62
7
  6
L000000000000000000
 70
1
 66
1
  0
VERTEX
 10
47.400000
 20
15.500000
 30
0.000000
  8
3
 62
7
  6
L000000000000000000
  0
VERTEX
 10
47.400000
 20
14.600000
 30
0.000000
  8
3
 62
7
  6
L000000000000000000
  0
VERTEX
 10
48.200000
 20
14.600000
 30
0.000000
  8
3
 62
7
  6
L000000000000000000
  0
VERTEX
 10
48.200000
 20
15.500000
 30
0.000000
  8
3
 62
7
  6
L000000000000000000
  0
SEQEND
  0
POLYLINE
  8
3
 62
7
  6
L000000000000000000
 70
1
 66
1
  0
VERTEX
 10
46.200000
 20
15.500000
 30
0.000000
  8
3
 62
7
  6
L000000000000000000
  0
VERTEX
 10
46.200000
 20
14.600000
 30
0.000000
  8
3
 62
7
  6
L000000000000000000
  0
VERTEX
 10
47.000000
 20
14.600000
 30
0.000000
  8
3
 62
7
  6
L000000000000000000
  0
VERTEX
 10
47.000000
 20
15.500000
 30
0.000000
  8
3
 62
7
  6
L000000000000000000
  0
SEQEND
  0
POLYLINE
  8
3
 62
7
  6
L000000000000000000
 70
1
 66
1
  0
VERTEX
 10
45.000000
 20
15.500000
 30
0.000000
  8
3
 62
7
  6
L000000000000000000
  0
VERTEX
 10
45.000000
 20
14.600000
 30
0.000000
  8
3
 62
7
  6
L000000000000000000
  0
VERTEX
 10
45.800000
 20
14.600000
 30
0.000000
  8
3
 62
7
  6
L000000000000000000
  0
VERTEX
 10
45.800000
 20
15.500000
 30
0.000000
  8
3
 62
7
  6
L000000000000000000
  0
SEQEND
  0
POLYLINE
  8
3
 62
7
  6
L000000000000000000
 70
1
 66
1
  0
VERTEX
 10
48.600000
 20
16.800000
 30
0.000000
  8
3
 62
7
  6
L000000000000000000
  0
VERTEX
 10
48.600000
 20
15.900000
 30
0.000000
  8
3
 62
7
  6
L000000000000000000
  0
VERTEX
 10
49.400000
 20
15.900000
 30
0.000000
  8
3
 62
7
  6
L000000000000000000
  0
VERTEX
 10
49.400000
 20
16.800000
 30
0.000000
  8
3
 62
7
  6
L000000000000000000
  0
SEQEND
  0
POLYLINE
  8
3
 62
7
  6
L000000000000000000
 70
1
 66
1
  0
VERTEX
 10
47.400000
 20
16.800000
 30
0.000000
  8
3
 62
7
  6
L000000000000000000
  0
VERTEX
 10
47.400000
 20
15.900000
 30
0.000000
  8
3
 62
7
  6
L000000000000000000
  0
VERTEX
 10
48.200000
 20
15.900000
 30
0.000000
  8
3
 62
7
  6
L000000000000000000
  0
VERTEX
 10
48.200000
 20
16.800000
 30
0.000000
  8
3
 62
7
  6
L000000000000000000
  0
SEQEND
  0
POLYLINE
  8
3
 62
7
  6
L000000000000000000
 70
1
 66
1
  0
VERTEX
 10
46.200000
 20
16.800000
 30
0.000000
  8
3
 62
7
  6
L000000000000000000
  0
VERTEX
 10
46.200000
 20
15.900000
 30
0.000000
  8
3
 62
7
  6
L000000000000000000
  0
VERTEX
 10
47.000000
 20
15.900000
 30
0.000000
  8
3
 62
7
  6
L000000000000000000
  0
VERTEX
 10
47.000000
 20
16.800000
 30
0.000000
  8
3
 62
7
  6
L000000000000000000
  0
SEQEND
  0
POLYLINE
  8
3
 62
7
  6
L000000000000000000
 70
1
 66
1
  0
VERTEX
 10
45.000000
 20
16.800000
 30
0.000000
  8
3
 62
7
  6
L000000000000000000
  0
VERTEX
 10
45.000000
 20
15.900000
 30
0.000000
  8
3
 62
7
  6
L000000000000000000
  0
VERTEX
 10
45.800000
 20
15.900000
 30
0.000000
  8
3
 62
7
  6
L000000000000000000
  0
VERTEX
 10
45.800000
 20
16.800000
 30
0.000000
  8
3
 62
7
  6
L000000000000000000
  0
SEQEND
  0
POLYLINE
  8
3
 62
7
  6
L000000000000000000
 70
1
 66
1
  0
VERTEX
 10
48.600000
 20
18.100000
 30
0.000000
  8
3
 62
7
  6
L000000000000000000
  0
VERTEX
 10
48.600000
 20
17.200000
 30
0.000000
  8
3
 62
7
  6
L000000000000000000
  0
VERTEX
 10
49.400000
 20
17.200000
 30
0.000000
  8
3
 62
7
  6
L000000000000000000
  0
VERTEX
 10
49.400000
 20
18.100000
 30
0.000000
  8
3
 62
7
  6
L000000000000000000
  0
SEQEND
  0
POLYLINE
  8
3
 62
7
  6
L000000000000000000
 70
1
 66
1
  0
VERTEX
 10
47.400000
 20
18.100000
 30
0.000000
  8
3
 62
7
  6
L000000000000000000
  0
VERTEX
 10
47.400000
 20
17.200000
 30
0.000000
  8
3
 62
7
  6
L000000000000000000
  0
VERTEX
 10
48.200000
 20
17.200000
 30
0.000000
  8
3
 62
7
  6
L000000000000000000
  0
VERTEX
 10
48.200000
 20
18.100000
 30
0.000000
  8
3
 62
7
  6
L000000000000000000
  0
SEQEND
  0
POLYLINE
  8
3
 62
7
  6
L000000000000000000
 70
1
 66
1
  0
VERTEX
 10
46.200000
 20
18.100000
 30
0.000000
  8
3
 62
7
  6
L000000000000000000
  0
VERTEX
 10
46.200000
 20
17.200000
 30
0.000000
  8
3
 62
7
  6
L000000000000000000
  0
VERTEX
 10
47.000000
 20
17.200000
 30
0.000000
  8
3
 62
7
  6
L000000000000000000
  0
VERTEX
 10
47.000000
 20
18.100000
 30
0.000000
  8
3
 62
7
  6
L000000000000000000
  0
SEQEND
  0
POLYLINE
  8
3
 62
7
  6
L000000000000000000
 70
1
 66
1
  0
VERTEX
 10
45.000000
 20
18.100000
 30
0.000000
  8
3
 62
7
  6
L000000000000000000
  0
VERTEX
 10
45.000000
 20
17.200000
 30
0.000000
  8
3
 62
7
  6
L000000000000000000
  0
VERTEX
 10
45.800000
 20
17.200000
 30
0.000000
  8
3
 62
7
  6
L000000000000000000
  0
VERTEX
 10
45.800000
 20
18.100000
 30
0.000000
  8
3
 62
7
  6
L000000000000000000
  0
SEQEND
  0
POLYLINE
  8
3
 62
7
  6
L000000000000000000
 70
1
 66
1
  0
VERTEX
 10
48.600000
 20
19.400000
 30
0.000000
  8
3
 62
7
  6
L000000000000000000
  0
VERTEX
 10
48.600000
 20
18.500000
 30
0.000000
  8
3
 62
7
  6
L000000000000000000
  0
VERTEX
 10
49.400000
 20
18.500000
 30
0.000000
  8
3
 62
7
  6
L000000000000000000
  0
VERTEX
 10
49.400000
 20
19.400000
 30
0.000000
  8
3
 62
7
  6
L000000000000000000
  0
SEQEND
  0
POLYLINE
  8
3
 62
7
  6
L000000000000000000
 70
1
 66
1
  0
VERTEX
 10
47.400000
 20
19.400000
 30
0.000000
  8
3
 62
7
  6
L000000000000000000
  0
VERTEX
 10
47.400000
 20
18.500000
 30
0.000000
  8
3
 62
7
  6
L000000000000000000
  0
VERTEX
 10
48.200000
 20
18.500000
 30
0.000000
  8
3
 62
7
  6
L000000000000000000
  0
VERTEX
 10
48.200000
 20
19.400000
 30
0.000000
  8
3
 62
7
  6
L000000000000000000
  0
SEQEND
  0
POLYLINE
  8
3
 62
7
  6
L000000000000000000
 70
1
 66
1
  0
VERTEX
 10
46.200000
 20
19.400000
 30
0.000000
  8
3
 62
7
  6
L000000000000000000
  0
VERTEX
 10
46.200000
 20
18.500000
 30
0.000000
  8
3
 62
7
  6
L000000000000000000
  0
VERTEX
 10
47.000000
 20
18.500000
 30
0.000000
  8
3
 62
7
  6
L000000000000000000
  0
VERTEX
 10
47.000000
 20
19.400000
 30
0.000000
  8
3
 62
7
  6
L000000000000000000
  0
SEQEND
  0
POLYLINE
  8
3
 62
7
  6
L000000000000000000
 70
1
 66
1
  0
VERTEX
 10
45.000000
 20
19.400000
 30
0.000000
  8
3
 62
7
  6
L000000000000000000
  0
VERTEX
 10
45.000000
 20
18.500000
 30
0.000000
  8
3
 62
7
  6
L000000000000000000
  0
VERTEX
 10
45.800000
 20
18.500000
 30
0.000000
  8
3
 62
7
  6
L000000000000000000
  0
VERTEX
 10
45.800000
 20
19.400000
 30
0.000000
  8
3
 62
7
  6
L000000000000000000
  0
SEQEND
  0
POLYLINE
  8
3
 62
7
  6
L000000000000000000
 70
1
 66
1
  0
VERTEX
 10
48.600000
 20
10.300000
 30
0.000000
  8
3
 62
7
  6
L000000000000000000
  0
VERTEX
 10
48.600000
 20
9.400000
 30
0.000000
  8
3
 62
7
  6
L000000000000000000
  0
VERTEX
 10
49.400000
 20
9.400000
 30
0.000000
  8
3
 62
7
  6
L000000000000000000
  0
VERTEX
 10
49.400000
 20
10.300000
 30
0.000000
  8
3
 62
7
  6
L000000000000000000
  0
SEQEND
  0
POLYLINE
  8
3
 62
7
  6
L000000000000000000
 70
1
 66
1
  0
VERTEX
 10
47.400000
 20
10.300000
 30
0.000000
  8
3
 62
7
  6
L000000000000000000
  0
VERTEX
 10
47.400000
 20
9.400000
 30
0.000000
  8
3
 62
7
  6
L000000000000000000
  0
VERTEX
 10
48.200000
 20
9.400000
 30
0.000000
  8
3
 62
7
  6
L000000000000000000
  0
VERTEX
 10
48.200000
 20
10.300000
 30
0.000000
  8
3
 62
7
  6
L000000000000000000
  0
SEQEND
  0
POLYLINE
  8
3
 62
7
  6
L000000000000000000
 70
1
 66
1
  0
VERTEX
 10
46.200000
 20
10.300000
 30
0.000000
  8
3
 62
7
  6
L000000000000000000
  0
VERTEX
 10
46.200000
 20
9.400000
 30
0.000000
  8
3
 62
7
  6
L000000000000000000
  0
VERTEX
 10
47.000000
 20
9.400000
 30
0.000000
  8
3
 62
7
  6
L000000000000000000
  0
VERTEX
 10
47.000000
 20
10.300000
 30
0.000000
  8
3
 62
7
  6
L000000000000000000
  0
SEQEND
  0
POLYLINE
  8
3
 62
7
  6
L000000000000000000
 70
1
 66
1
  0
VERTEX
 10
45.000000
 20
10.300000
 30
0.000000
  8
3
 62
7
  6
L000000000000000000
  0
VERTEX
 10
45.000000
 20
9.400000
 30
0.000000
  8
3
 62
7
  6
L000000000000000000
  0
VERTEX
 10
45.800000
 20
9.400000
 30
0.000000
  8
3
 62
7
  6
L000000000000000000
  0
VERTEX
 10
45.800000
 20
10.300000
 30
0.000000
  8
3
 62
7
  6
L000000000000000000
  0
SEQEND
  0
POLYLINE
  8
3
 62
7
  6
L000000000000000000
 70
1
 66
1
  0
VERTEX
 10
48.600000
 20
11.600000
 30
0.000000
  8
3
 62
7
  6
L000000000000000000
  0
VERTEX
 10
48.600000
 20
10.700000
 30
0.000000
  8
3
 62
7
  6
L000000000000000000
  0
VERTEX
 10
49.400000
 20
10.700000
 30
0.000000
  8
3
 62
7
  6
L000000000000000000
  0
VERTEX
 10
49.400000
 20
11.600000
 30
0.000000
  8
3
 62
7
  6
L000000000000000000
  0
SEQEND
  0
POLYLINE
  8
3
 62
7
  6
L000000000000000000
 70
1
 66
1
  0
VERTEX
 10
47.400000
 20
11.600000
 30
0.000000
  8
3
 62
7
  6
L000000000000000000
  0
VERTEX
 10
47.400000
 20
10.700000
 30
0.000000
  8
3
 62
7
  6
L000000000000000000
  0
VERTEX
 10
48.200000
 20
10.700000
 30
0.000000
  8
3
 62
7
  6
L000000000000000000
  0
VERTEX
 10
48.200000
 20
11.600000
 30
0.000000
  8
3
 62
7
  6
L000000000000000000
  0
SEQEND
  0
POLYLINE
  8
3
 62
7
  6
L000000000000000000
 70
1
 66
1
  0
VERTEX
 10
46.200000
 20
11.600000
 30
0.000000
  8
3
 62
7
  6
L000000000000000000
  0
VERTEX
 10
46.200000
 20
10.700000
 30
0.000000
  8
3
 62
7
  6
L000000000000000000
  0
VERTEX
 10
47.000000
 20
10.700000
 30
0.000000
  8
3
 62
7
  6
L000000000000000000
  0
VERTEX
 10
47.000000
 20
11.600000
 30
0.000000
  8
3
 62
7
  6
L000000000000000000
  0
SEQEND
  0
POLYLINE
  8
3
 62
7
  6
L000000000000000000
 70
1
 66
1
  0
VERTEX
 10
45.000000
 20
11.600000
 30
0.000000
  8
3
 62
7
  6
L000000000000000000
  0
VERTEX
 10
45.000000
 20
10.700000
 30
0.000000
  8
3
 62
7
  6
L000000000000000000
  0
VERTEX
 10
45.800000
 20
10.700000
 30
0.000000
  8
3
 62
7
  6
L000000000000000000
  0
VERTEX
 10
45.800000
 20
11.600000
 30
0.000000
  8
3
 62
7
  6
L000000000000000000
  0
SEQEND
  0
POLYLINE
  8
3
 62
7
  6
L000000000000000000
 70
1
 66
1
  0
VERTEX
 10
48.600000
 20
12.900000
 30
0.000000
  8
3
 62
7
  6
L000000000000000000
  0
VERTEX
 10
48.600000
 20
12.000000
 30
0.000000
  8
3
 62
7
  6
L000000000000000000
  0
VERTEX
 10
49.400000
 20
12.000000
 30
0.000000
  8
3
 62
7
  6
L000000000000000000
  0
VERTEX
 10
49.400000
 20
12.900000
 30
0.000000
  8
3
 62
7
  6
L000000000000000000
  0
SEQEND
  0
POLYLINE
  8
3
 62
7
  6
L000000000000000000
 70
1
 66
1
  0
VERTEX
 10
47.400000
 20
12.900000
 30
0.000000
  8
3
 62
7
  6
L000000000000000000
  0
VERTEX
 10
47.400000
 20
12.000000
 30
0.000000
  8
3
 62
7
  6
L000000000000000000
  0
VERTEX
 10
48.200000
 20
12.000000
 30
0.000000
  8
3
 62
7
  6
L000000000000000000
  0
VERTEX
 10
48.200000
 20
12.900000
 30
0.000000
  8
3
 62
7
  6
L000000000000000000
  0
SEQEND
  0
POLYLINE
  8
3
 62
7
  6
L000000000000000000
 70
1
 66
1
  0
VERTEX
 10
46.200000
 20
12.900000
 30
0.000000
  8
3
 62
7
  6
L000000000000000000
  0
VERTEX
 10
46.200000
 20
12.000000
 30
0.000000
  8
3
 62
7
  6
L000000000000000000
  0
VERTEX
 10
47.000000
 20
12.000000
 30
0.000000
  8
3
 62
7
  6
L000000000000000000
  0
VERTEX
 10
47.000000
 20
12.900000
 30
0.000000
  8
3
 62
7
  6
L000000000000000000
  0
SEQEND
  0
POLYLINE
  8
3
 62
7
  6
L000000000000000000
 70
1
 66
1
  0
VERTEX
 10
45.000000
 20
12.900000
 30
0.000000
  8
3
 62
7
  6
L000000000000000000
  0
VERTEX
 10
45.000000
 20
12.000000
 30
0.000000
  8
3
 62
7
  6
L000000000000000000
  0
VERTEX
 10
45.800000
 20
12.000000
 30
0.000000
  8
3
 62
7
  6
L000000000000000000
  0
VERTEX
 10
45.800000
 20
12.900000
 30
0.000000
  8
3
 62
7
  6
L000000000000000000
  0
SEQEND
  0
POLYLINE
  8
3
 62
7
  6
L000000000000000000
 70
1
 66
1
  0
VERTEX
 10
48.600000
 20
14.200000
 30
0.000000
  8
3
 62
7
  6
L000000000000000000
  0
VERTEX
 10
48.600000
 20
13.300000
 30
0.000000
  8
3
 62
7
  6
L000000000000000000
  0
VERTEX
 10
49.400000
 20
13.300000
 30
0.000000
  8
3
 62
7
  6
L000000000000000000
  0
VERTEX
 10
49.400000
 20
14.200000
 30
0.000000
  8
3
 62
7
  6
L000000000000000000
  0
SEQEND
  0
POLYLINE
  8
3
 62
7
  6
L000000000000000000
 70
1
 66
1
  0
VERTEX
 10
47.400000
 20
14.200000
 30
0.000000
  8
3
 62
7
  6
L000000000000000000
  0
VERTEX
 10
47.400000
 20
13.300000
 30
0.000000
  8
3
 62
7
  6
L000000000000000000
  0
VERTEX
 10
48.200000
 20
13.300000
 30
0.000000
  8
3
 62
7
  6
L000000000000000000
  0
VERTEX
 10
48.200000
 20
14.200000
 30
0.000000
  8
3
 62
7
  6
L000000000000000000
  0
SEQEND
  0
POLYLINE
  8
3
 62
7
  6
L000000000000000000
 70
1
 66
1
  0
VERTEX
 10
46.200000
 20
14.200000
 30
0.000000
  8
3
 62
7
  6
L000000000000000000
  0
VERTEX
 10
46.200000
 20
13.300000
 30
0.000000
  8
3
 62
7
  6
L000000000000000000
  0
VERTEX
 10
47.000000
 20
13.300000
 30
0.000000
  8
3
 62
7
  6
L000000000000000000
  0
VERTEX
 10
47.000000
 20
14.200000
 30
0.000000
  8
3
 62
7
  6
L000000000000000000
  0
SEQEND
  0
POLYLINE
  8
3
 62
7
  6
L000000000000000000
 70
1
 66
1
  0
VERTEX
 10
45.000000
 20
14.200000
 30
0.000000
  8
3
 62
7
  6
L000000000000000000
  0
VERTEX
 10
45.000000
 20
13.300000
 30
0.000000
  8
3
 62
7
  6
L000000000000000000
  0
VERTEX
 10
45.800000
 20
13.300000
 30
0.000000
  8
3
 62
7
  6
L000000000000000000
  0
VERTEX
 10
45.800000
 20
14.200000
 30
0.000000
  8
3
 62
7
  6
L000000000000000000
  0
SEQEND
  0
POLYLINE
  8
3
 62
7
  6
L000000000000000000
 70
1
 66
1
  0
VERTEX
 10
48.600000
 20
6.400000
 30
0.000000
  8
3
 62
7
  6
L000000000000000000
  0
VERTEX
 10
48.600000
 20
5.500000
 30
0.000000
  8
3
 62
7
  6
L000000000000000000
  0
VERTEX
 10
49.400000
 20
5.500000
 30
0.000000
  8
3
 62
7
  6
L000000000000000000
  0
VERTEX
 10
49.400000
 20
6.400000
 30
0.000000
  8
3
 62
7
  6
L000000000000000000
  0
SEQEND
  0
POLYLINE
  8
3
 62
7
  6
L000000000000000000
 70
1
 66
1
  0
VERTEX
 10
47.400000
 20
6.400000
 30
0.000000
  8
3
 62
7
  6
L000000000000000000
  0
VERTEX
 10
47.400000
 20
5.500000
 30
0.000000
  8
3
 62
7
  6
L000000000000000000
  0
VERTEX
 10
48.200000
 20
5.500000
 30
0.000000
  8
3
 62
7
  6
L000000000000000000
  0
VERTEX
 10
48.200000
 20
6.400000
 30
0.000000
  8
3
 62
7
  6
L000000000000000000
  0
SEQEND
  0
POLYLINE
  8
3
 62
7
  6
L000000000000000000
 70
1
 66
1
  0
VERTEX
 10
46.200000
 20
6.400000
 30
0.000000
  8
3
 62
7
  6
L000000000000000000
  0
VERTEX
 10
46.200000
 20
5.500000
 30
0.000000
  8
3
 62
7
  6
L000000000000000000
  0
VERTEX
 10
47.000000
 20
5.500000
 30
0.000000
  8
3
 62
7
  6
L000000000000000000
  0
VERTEX
 10
47.000000
 20
6.400000
 30
0.000000
  8
3
 62
7
  6
L000000000000000000
  0
SEQEND
  0
POLYLINE
  8
3
 62
7
  6
L000000000000000000
 70
1
 66
1
  0
VERTEX
 10
45.000000
 20
6.400000
 30
0.000000
  8
3
 62
7
  6
L000000000000000000
  0
VERTEX
 10
45.000000
 20
5.500000
 30
0.000000
  8
3
 62
7
  6
L000000000000000000
  0
VERTEX
 10
45.800000
 20
5.500000
 30
0.000000
  8
3
 62
7
  6
L000000000000000000
  0
VERTEX
 10
45.800000
 20
6.400000
 30
0.000000
  8
3
 62
7
  6
L000000000000000000
  0
SEQEND
  0
POLYLINE
  8
3
 62
7
  6
L000000000000000000
 70
1
 66
1
  0
VERTEX
 10
48.600000
 20
7.700000
 30
0.000000
  8
3
 62
7
  6
L000000000000000000
  0
VERTEX
 10
48.600000
 20
6.800000
 30
0.000000
  8
3
 62
7
  6
L000000000000000000
  0
VERTEX
 10
49.400000
 20
6.800000
 30
0.000000
  8
3
 62
7
  6
L000000000000000000
  0
VERTEX
 10
49.400000
 20
7.700000
 30
0.000000
  8
3
 62
7
  6
L000000000000000000
  0
SEQEND
  0
POLYLINE
  8
3
 62
7
  6
L000000000000000000
 70
1
 66
1
  0
VERTEX
 10
47.400000
 20
7.700000
 30
0.000000
  8
3
 62
7
  6
L000000000000000000
  0
VERTEX
 10
47.400000
 20
6.800000
 30
0.000000
  8
3
 62
7
  6
L000000000000000000
  0
VERTEX
 10
48.200000
 20
6.800000
 30
0.000000
  8
3
 62
7
  6
L000000000000000000
  0
VERTEX
 10
48.200000
 20
7.700000
 30
0.000000
  8
3
 62
7
  6
L000000000000000000
  0
SEQEND
  0
POLYLINE
  8
3
 62
7
  6
L000000000000000000
 70
1
 66
1
  0
VERTEX
 10
46.200000
 20
7.700000
 30
0.000000
  8
3
 62
7
  6
L000000000000000000
  0
VERTEX
 10
46.200000
 20
6.800000
 30
0.000000
  8
3
 62
7
  6
L000000000000000000
  0
VERTEX
 10
47.000000
 20
6.800000
 30
0.000000
  8
3
 62
7
  6
L000000000000000000
  0
VERTEX
 10
47.000000
 20
7.700000
 30
0.000000
  8
3
 62
7
  6
L000000000000000000
  0
SEQEND
  0
POLYLINE
  8
3
 62
7
  6
L000000000000000000
 70
1
 66
1
  0
VERTEX
 10
45.000000
 20
7.700000
 30
0.000000
  8
3
 62
7
  6
L000000000000000000
  0
VERTEX
 10
45.000000
 20
6.800000
 30
0.000000
  8
3
 62
7
  6
L000000000000000000
  0
VERTEX
 10
45.800000
 20
6.800000
 30
0.000000
  8
3
 62
7
  6
L000000000000000000
  0
VERTEX
 10
45.800000
 20
7.700000
 30
0.000000
  8
3
 62
7
  6
L000000000000000000
  0
SEQEND
  0
POLYLINE
  8
3
 62
7
  6
L000000000000000000
 70
1
 66
1
  0
VERTEX
 10
48.600000
 20
9.000000
 30
0.000000
  8
3
 62
7
  6
L000000000000000000
  0
VERTEX
 10
48.600000
 20
8.100000
 30
0.000000
  8
3
 62
7
  6
L000000000000000000
  0
VERTEX
 10
49.400000
 20
8.100000
 30
0.000000
  8
3
 62
7
  6
L000000000000000000
  0
VERTEX
 10
49.400000
 20
9.000000
 30
0.000000
  8
3
 62
7
  6
L000000000000000000
  0
SEQEND
  0
POLYLINE
  8
3
 62
7
  6
L000000000000000000
 70
1
 66
1
  0
VERTEX
 10
47.400000
 20
9.000000
 30
0.000000
  8
3
 62
7
  6
L000000000000000000
  0
VERTEX
 10
47.400000
 20
8.100000
 30
0.000000
  8
3
 62
7
  6
L000000000000000000
  0
VERTEX
 10
48.200000
 20
8.100000
 30
0.000000
  8
3
 62
7
  6
L000000000000000000
  0
VERTEX
 10
48.200000
 20
9.000000
 30
0.000000
  8
3
 62
7
  6
L000000000000000000
  0
SEQEND
  0
POLYLINE
  8
3
 62
7
  6
L000000000000000000
 70
1
 66
1
  0
VERTEX
 10
46.200000
 20
9.000000
 30
0.000000
  8
3
 62
7
  6
L000000000000000000
  0
VERTEX
 10
46.200000
 20
8.100000
 30
0.000000
  8
3
 62
7
  6
L000000000000000000
  0
VERTEX
 10
47.000000
 20
8.100000
 30
0.000000
  8
3
 62
7
  6
L000000000000000000
  0
VERTEX
 10
47.000000
 20
9.000000
 30
0.000000
  8
3
 62
7
  6
L000000000000000000
  0
SEQEND
  0
POLYLINE
  8
3
 62
7
  6
L000000000000000000
 70
1
 66
1
  0
VERTEX
 10
45.000000
 20
9.000000
 30
0.000000
  8
3
 62
7
  6
L000000000000000000
  0
VERTEX
 10
45.000000
 20
8.100000
 30
0.000000
  8
3
 62
7
  6
L000000000000000000
  0
VERTEX
 10
45.800000
 20
8.100000
 30
0.000000
  8
3
 62
7
  6
L000000000000000000
  0
VERTEX
 10
45.800000
 20
9.000000
 30
0.000000
  8
3
 62
7
  6
L000000000000000000
  0
SEQEND
  0
POLYLINE
  8
3
 62
7
  6
L000000000000000000
 70
1
 66
1
  0
VERTEX
 10
48.600000
 20
1.200000
 30
0.000000
  8
3
 62
7
  6
L000000000000000000
  0
VERTEX
 10
48.600000
 20
0.300000
 30
0.000000
  8
3
 62
7
  6
L000000000000000000
  0
VERTEX
 10
49.400000
 20
0.300000
 30
0.000000
  8
3
 62
7
  6
L000000000000000000
  0
VERTEX
 10
49.400000
 20
1.200000
 30
0.000000
  8
3
 62
7
  6
L000000000000000000
  0
SEQEND
  0
POLYLINE
  8
3
 62
7
  6
L000000000000000000
 70
1
 66
1
  0
VERTEX
 10
47.400000
 20
1.200000
 30
0.000000
  8
3
 62
7
  6
L000000000000000000
  0
VERTEX
 10
47.400000
 20
0.300000
 30
0.000000
  8
3
 62
7
  6
L000000000000000000
  0
VERTEX
 10
48.200000
 20
0.300000
 30
0.000000
  8
3
 62
7
  6
L000000000000000000
  0
VERTEX
 10
48.200000
 20
1.200000
 30
0.000000
  8
3
 62
7
  6
L000000000000000000
  0
SEQEND
  0
POLYLINE
  8
3
 62
7
  6
L000000000000000000
 70
1
 66
1
  0
VERTEX
 10
46.200000
 20
1.200000
 30
0.000000
  8
3
 62
7
  6
L000000000000000000
  0
VERTEX
 10
46.200000
 20
0.300000
 30
0.000000
  8
3
 62
7
  6
L000000000000000000
  0
VERTEX
 10
47.000000
 20
0.300000
 30
0.000000
  8
3
 62
7
  6
L000000000000000000
  0
VERTEX
 10
47.000000
 20
1.200000
 30
0.000000
  8
3
 62
7
  6
L000000000000000000
  0
SEQEND
  0
POLYLINE
  8
3
 62
7
  6
L000000000000000000
 70
1
 66
1
  0
VERTEX
 10
48.600000
 20
2.500000
 30
0.000000
  8
3
 62
7
  6
L000000000000000000
  0
VERTEX
 10
48.600000
 20
1.600000
 30
0.000000
  8
3
 62
7
  6
L000000000000000000
  0
VERTEX
 10
49.400000
 20
1.600000
 30
0.000000
  8
3
 62
7
  6
L000000000000000000
  0
VERTEX
 10
49.400000
 20
2.500000
 30
0.000000
  8
3
 62
7
  6
L000000000000000000
  0
SEQEND
  0
POLYLINE
  8
3
 62
7
  6
L000000000000000000
 70
1
 66
1
  0
VERTEX
 10
47.400000
 20
2.500000
 30
0.000000
  8
3
 62
7
  6
L000000000000000000
  0
VERTEX
 10
47.400000
 20
1.600000
 30
0.000000
  8
3
 62
7
  6
L000000000000000000
  0
VERTEX
 10
48.200000
 20
1.600000
 30
0.000000
  8
3
 62
7
  6
L000000000000000000
  0
VERTEX
 10
48.200000
 20
2.500000
 30
0.000000
  8
3
 62
7
  6
L000000000000000000
  0
SEQEND
  0
POLYLINE
  8
3
 62
7
  6
L000000000000000000
 70
1
 66
1
  0
VERTEX
 10
46.200000
 20
2.500000
 30
0.000000
  8
3
 62
7
  6
L000000000000000000
  0
VERTEX
 10
46.200000
 20
1.600000
 30
0.000000
  8
3
 62
7
  6
L000000000000000000
  0
VERTEX
 10
47.000000
 20
1.600000
 30
0.000000
  8
3
 62
7
  6
L000000000000000000
  0
VERTEX
 10
47.000000
 20
2.500000
 30
0.000000
  8
3
 62
7
  6
L000000000000000000
  0
SEQEND
  0
POLYLINE
  8
3
 62
7
  6
L000000000000000000
 70
1
 66
1
  0
VERTEX
 10
48.600000
 20
3.800000
 30
0.000000
  8
3
 62
7
  6
L000000000000000000
  0
VERTEX
 10
48.600000
 20
2.900000
 30
0.000000
  8
3
 62
7
  6
L000000000000000000
  0
VERTEX
 10
49.400000
 20
2.900000
 30
0.000000
  8
3
 62
7
  6
L000000000000000000
  0
VERTEX
 10
49.400000
 20
3.800000
 30
0.000000
  8
3
 62
7
  6
L000000000000000000
  0
SEQEND
  0
POLYLINE
  8
3
 62
7
  6
L000000000000000000
 70
1
 66
1
  0
VERTEX
 10
47.400000
 20
3.800000
 30
0.000000
  8
3
 62
7
  6
L000000000000000000
  0
VERTEX
 10
47.400000
 20
2.900000
 30
0.000000
  8
3
 62
7
  6
L000000000000000000
  0
VERTEX
 10
48.200000
 20
2.900000
 30
0.000000
  8
3
 62
7
  6
L000000000000000000
  0
VERTEX
 10
48.200000
 20
3.800000
 30
0.000000
  8
3
 62
7
  6
L000000000000000000
  0
SEQEND
  0
POLYLINE
  8
3
 62
7
  6
L000000000000000000
 70
1
 66
1
  0
VERTEX
 10
46.200000
 20
3.800000
 30
0.000000
  8
3
 62
7
  6
L000000000000000000
  0
VERTEX
 10
46.200000
 20
2.900000
 30
0.000000
  8
3
 62
7
  6
L000000000000000000
  0
VERTEX
 10
47.000000
 20
2.900000
 30
0.000000
  8
3
 62
7
  6
L000000000000000000
  0
VERTEX
 10
47.000000
 20
3.800000
 30
0.000000
  8
3
 62
7
  6
L000000000000000000
  0
SEQEND
  0
POLYLINE
  8
3
 62
7
  6
L000000000000000000
 70
1
 66
1
  0
VERTEX
 10
48.600000
 20
5.100000
 30
0.000000
  8
3
 62
7
  6
L000000000000000000
  0
VERTEX
 10
48.600000
 20
4.200000
 30
0.000000
  8
3
 62
7
  6
L000000000000000000
  0
VERTEX
 10
49.400000
 20
4.200000
 30
0.000000
  8
3
 62
7
  6
L000000000000000000
  0
VERTEX
 10
49.400000
 20
5.100000
 30
0.000000
  8
3
 62
7
  6
L000000000000000000
  0
SEQEND
  0
POLYLINE
  8
3
 62
7
  6
L000000000000000000
 70
1
 66
1
  0
VERTEX
 10
47.400000
 20
5.100000
 30
0.000000
  8
3
 62
7
  6
L000000000000000000
  0
VERTEX
 10
47.400000
 20
4.200000
 30
0.000000
  8
3
 62
7
  6
L000000000000000000
  0
VERTEX
 10
48.200000
 20
4.200000
 30
0.000000
  8
3
 62
7
  6
L000000000000000000
  0
VERTEX
 10
48.200000
 20
5.100000
 30
0.000000
  8
3
 62
7
  6
L000000000000000000
  0
SEQEND
  0
POLYLINE
  8
3
 62
7
  6
L000000000000000000
 70
1
 66
1
  0
VERTEX
 10
46.200000
 20
5.100000
 30
0.000000
  8
3
 62
7
  6
L000000000000000000
  0
VERTEX
 10
46.200000
 20
4.200000
 30
0.000000
  8
3
 62
7
  6
L000000000000000000
  0
VERTEX
 10
47.000000
 20
4.200000
 30
0.000000
  8
3
 62
7
  6
L000000000000000000
  0
VERTEX
 10
47.000000
 20
5.100000
 30
0.000000
  8
3
 62
7
  6
L000000000000000000
  0
SEQEND
  0
POLYLINE
  8
3
 62
7
  6
L000000000000000000
 70
1
 66
1
  0
VERTEX
 10
45.000000
 20
1.200000
 30
0.000000
  8
3
 62
7
  6
L000000000000000000
  0
VERTEX
 10
45.000000
 20
0.300000
 30
0.000000
  8
3
 62
7
  6
L000000000000000000
  0
VERTEX
 10
45.800000
 20
0.300000
 30
0.000000
  8
3
 62
7
  6
L000000000000000000
  0
VERTEX
 10
45.800000
 20
1.200000
 30
0.000000
  8
3
 62
7
  6
L000000000000000000
  0
SEQEND
  0
POLYLINE
  8
3
 62
7
  6
L000000000000000000
 70
1
 66
1
  0
VERTEX
 10
43.800000
 20
1.200000
 30
0.000000
  8
3
 62
7
  6
L000000000000000000
  0
VERTEX
 10
43.800000
 20
0.300000
 30
0.000000
  8
3
 62
7
  6
L000000000000000000
  0
VERTEX
 10
44.600000
 20
0.300000
 30
0.000000
  8
3
 62
7
  6
L000000000000000000
  0
VERTEX
 10
44.600000
 20
1.200000
 30
0.000000
  8
3
 62
7
  6
L000000000000000000
  0
SEQEND
  0
POLYLINE
  8
3
 62
7
  6
L000000000000000000
 70
1
 66
1
  0
VERTEX
 10
42.600000
 20
1.200000
 30
0.000000
  8
3
 62
7
  6
L000000000000000000
  0
VERTEX
 10
42.600000
 20
0.300000
 30
0.000000
  8
3
 62
7
  6
L000000000000000000
  0
VERTEX
 10
43.400000
 20
0.300000
 30
0.000000
  8
3
 62
7
  6
L000000000000000000
  0
VERTEX
 10
43.400000
 20
1.200000
 30
0.000000
  8
3
 62
7
  6
L000000000000000000
  0
SEQEND
  0
POLYLINE
  8
3
 62
7
  6
L000000000000000000
 70
1
 66
1
  0
VERTEX
 10
41.400000
 20
1.200000
 30
0.000000
  8
3
 62
7
  6
L000000000000000000
  0
VERTEX
 10
41.400000
 20
0.300000
 30
0.000000
  8
3
 62
7
  6
L000000000000000000
  0
VERTEX
 10
42.200000
 20
0.300000
 30
0.000000
  8
3
 62
7
  6
L000000000000000000
  0
VERTEX
 10
42.200000
 20
1.200000
 30
0.000000
  8
3
 62
7
  6
L000000000000000000
  0
SEQEND
  0
POLYLINE
  8
3
 62
7
  6
L000000000000000000
 70
1
 66
1
  0
VERTEX
 10
45.000000
 20
2.500000
 30
0.000000
  8
3
 62
7
  6
L000000000000000000
  0
VERTEX
 10
45.000000
 20
1.600000
 30
0.000000
  8
3
 62
7
  6
L000000000000000000
  0
VERTEX
 10
45.800000
 20
1.600000
 30
0.000000
  8
3
 62
7
  6
L000000000000000000
  0
VERTEX
 10
45.800000
 20
2.500000
 30
0.000000
  8
3
 62
7
  6
L000000000000000000
  0
SEQEND
  0
POLYLINE
  8
3
 62
7
  6
L000000000000000000
 70
1
 66
1
  0
VERTEX
 10
43.800000
 20
2.500000
 30
0.000000
  8
3
 62
7
  6
L000000000000000000
  0
VERTEX
 10
43.800000
 20
1.600000
 30
0.000000
  8
3
 62
7
  6
L000000000000000000
  0
VERTEX
 10
44.600000
 20
1.600000
 30
0.000000
  8
3
 62
7
  6
L000000000000000000
  0
VERTEX
 10
44.600000
 20
2.500000
 30
0.000000
  8
3
 62
7
  6
L000000000000000000
  0
SEQEND
  0
POLYLINE
  8
3
 62
7
  6
L000000000000000000
 70
1
 66
1
  0
VERTEX
 10
42.600000
 20
2.500000
 30
0.000000
  8
3
 62
7
  6
L000000000000000000
  0
VERTEX
 10
42.600000
 20
1.600000
 30
0.000000
  8
3
 62
7
  6
L000000000000000000
  0
VERTEX
 10
43.400000
 20
1.600000
 30
0.000000
  8
3
 62
7
  6
L000000000000000000
  0
VERTEX
 10
43.400000
 20
2.500000
 30
0.000000
  8
3
 62
7
  6
L000000000000000000
  0
SEQEND
  0
POLYLINE
  8
3
 62
7
  6
L000000000000000000
 70
1
 66
1
  0
VERTEX
 10
41.400000
 20
2.500000
 30
0.000000
  8
3
 62
7
  6
L000000000000000000
  0
VERTEX
 10
41.400000
 20
1.600000
 30
0.000000
  8
3
 62
7
  6
L000000000000000000
  0
VERTEX
 10
42.200000
 20
1.600000
 30
0.000000
  8
3
 62
7
  6
L000000000000000000
  0
VERTEX
 10
42.200000
 20
2.500000
 30
0.000000
  8
3
 62
7
  6
L000000000000000000
  0
SEQEND
  0
POLYLINE
  8
3
 62
7
  6
L000000000000000000
 70
1
 66
1
  0
VERTEX
 10
45.000000
 20
3.800000
 30
0.000000
  8
3
 62
7
  6
L000000000000000000
  0
VERTEX
 10
45.000000
 20
2.900000
 30
0.000000
  8
3
 62
7
  6
L000000000000000000
  0
VERTEX
 10
45.800000
 20
2.900000
 30
0.000000
  8
3
 62
7
  6
L000000000000000000
  0
VERTEX
 10
45.800000
 20
3.800000
 30
0.000000
  8
3
 62
7
  6
L000000000000000000
  0
SEQEND
  0
POLYLINE
  8
3
 62
7
  6
L000000000000000000
 70
1
 66
1
  0
VERTEX
 10
43.800000
 20
3.800000
 30
0.000000
  8
3
 62
7
  6
L000000000000000000
  0
VERTEX
 10
43.800000
 20
2.900000
 30
0.000000
  8
3
 62
7
  6
L000000000000000000
  0
VERTEX
 10
44.600000
 20
2.900000
 30
0.000000
  8
3
 62
7
  6
L000000000000000000
  0
VERTEX
 10
44.600000
 20
3.800000
 30
0.000000
  8
3
 62
7
  6
L000000000000000000
  0
SEQEND
  0
POLYLINE
  8
3
 62
7
  6
L000000000000000000
 70
1
 66
1
  0
VERTEX
 10
42.600000
 20
3.800000
 30
0.000000
  8
3
 62
7
  6
L000000000000000000
  0
VERTEX
 10
42.600000
 20
2.900000
 30
0.000000
  8
3
 62
7
  6
L000000000000000000
  0
VERTEX
 10
43.400000
 20
2.900000
 30
0.000000
  8
3
 62
7
  6
L000000000000000000
  0
VERTEX
 10
43.400000
 20
3.800000
 30
0.000000
  8
3
 62
7
  6
L000000000000000000
  0
SEQEND
  0
POLYLINE
  8
3
 62
7
  6
L000000000000000000
 70
1
 66
1
  0
VERTEX
 10
41.400000
 20
3.800000
 30
0.000000
  8
3
 62
7
  6
L000000000000000000
  0
VERTEX
 10
41.400000
 20
2.900000
 30
0.000000
  8
3
 62
7
  6
L000000000000000000
  0
VERTEX
 10
42.200000
 20
2.900000
 30
0.000000
  8
3
 62
7
  6
L000000000000000000
  0
VERTEX
 10
42.200000
 20
3.800000
 30
0.000000
  8
3
 62
7
  6
L000000000000000000
  0
SEQEND
  0
POLYLINE
  8
3
 62
7
  6
L000000000000000000
 70
1
 66
1
  0
VERTEX
 10
45.000000
 20
5.100000
 30
0.000000
  8
3
 62
7
  6
L000000000000000000
  0
VERTEX
 10
45.000000
 20
4.200000
 30
0.000000
  8
3
 62
7
  6
L000000000000000000
  0
VERTEX
 10
45.800000
 20
4.200000
 30
0.000000
  8
3
 62
7
  6
L000000000000000000
  0
VERTEX
 10
45.800000
 20
5.100000
 30
0.000000
  8
3
 62
7
  6
L000000000000000000
  0
SEQEND
  0
POLYLINE
  8
3
 62
7
  6
L000000000000000000
 70
1
 66
1
  0
VERTEX
 10
43.800000
 20
5.100000
 30
0.000000
  8
3
 62
7
  6
L000000000000000000
  0
VERTEX
 10
43.800000
 20
4.200000
 30
0.000000
  8
3
 62
7
  6
L000000000000000000
  0
VERTEX
 10
44.600000
 20
4.200000
 30
0.000000
  8
3
 62
7
  6
L000000000000000000
  0
VERTEX
 10
44.600000
 20
5.100000
 30
0.000000
  8
3
 62
7
  6
L000000000000000000
  0
SEQEND
  0
POLYLINE
  8
3
 62
7
  6
L000000000000000000
 70
1
 66
1
  0
VERTEX
 10
42.600000
 20
5.100000
 30
0.000000
  8
3
 62
7
  6
L000000000000000000
  0
VERTEX
 10
42.600000
 20
4.200000
 30
0.000000
  8
3
 62
7
  6
L000000000000000000
  0
VERTEX
 10
43.400000
 20
4.200000
 30
0.000000
  8
3
 62
7
  6
L000000000000000000
  0
VERTEX
 10
43.400000
 20
5.100000
 30
0.000000
  8
3
 62
7
  6
L000000000000000000
  0
SEQEND
  0
POLYLINE
  8
3
 62
7
  6
L000000000000000000
 70
1
 66
1
  0
VERTEX
 10
41.400000
 20
5.100000
 30
0.000000
  8
3
 62
7
  6
L000000000000000000
  0
VERTEX
 10
41.400000
 20
4.200000
 30
0.000000
  8
3
 62
7
  6
L000000000000000000
  0
VERTEX
 10
42.200000
 20
4.200000
 30
0.000000
  8
3
 62
7
  6
L000000000000000000
  0
VERTEX
 10
42.200000
 20
5.100000
 30
0.000000
  8
3
 62
7
  6
L000000000000000000
  0
SEQEND
  0
POLYLINE
  8
3
 62
7
  6
L000000000000000000
 70
1
 66
1
  0
VERTEX
 10
40.200000
 20
1.200000
 30
0.000000
  8
3
 62
7
  6
L000000000000000000
  0
VERTEX
 10
40.200000
 20
0.300000
 30
0.000000
  8
3
 62
7
  6
L000000000000000000
  0
VERTEX
 10
41.000000
 20
0.300000
 30
0.000000
  8
3
 62
7
  6
L000000000000000000
  0
VERTEX
 10
41.000000
 20
1.200000
 30
0.000000
  8
3
 62
7
  6
L000000000000000000
  0
SEQEND
  0
POLYLINE
  8
3
 62
7
  6
L000000000000000000
 70
1
 66
1
  0
VERTEX
 10
39.000000
 20
1.200000
 30
0.000000
  8
3
 62
7
  6
L000000000000000000
  0
VERTEX
 10
39.000000
 20
0.300000
 30
0.000000
  8
3
 62
7
  6
L000000000000000000
  0
VERTEX
 10
39.800000
 20
0.300000
 30
0.000000
  8
3
 62
7
  6
L000000000000000000
  0
VERTEX
 10
39.800000
 20
1.200000
 30
0.000000
  8
3
 62
7
  6
L000000000000000000
  0
SEQEND
  0
POLYLINE
  8
3
 62
7
  6
L000000000000000000
 70
1
 66
1
  0
VERTEX
 10
37.800000
 20
1.200000
 30
0.000000
  8
3
 62
7
  6
L000000000000000000
  0
VERTEX
 10
37.800000
 20
0.300000
 30
0.000000
  8
3
 62
7
  6
L000000000000000000
  0
VERTEX
 10
38.600000
 20
0.300000
 30
0.000000
  8
3
 62
7
  6
L000000000000000000
  0
VERTEX
 10
38.600000
 20
1.200000
 30
0.000000
  8
3
 62
7
  6
L000000000000000000
  0
SEQEND
  0
POLYLINE
  8
3
 62
7
  6
L000000000000000000
 70
1
 66
1
  0
VERTEX
 10
36.600000
 20
1.200000
 30
0.000000
  8
3
 62
7
  6
L000000000000000000
  0
VERTEX
 10
36.600000
 20
0.300000
 30
0.000000
  8
3
 62
7
  6
L000000000000000000
  0
VERTEX
 10
37.400000
 20
0.300000
 30
0.000000
  8
3
 62
7
  6
L000000000000000000
  0
VERTEX
 10
37.400000
 20
1.200000
 30
0.000000
  8
3
 62
7
  6
L000000000000000000
  0
SEQEND
  0
POLYLINE
  8
3
 62
7
  6
L000000000000000000
 70
1
 66
1
  0
VERTEX
 10
40.200000
 20
2.500000
 30
0.000000
  8
3
 62
7
  6
L000000000000000000
  0
VERTEX
 10
40.200000
 20
1.600000
 30
0.000000
  8
3
 62
7
  6
L000000000000000000
  0
VERTEX
 10
41.000000
 20
1.600000
 30
0.000000
  8
3
 62
7
  6
L000000000000000000
  0
VERTEX
 10
41.000000
 20
2.500000
 30
0.000000
  8
3
 62
7
  6
L000000000000000000
  0
SEQEND
  0
POLYLINE
  8
3
 62
7
  6
L000000000000000000
 70
1
 66
1
  0
VERTEX
 10
39.000000
 20
2.500000
 30
0.000000
  8
3
 62
7
  6
L000000000000000000
  0
VERTEX
 10
39.000000
 20
1.600000
 30
0.000000
  8
3
 62
7
  6
L000000000000000000
  0
VERTEX
 10
39.800000
 20
1.600000
 30
0.000000
  8
3
 62
7
  6
L000000000000000000
  0
VERTEX
 10
39.800000
 20
2.500000
 30
0.000000
  8
3
 62
7
  6
L000000000000000000
  0
SEQEND
  0
POLYLINE
  8
3
 62
7
  6
L000000000000000000
 70
1
 66
1
  0
VERTEX
 10
37.800000
 20
2.500000
 30
0.000000
  8
3
 62
7
  6
L000000000000000000
  0
VERTEX
 10
37.800000
 20
1.600000
 30
0.000000
  8
3
 62
7
  6
L000000000000000000
  0
VERTEX
 10
38.600000
 20
1.600000
 30
0.000000
  8
3
 62
7
  6
L000000000000000000
  0
VERTEX
 10
38.600000
 20
2.500000
 30
0.000000
  8
3
 62
7
  6
L000000000000000000
  0
SEQEND
  0
POLYLINE
  8
3
 62
7
  6
L000000000000000000
 70
1
 66
1
  0
VERTEX
 10
36.600000
 20
2.500000
 30
0.000000
  8
3
 62
7
  6
L000000000000000000
  0
VERTEX
 10
36.600000
 20
1.600000
 30
0.000000
  8
3
 62
7
  6
L000000000000000000
  0
VERTEX
 10
37.400000
 20
1.600000
 30
0.000000
  8
3
 62
7
  6
L000000000000000000
  0
VERTEX
 10
37.400000
 20
2.500000
 30
0.000000
  8
3
 62
7
  6
L000000000000000000
  0
SEQEND
  0
POLYLINE
  8
3
 62
7
  6
L000000000000000000
 70
1
 66
1
  0
VERTEX
 10
40.200000
 20
3.800000
 30
0.000000
  8
3
 62
7
  6
L000000000000000000
  0
VERTEX
 10
40.200000
 20
2.900000
 30
0.000000
  8
3
 62
7
  6
L000000000000000000
  0
VERTEX
 10
41.000000
 20
2.900000
 30
0.000000
  8
3
 62
7
  6
L000000000000000000
  0
VERTEX
 10
41.000000
 20
3.800000
 30
0.000000
  8
3
 62
7
  6
L000000000000000000
  0
SEQEND
  0
POLYLINE
  8
3
 62
7
  6
L000000000000000000
 70
1
 66
1
  0
VERTEX
 10
39.000000
 20
3.800000
 30
0.000000
  8
3
 62
7
  6
L000000000000000000
  0
VERTEX
 10
39.000000
 20
2.900000
 30
0.000000
  8
3
 62
7
  6
L000000000000000000
  0
VERTEX
 10
39.800000
 20
2.900000
 30
0.000000
  8
3
 62
7
  6
L000000000000000000
  0
VERTEX
 10
39.800000
 20
3.800000
 30
0.000000
  8
3
 62
7
  6
L000000000000000000
  0
SEQEND
  0
POLYLINE
  8
3
 62
7
  6
L000000000000000000
 70
1
 66
1
  0
VERTEX
 10
37.800000
 20
3.800000
 30
0.000000
  8
3
 62
7
  6
L000000000000000000
  0
VERTEX
 10
37.800000
 20
2.900000
 30
0.000000
  8
3
 62
7
  6
L000000000000000000
  0
VERTEX
 10
38.600000
 20
2.900000
 30
0.000000
  8
3
 62
7
  6
L000000000000000000
  0
VERTEX
 10
38.600000
 20
3.800000
 30
0.000000
  8
3
 62
7
  6
L000000000000000000
  0
SEQEND
  0
POLYLINE
  8
3
 62
7
  6
L000000000000000000
 70
1
 66
1
  0
VERTEX
 10
36.600000
 20
3.800000
 30
0.000000
  8
3
 62
7
  6
L000000000000000000
  0
VERTEX
 10
36.600000
 20
2.900000
 30
0.000000
  8
3
 62
7
  6
L000000000000000000
  0
VERTEX
 10
37.400000
 20
2.900000
 30
0.000000
  8
3
 62
7
  6
L000000000000000000
  0
VERTEX
 10
37.400000
 20
3.800000
 30
0.000000
  8
3
 62
7
  6
L000000000000000000
  0
SEQEND
  0
POLYLINE
  8
3
 62
7
  6
L000000000000000000
 70
1
 66
1
  0
VERTEX
 10
40.200000
 20
5.100000
 30
0.000000
  8
3
 62
7
  6
L000000000000000000
  0
VERTEX
 10
40.200000
 20
4.200000
 30
0.000000
  8
3
 62
7
  6
L000000000000000000
  0
VERTEX
 10
41.000000
 20
4.200000
 30
0.000000
  8
3
 62
7
  6
L000000000000000000
  0
VERTEX
 10
41.000000
 20
5.100000
 30
0.000000
  8
3
 62
7
  6
L000000000000000000
  0
SEQEND
  0
POLYLINE
  8
3
 62
7
  6
L000000000000000000
 70
1
 66
1
  0
VERTEX
 10
39.000000
 20
5.100000
 30
0.000000
  8
3
 62
7
  6
L000000000000000000
  0
VERTEX
 10
39.000000
 20
4.200000
 30
0.000000
  8
3
 62
7
  6
L000000000000000000
  0
VERTEX
 10
39.800000
 20
4.200000
 30
0.000000
  8
3
 62
7
  6
L000000000000000000
  0
VERTEX
 10
39.800000
 20
5.100000
 30
0.000000
  8
3
 62
7
  6
L000000000000000000
  0
SEQEND
  0
POLYLINE
  8
3
 62
7
  6
L000000000000000000
 70
1
 66
1
  0
VERTEX
 10
37.800000
 20
5.100000
 30
0.000000
  8
3
 62
7
  6
L000000000000000000
  0
VERTEX
 10
37.800000
 20
4.200000
 30
0.000000
  8
3
 62
7
  6
L000000000000000000
  0
VERTEX
 10
38.600000
 20
4.200000
 30
0.000000
  8
3
 62
7
  6
L000000000000000000
  0
VERTEX
 10
38.600000
 20
5.100000
 30
0.000000
  8
3
 62
7
  6
L000000000000000000
  0
SEQEND
  0
POLYLINE
  8
3
 62
7
  6
L000000000000000000
 70
1
 66
1
  0
VERTEX
 10
36.600000
 20
5.100000
 30
0.000000
  8
3
 62
7
  6
L000000000000000000
  0
VERTEX
 10
36.600000
 20
4.200000
 30
0.000000
  8
3
 62
7
  6
L000000000000000000
  0
VERTEX
 10
37.400000
 20
4.200000
 30
0.000000
  8
3
 62
7
  6
L000000000000000000
  0
VERTEX
 10
37.400000
 20
5.100000
 30
0.000000
  8
3
 62
7
  6
L000000000000000000
  0
SEQEND
  0
POLYLINE
  8
3
 62
7
  6
L000000000000000000
 70
1
 66
1
  0
VERTEX
 10
35.400000
 20
1.200000
 30
0.000000
  8
3
 62
7
  6
L000000000000000000
  0
VERTEX
 10
35.400000
 20
0.300000
 30
0.000000
  8
3
 62
7
  6
L000000000000000000
  0
VERTEX
 10
36.200000
 20
0.300000
 30
0.000000
  8
3
 62
7
  6
L000000000000000000
  0
VERTEX
 10
36.200000
 20
1.200000
 30
0.000000
  8
3
 62
7
  6
L000000000000000000
  0
SEQEND
  0
POLYLINE
  8
3
 62
7
  6
L000000000000000000
 70
1
 66
1
  0
VERTEX
 10
34.200000
 20
1.200000
 30
0.000000
  8
3
 62
7
  6
L000000000000000000
  0
VERTEX
 10
34.200000
 20
0.300000
 30
0.000000
  8
3
 62
7
  6
L000000000000000000
  0
VERTEX
 10
35.000000
 20
0.300000
 30
0.000000
  8
3
 62
7
  6
L000000000000000000
  0
VERTEX
 10
35.000000
 20
1.200000
 30
0.000000
  8
3
 62
7
  6
L000000000000000000
  0
SEQEND
  0
POLYLINE
  8
3
 62
7
  6
L000000000000000000
 70
1
 66
1
  0
VERTEX
 10
33.000000
 20
1.200000
 30
0.000000
  8
3
 62
7
  6
L000000000000000000
  0
VERTEX
 10
33.000000
 20
0.300000
 30
0.000000
  8
3
 62
7
  6
L000000000000000000
  0
VERTEX
 10
33.800000
 20
0.300000
 30
0.000000
  8
3
 62
7
  6
L000000000000000000
  0
VERTEX
 10
33.800000
 20
1.200000
 30
0.000000
  8
3
 62
7
  6
L000000000000000000
  0
SEQEND
  0
POLYLINE
  8
3
 62
7
  6
L000000000000000000
 70
1
 66
1
  0
VERTEX
 10
31.800000
 20
1.200000
 30
0.000000
  8
3
 62
7
  6
L000000000000000000
  0
VERTEX
 10
31.800000
 20
0.300000
 30
0.000000
  8
3
 62
7
  6
L000000000000000000
  0
VERTEX
 10
32.600000
 20
0.300000
 30
0.000000
  8
3
 62
7
  6
L000000000000000000
  0
VERTEX
 10
32.600000
 20
1.200000
 30
0.000000
  8
3
 62
7
  6
L000000000000000000
  0
SEQEND
  0
POLYLINE
  8
3
 62
7
  6
L000000000000000000
 70
1
 66
1
  0
VERTEX
 10
35.400000
 20
2.500000
 30
0.000000
  8
3
 62
7
  6
L000000000000000000
  0
VERTEX
 10
35.400000
 20
1.600000
 30
0.000000
  8
3
 62
7
  6
L000000000000000000
  0
VERTEX
 10
36.200000
 20
1.600000
 30
0.000000
  8
3
 62
7
  6
L000000000000000000
  0
VERTEX
 10
36.200000
 20
2.500000
 30
0.000000
  8
3
 62
7
  6
L000000000000000000
  0
SEQEND
  0
POLYLINE
  8
3
 62
7
  6
L000000000000000000
 70
1
 66
1
  0
VERTEX
 10
34.200000
 20
2.500000
 30
0.000000
  8
3
 62
7
  6
L000000000000000000
  0
VERTEX
 10
34.200000
 20
1.600000
 30
0.000000
  8
3
 62
7
  6
L000000000000000000
  0
VERTEX
 10
35.000000
 20
1.600000
 30
0.000000
  8
3
 62
7
  6
L000000000000000000
  0
VERTEX
 10
35.000000
 20
2.500000
 30
0.000000
  8
3
 62
7
  6
L000000000000000000
  0
SEQEND
  0
POLYLINE
  8
3
 62
7
  6
L000000000000000000
 70
1
 66
1
  0
VERTEX
 10
33.000000
 20
2.500000
 30
0.000000
  8
3
 62
7
  6
L000000000000000000
  0
VERTEX
 10
33.000000
 20
1.600000
 30
0.000000
  8
3
 62
7
  6
L000000000000000000
  0
VERTEX
 10
33.800000
 20
1.600000
 30
0.000000
  8
3
 62
7
  6
L000000000000000000
  0
VERTEX
 10
33.800000
 20
2.500000
 30
0.000000
  8
3
 62
7
  6
L000000000000000000
  0
SEQEND
  0
POLYLINE
  8
3
 62
7
  6
L000000000000000000
 70
1
 66
1
  0
VERTEX
 10
31.800000
 20
2.500000
 30
0.000000
  8
3
 62
7
  6
L000000000000000000
  0
VERTEX
 10
31.800000
 20
1.600000
 30
0.000000
  8
3
 62
7
  6
L000000000000000000
  0
VERTEX
 10
32.600000
 20
1.600000
 30
0.000000
  8
3
 62
7
  6
L000000000000000000
  0
VERTEX
 10
32.600000
 20
2.500000
 30
0.000000
  8
3
 62
7
  6
L000000000000000000
  0
SEQEND
  0
POLYLINE
  8
3
 62
7
  6
L000000000000000000
 70
1
 66
1
  0
VERTEX
 10
35.400000
 20
3.800000
 30
0.000000
  8
3
 62
7
  6
L000000000000000000
  0
VERTEX
 10
35.400000
 20
2.900000
 30
0.000000
  8
3
 62
7
  6
L000000000000000000
  0
VERTEX
 10
36.200000
 20
2.900000
 30
0.000000
  8
3
 62
7
  6
L000000000000000000
  0
VERTEX
 10
36.200000
 20
3.800000
 30
0.000000
  8
3
 62
7
  6
L000000000000000000
  0
SEQEND
  0
POLYLINE
  8
3
 62
7
  6
L000000000000000000
 70
1
 66
1
  0
VERTEX
 10
34.200000
 20
3.800000
 30
0.000000
  8
3
 62
7
  6
L000000000000000000
  0
VERTEX
 10
34.200000
 20
2.900000
 30
0.000000
  8
3
 62
7
  6
L000000000000000000
  0
VERTEX
 10
35.000000
 20
2.900000
 30
0.000000
  8
3
 62
7
  6
L000000000000000000
  0
VERTEX
 10
35.000000
 20
3.800000
 30
0.000000
  8
3
 62
7
  6
L000000000000000000
  0
SEQEND
  0
POLYLINE
  8
3
 62
7
  6
L000000000000000000
 70
1
 66
1
  0
VERTEX
 10
33.000000
 20
3.800000
 30
0.000000
  8
3
 62
7
  6
L000000000000000000
  0
VERTEX
 10
33.000000
 20
2.900000
 30
0.000000
  8
3
 62
7
  6
L000000000000000000
  0
VERTEX
 10
33.800000
 20
2.900000
 30
0.000000
  8
3
 62
7
  6
L000000000000000000
  0
VERTEX
 10
33.800000
 20
3.800000
 30
0.000000
  8
3
 62
7
  6
L000000000000000000
  0
SEQEND
  0
POLYLINE
  8
3
 62
7
  6
L000000000000000000
 70
1
 66
1
  0
VERTEX
 10
31.800000
 20
3.800000
 30
0.000000
  8
3
 62
7
  6
L000000000000000000
  0
VERTEX
 10
31.800000
 20
2.900000
 30
0.000000
  8
3
 62
7
  6
L000000000000000000
  0
VERTEX
 10
32.600000
 20
2.900000
 30
0.000000
  8
3
 62
7
  6
L000000000000000000
  0
VERTEX
 10
32.600000
 20
3.800000
 30
0.000000
  8
3
 62
7
  6
L000000000000000000
  0
SEQEND
  0
POLYLINE
  8
3
 62
7
  6
L000000000000000000
 70
1
 66
1
  0
VERTEX
 10
35.400000
 20
5.100000
 30
0.000000
  8
3
 62
7
  6
L000000000000000000
  0
VERTEX
 10
35.400000
 20
4.200000
 30
0.000000
  8
3
 62
7
  6
L000000000000000000
  0
VERTEX
 10
36.200000
 20
4.200000
 30
0.000000
  8
3
 62
7
  6
L000000000000000000
  0
VERTEX
 10
36.200000
 20
5.100000
 30
0.000000
  8
3
 62
7
  6
L000000000000000000
  0
SEQEND
  0
POLYLINE
  8
3
 62
7
  6
L000000000000000000
 70
1
 66
1
  0
VERTEX
 10
34.200000
 20
5.100000
 30
0.000000
  8
3
 62
7
  6
L000000000000000000
  0
VERTEX
 10
34.200000
 20
4.200000
 30
0.000000
  8
3
 62
7
  6
L000000000000000000
  0
VERTEX
 10
35.000000
 20
4.200000
 30
0.000000
  8
3
 62
7
  6
L000000000000000000
  0
VERTEX
 10
35.000000
 20
5.100000
 30
0.000000
  8
3
 62
7
  6
L000000000000000000
  0
SEQEND
  0
POLYLINE
  8
3
 62
7
  6
L000000000000000000
 70
1
 66
1
  0
VERTEX
 10
33.000000
 20
5.100000
 30
0.000000
  8
3
 62
7
  6
L000000000000000000
  0
VERTEX
 10
33.000000
 20
4.200000
 30
0.000000
  8
3
 62
7
  6
L000000000000000000
  0
VERTEX
 10
33.800000
 20
4.200000
 30
0.000000
  8
3
 62
7
  6
L000000000000000000
  0
VERTEX
 10
33.800000
 20
5.100000
 30
0.000000
  8
3
 62
7
  6
L000000000000000000
  0
SEQEND
  0
POLYLINE
  8
3
 62
7
  6
L000000000000000000
 70
1
 66
1
  0
VERTEX
 10
31.800000
 20
5.100000
 30
0.000000
  8
3
 62
7
  6
L000000000000000000
  0
VERTEX
 10
31.800000
 20
4.200000
 30
0.000000
  8
3
 62
7
  6
L000000000000000000
  0
VERTEX
 10
32.600000
 20
4.200000
 30
0.000000
  8
3
 62
7
  6
L000000000000000000
  0
VERTEX
 10
32.600000
 20
5.100000
 30
0.000000
  8
3
 62
7
  6
L000000000000000000
  0
SEQEND
  0
POLYLINE
  8
3
 62
7
  6
L000000000000000000
 70
1
 66
1
  0
VERTEX
 10
30.600000
 20
1.200000
 30
0.000000
  8
3
 62
7
  6
L000000000000000000
  0
VERTEX
 10
30.600000
 20
0.300000
 30
0.000000
  8
3
 62
7
  6
L000000000000000000
  0
VERTEX
 10
31.400000
 20
0.300000
 30
0.000000
  8
3
 62
7
  6
L000000000000000000
  0
VERTEX
 10
31.400000
 20
1.200000
 30
0.000000
  8
3
 62
7
  6
L000000000000000000
  0
SEQEND
  0
POLYLINE
  8
3
 62
7
  6
L000000000000000000
 70
1
 66
1
  0
VERTEX
 10
29.400000
 20
1.200000
 30
0.000000
  8
3
 62
7
  6
L000000000000000000
  0
VERTEX
 10
29.400000
 20
0.300000
 30
0.000000
  8
3
 62
7
  6
L000000000000000000
  0
VERTEX
 10
30.200000
 20
0.300000
 30
0.000000
  8
3
 62
7
  6
L000000000000000000
  0
VERTEX
 10
30.200000
 20
1.200000
 30
0.000000
  8
3
 62
7
  6
L000000000000000000
  0
SEQEND
  0
POLYLINE
  8
3
 62
7
  6
L000000000000000000
 70
1
 66
1
  0
VERTEX
 10
28.200000
 20
1.200000
 30
0.000000
  8
3
 62
7
  6
L000000000000000000
  0
VERTEX
 10
28.200000
 20
0.300000
 30
0.000000
  8
3
 62
7
  6
L000000000000000000
  0
VERTEX
 10
29.000000
 20
0.300000
 30
0.000000
  8
3
 62
7
  6
L000000000000000000
  0
VERTEX
 10
29.000000
 20
1.200000
 30
0.000000
  8
3
 62
7
  6
L000000000000000000
  0
SEQEND
  0
POLYLINE
  8
3
 62
7
  6
L000000000000000000
 70
1
 66
1
  0
VERTEX
 10
27.000000
 20
1.200000
 30
0.000000
  8
3
 62
7
  6
L000000000000000000
  0
VERTEX
 10
27.000000
 20
0.300000
 30
0.000000
  8
3
 62
7
  6
L000000000000000000
  0
VERTEX
 10
27.800000
 20
0.300000
 30
0.000000
  8
3
 62
7
  6
L000000000000000000
  0
VERTEX
 10
27.800000
 20
1.200000
 30
0.000000
  8
3
 62
7
  6
L000000000000000000
  0
SEQEND
  0
POLYLINE
  8
3
 62
7
  6
L000000000000000000
 70
1
 66
1
  0
VERTEX
 10
30.600000
 20
2.500000
 30
0.000000
  8
3
 62
7
  6
L000000000000000000
  0
VERTEX
 10
30.600000
 20
1.600000
 30
0.000000
  8
3
 62
7
  6
L000000000000000000
  0
VERTEX
 10
31.400000
 20
1.600000
 30
0.000000
  8
3
 62
7
  6
L000000000000000000
  0
VERTEX
 10
31.400000
 20
2.500000
 30
0.000000
  8
3
 62
7
  6
L000000000000000000
  0
SEQEND
  0
POLYLINE
  8
3
 62
7
  6
L000000000000000000
 70
1
 66
1
  0
VERTEX
 10
29.400000
 20
2.500000
 30
0.000000
  8
3
 62
7
  6
L000000000000000000
  0
VERTEX
 10
29.400000
 20
1.600000
 30
0.000000
  8
3
 62
7
  6
L000000000000000000
  0
VERTEX
 10
30.200000
 20
1.600000
 30
0.000000
  8
3
 62
7
  6
L000000000000000000
  0
VERTEX
 10
30.200000
 20
2.500000
 30
0.000000
  8
3
 62
7
  6
L000000000000000000
  0
SEQEND
  0
POLYLINE
  8
3
 62
7
  6
L000000000000000000
 70
1
 66
1
  0
VERTEX
 10
28.200000
 20
2.500000
 30
0.000000
  8
3
 62
7
  6
L000000000000000000
  0
VERTEX
 10
28.200000
 20
1.600000
 30
0.000000
  8
3
 62
7
  6
L000000000000000000
  0
VERTEX
 10
29.000000
 20
1.600000
 30
0.000000
  8
3
 62
7
  6
L000000000000000000
  0
VERTEX
 10
29.000000
 20
2.500000
 30
0.000000
  8
3
 62
7
  6
L000000000000000000
  0
SEQEND
  0
POLYLINE
  8
3
 62
7
  6
L000000000000000000
 70
1
 66
1
  0
VERTEX
 10
27.000000
 20
2.500000
 30
0.000000
  8
3
 62
7
  6
L000000000000000000
  0
VERTEX
 10
27.000000
 20
1.600000
 30
0.000000
  8
3
 62
7
  6
L000000000000000000
  0
VERTEX
 10
27.800000
 20
1.600000
 30
0.000000
  8
3
 62
7
  6
L000000000000000000
  0
VERTEX
 10
27.800000
 20
2.500000
 30
0.000000
  8
3
 62
7
  6
L000000000000000000
  0
SEQEND
  0
POLYLINE
  8
3
 62
7
  6
L000000000000000000
 70
1
 66
1
  0
VERTEX
 10
30.600000
 20
3.800000
 30
0.000000
  8
3
 62
7
  6
L000000000000000000
  0
VERTEX
 10
30.600000
 20
2.900000
 30
0.000000
  8
3
 62
7
  6
L000000000000000000
  0
VERTEX
 10
31.400000
 20
2.900000
 30
0.000000
  8
3
 62
7
  6
L000000000000000000
  0
VERTEX
 10
31.400000
 20
3.800000
 30
0.000000
  8
3
 62
7
  6
L000000000000000000
  0
SEQEND
  0
POLYLINE
  8
3
 62
7
  6
L000000000000000000
 70
1
 66
1
  0
VERTEX
 10
29.400000
 20
3.800000
 30
0.000000
  8
3
 62
7
  6
L000000000000000000
  0
VERTEX
 10
29.400000
 20
2.900000
 30
0.000000
  8
3
 62
7
  6
L000000000000000000
  0
VERTEX
 10
30.200000
 20
2.900000
 30
0.000000
  8
3
 62
7
  6
L000000000000000000
  0
VERTEX
 10
30.200000
 20
3.800000
 30
0.000000
  8
3
 62
7
  6
L000000000000000000
  0
SEQEND
  0
POLYLINE
  8
3
 62
7
  6
L000000000000000000
 70
1
 66
1
  0
VERTEX
 10
28.200000
 20
3.800000
 30
0.000000
  8
3
 62
7
  6
L000000000000000000
  0
VERTEX
 10
28.200000
 20
2.900000
 30
0.000000
  8
3
 62
7
  6
L000000000000000000
  0
VERTEX
 10
29.000000
 20
2.900000
 30
0.000000
  8
3
 62
7
  6
L000000000000000000
  0
VERTEX
 10
29.000000
 20
3.800000
 30
0.000000
  8
3
 62
7
  6
L000000000000000000
  0
SEQEND
  0
POLYLINE
  8
3
 62
7
  6
L000000000000000000
 70
1
 66
1
  0
VERTEX
 10
27.000000
 20
3.800000
 30
0.000000
  8
3
 62
7
  6
L000000000000000000
  0
VERTEX
 10
27.000000
 20
2.900000
 30
0.000000
  8
3
 62
7
  6
L000000000000000000
  0
VERTEX
 10
27.800000
 20
2.900000
 30
0.000000
  8
3
 62
7
  6
L000000000000000000
  0
VERTEX
 10
27.800000
 20
3.800000
 30
0.000000
  8
3
 62
7
  6
L000000000000000000
  0
SEQEND
  0
POLYLINE
  8
3
 62
7
  6
L000000000000000000
 70
1
 66
1
  0
VERTEX
 10
30.600000
 20
5.100000
 30
0.000000
  8
3
 62
7
  6
L000000000000000000
  0
VERTEX
 10
30.600000
 20
4.200000
 30
0.000000
  8
3
 62
7
  6
L000000000000000000
  0
VERTEX
 10
31.400000
 20
4.200000
 30
0.000000
  8
3
 62
7
  6
L000000000000000000
  0
VERTEX
 10
31.400000
 20
5.100000
 30
0.000000
  8
3
 62
7
  6
L000000000000000000
  0
SEQEND
  0
POLYLINE
  8
3
 62
7
  6
L000000000000000000
 70
1
 66
1
  0
VERTEX
 10
29.400000
 20
5.100000
 30
0.000000
  8
3
 62
7
  6
L000000000000000000
  0
VERTEX
 10
29.400000
 20
4.200000
 30
0.000000
  8
3
 62
7
  6
L000000000000000000
  0
VERTEX
 10
30.200000
 20
4.200000
 30
0.000000
  8
3
 62
7
  6
L000000000000000000
  0
VERTEX
 10
30.200000
 20
5.100000
 30
0.000000
  8
3
 62
7
  6
L000000000000000000
  0
SEQEND
  0
POLYLINE
  8
3
 62
7
  6
L000000000000000000
 70
1
 66
1
  0
VERTEX
 10
28.200000
 20
5.100000
 30
0.000000
  8
3
 62
7
  6
L000000000000000000
  0
VERTEX
 10
28.200000
 20
4.200000
 30
0.000000
  8
3
 62
7
  6
L000000000000000000
  0
VERTEX
 10
29.000000
 20
4.200000
 30
0.000000
  8
3
 62
7
  6
L000000000000000000
  0
VERTEX
 10
29.000000
 20
5.100000
 30
0.000000
  8
3
 62
7
  6
L000000000000000000
  0
SEQEND
  0
POLYLINE
  8
3
 62
7
  6
L000000000000000000
 70
1
 66
1
  0
VERTEX
 10
27.000000
 20
5.100000
 30
0.000000
  8
3
 62
7
  6
L000000000000000000
  0
VERTEX
 10
27.000000
 20
4.200000
 30
0.000000
  8
3
 62
7
  6
L000000000000000000
  0
VERTEX
 10
27.800000
 20
4.200000
 30
0.000000
  8
3
 62
7
  6
L000000000000000000
  0
VERTEX
 10
27.800000
 20
5.100000
 30
0.000000
  8
3
 62
7
  6
L000000000000000000
  0
SEQEND
  0
POLYLINE
  8
3
 62
7
  6
L000000000000000000
 70
1
 66
1
  0
VERTEX
 10
25.800000
 20
1.200000
 30
0.000000
  8
3
 62
7
  6
L000000000000000000
  0
VERTEX
 10
25.800000
 20
0.300000
 30
0.000000
  8
3
 62
7
  6
L000000000000000000
  0
VERTEX
 10
26.600000
 20
0.300000
 30
0.000000
  8
3
 62
7
  6
L000000000000000000
  0
VERTEX
 10
26.600000
 20
1.200000
 30
0.000000
  8
3
 62
7
  6
L000000000000000000
  0
SEQEND
  0
POLYLINE
  8
3
 62
7
  6
L000000000000000000
 70
1
 66
1
  0
VERTEX
 10
24.600000
 20
1.200000
 30
0.000000
  8
3
 62
7
  6
L000000000000000000
  0
VERTEX
 10
24.600000
 20
0.300000
 30
0.000000
  8
3
 62
7
  6
L000000000000000000
  0
VERTEX
 10
25.400000
 20
0.300000
 30
0.000000
  8
3
 62
7
  6
L000000000000000000
  0
VERTEX
 10
25.400000
 20
1.200000
 30
0.000000
  8
3
 62
7
  6
L000000000000000000
  0
SEQEND
  0
POLYLINE
  8
3
 62
7
  6
L000000000000000000
 70
1
 66
1
  0
VERTEX
 10
23.400000
 20
1.200000
 30
0.000000
  8
3
 62
7
  6
L000000000000000000
  0
VERTEX
 10
23.400000
 20
0.300000
 30
0.000000
  8
3
 62
7
  6
L000000000000000000
  0
VERTEX
 10
24.200000
 20
0.300000
 30
0.000000
  8
3
 62
7
  6
L000000000000000000
  0
VERTEX
 10
24.200000
 20
1.200000
 30
0.000000
  8
3
 62
7
  6
L000000000000000000
  0
SEQEND
  0
POLYLINE
  8
3
 62
7
  6
L000000000000000000
 70
1
 66
1
  0
VERTEX
 10
22.200000
 20
1.200000
 30
0.000000
  8
3
 62
7
  6
L000000000000000000
  0
VERTEX
 10
22.200000
 20
0.300000
 30
0.000000
  8
3
 62
7
  6
L000000000000000000
  0
VERTEX
 10
23.000000
 20
0.300000
 30
0.000000
  8
3
 62
7
  6
L000000000000000000
  0
VERTEX
 10
23.000000
 20
1.200000
 30
0.000000
  8
3
 62
7
  6
L000000000000000000
  0
SEQEND
  0
POLYLINE
  8
3
 62
7
  6
L000000000000000000
 70
1
 66
1
  0
VERTEX
 10
25.800000
 20
2.500000
 30
0.000000
  8
3
 62
7
  6
L000000000000000000
  0
VERTEX
 10
25.800000
 20
1.600000
 30
0.000000
  8
3
 62
7
  6
L000000000000000000
  0
VERTEX
 10
26.600000
 20
1.600000
 30
0.000000
  8
3
 62
7
  6
L000000000000000000
  0
VERTEX
 10
26.600000
 20
2.500000
 30
0.000000
  8
3
 62
7
  6
L000000000000000000
  0
SEQEND
  0
POLYLINE
  8
3
 62
7
  6
L000000000000000000
 70
1
 66
1
  0
VERTEX
 10
24.600000
 20
2.500000
 30
0.000000
  8
3
 62
7
  6
L000000000000000000
  0
VERTEX
 10
24.600000
 20
1.600000
 30
0.000000
  8
3
 62
7
  6
L000000000000000000
  0
VERTEX
 10
25.400000
 20
1.600000
 30
0.000000
  8
3
 62
7
  6
L000000000000000000
  0
VERTEX
 10
25.400000
 20
2.500000
 30
0.000000
  8
3
 62
7
  6
L000000000000000000
  0
SEQEND
  0
POLYLINE
  8
3
 62
7
  6
L000000000000000000
 70
1
 66
1
  0
VERTEX
 10
23.400000
 20
2.500000
 30
0.000000
  8
3
 62
7
  6
L000000000000000000
  0
VERTEX
 10
23.400000
 20
1.600000
 30
0.000000
  8
3
 62
7
  6
L000000000000000000
  0
VERTEX
 10
24.200000
 20
1.600000
 30
0.000000
  8
3
 62
7
  6
L000000000000000000
  0
VERTEX
 10
24.200000
 20
2.500000
 30
0.000000
  8
3
 62
7
  6
L000000000000000000
  0
SEQEND
  0
POLYLINE
  8
3
 62
7
  6
L000000000000000000
 70
1
 66
1
  0
VERTEX
 10
22.200000
 20
2.500000
 30
0.000000
  8
3
 62
7
  6
L000000000000000000
  0
VERTEX
 10
22.200000
 20
1.600000
 30
0.000000
  8
3
 62
7
  6
L000000000000000000
  0
VERTEX
 10
23.000000
 20
1.600000
 30
0.000000
  8
3
 62
7
  6
L000000000000000000
  0
VERTEX
 10
23.000000
 20
2.500000
 30
0.000000
  8
3
 62
7
  6
L000000000000000000
  0
SEQEND
  0
POLYLINE
  8
3
 62
7
  6
L000000000000000000
 70
1
 66
1
  0
VERTEX
 10
25.800000
 20
3.800000
 30
0.000000
  8
3
 62
7
  6
L000000000000000000
  0
VERTEX
 10
25.800000
 20
2.900000
 30
0.000000
  8
3
 62
7
  6
L000000000000000000
  0
VERTEX
 10
26.600000
 20
2.900000
 30
0.000000
  8
3
 62
7
  6
L000000000000000000
  0
VERTEX
 10
26.600000
 20
3.800000
 30
0.000000
  8
3
 62
7
  6
L000000000000000000
  0
SEQEND
  0
POLYLINE
  8
3
 62
7
  6
L000000000000000000
 70
1
 66
1
  0
VERTEX
 10
24.600000
 20
3.800000
 30
0.000000
  8
3
 62
7
  6
L000000000000000000
  0
VERTEX
 10
24.600000
 20
2.900000
 30
0.000000
  8
3
 62
7
  6
L000000000000000000
  0
VERTEX
 10
25.400000
 20
2.900000
 30
0.000000
  8
3
 62
7
  6
L000000000000000000
  0
VERTEX
 10
25.400000
 20
3.800000
 30
0.000000
  8
3
 62
7
  6
L000000000000000000
  0
SEQEND
  0
POLYLINE
  8
3
 62
7
  6
L000000000000000000
 70
1
 66
1
  0
VERTEX
 10
23.400000
 20
3.800000
 30
0.000000
  8
3
 62
7
  6
L000000000000000000
  0
VERTEX
 10
23.400000
 20
2.900000
 30
0.000000
  8
3
 62
7
  6
L000000000000000000
  0
VERTEX
 10
24.200000
 20
2.900000
 30
0.000000
  8
3
 62
7
  6
L000000000000000000
  0
VERTEX
 10
24.200000
 20
3.800000
 30
0.000000
  8
3
 62
7
  6
L000000000000000000
  0
SEQEND
  0
POLYLINE
  8
3
 62
7
  6
L000000000000000000
 70
1
 66
1
  0
VERTEX
 10
22.200000
 20
3.800000
 30
0.000000
  8
3
 62
7
  6
L000000000000000000
  0
VERTEX
 10
22.200000
 20
2.900000
 30
0.000000
  8
3
 62
7
  6
L000000000000000000
  0
VERTEX
 10
23.000000
 20
2.900000
 30
0.000000
  8
3
 62
7
  6
L000000000000000000
  0
VERTEX
 10
23.000000
 20
3.800000
 30
0.000000
  8
3
 62
7
  6
L000000000000000000
  0
SEQEND
  0
POLYLINE
  8
3
 62
7
  6
L000000000000000000
 70
1
 66
1
  0
VERTEX
 10
25.800000
 20
5.100000
 30
0.000000
  8
3
 62
7
  6
L000000000000000000
  0
VERTEX
 10
25.800000
 20
4.200000
 30
0.000000
  8
3
 62
7
  6
L000000000000000000
  0
VERTEX
 10
26.600000
 20
4.200000
 30
0.000000
  8
3
 62
7
  6
L000000000000000000
  0
VERTEX
 10
26.600000
 20
5.100000
 30
0.000000
  8
3
 62
7
  6
L000000000000000000
  0
SEQEND
  0
POLYLINE
  8
3
 62
7
  6
L000000000000000000
 70
1
 66
1
  0
VERTEX
 10
24.600000
 20
5.100000
 30
0.000000
  8
3
 62
7
  6
L000000000000000000
  0
VERTEX
 10
24.600000
 20
4.200000
 30
0.000000
  8
3
 62
7
  6
L000000000000000000
  0
VERTEX
 10
25.400000
 20
4.200000
 30
0.000000
  8
3
 62
7
  6
L000000000000000000
  0
VERTEX
 10
25.400000
 20
5.100000
 30
0.000000
  8
3
 62
7
  6
L000000000000000000
  0
SEQEND
  0
POLYLINE
  8
3
 62
7
  6
L000000000000000000
 70
1
 66
1
  0
VERTEX
 10
23.400000
 20
5.100000
 30
0.000000
  8
3
 62
7
  6
L000000000000000000
  0
VERTEX
 10
23.400000
 20
4.200000
 30
0.000000
  8
3
 62
7
  6
L000000000000000000
  0
VERTEX
 10
24.200000
 20
4.200000
 30
0.000000
  8
3
 62
7
  6
L000000000000000000
  0
VERTEX
 10
24.200000
 20
5.100000
 30
0.000000
  8
3
 62
7
  6
L000000000000000000
  0
SEQEND
  0
POLYLINE
  8
3
 62
7
  6
L000000000000000000
 70
1
 66
1
  0
VERTEX
 10
22.200000
 20
5.100000
 30
0.000000
  8
3
 62
7
  6
L000000000000000000
  0
VERTEX
 10
22.200000
 20
4.200000
 30
0.000000
  8
3
 62
7
  6
L000000000000000000
  0
VERTEX
 10
23.000000
 20
4.200000
 30
0.000000
  8
3
 62
7
  6
L000000000000000000
  0
VERTEX
 10
23.000000
 20
5.100000
 30
0.000000
  8
3
 62
7
  6
L000000000000000000
  0
SEQEND
  0
POLYLINE
  8
3
 62
7
  6
L000000000000000000
 70
1
 66
1
  0
VERTEX
 10
21.000000
 20
1.200000
 30
0.000000
  8
3
 62
7
  6
L000000000000000000
  0
VERTEX
 10
21.000000
 20
0.300000
 30
0.000000
  8
3
 62
7
  6
L000000000000000000
  0
VERTEX
 10
21.800000
 20
0.300000
 30
0.000000
  8
3
 62
7
  6
L000000000000000000
  0
VERTEX
 10
21.800000
 20
1.200000
 30
0.000000
  8
3
 62
7
  6
L000000000000000000
  0
SEQEND
  0
POLYLINE
  8
3
 62
7
  6
L000000000000000000
 70
1
 66
1
  0
VERTEX
 10
19.800000
 20
1.200000
 30
0.000000
  8
3
 62
7
  6
L000000000000000000
  0
VERTEX
 10
19.800000
 20
0.300000
 30
0.000000
  8
3
 62
7
  6
L000000000000000000
  0
VERTEX
 10
20.600000
 20
0.300000
 30
0.000000
  8
3
 62
7
  6
L000000000000000000
  0
VERTEX
 10
20.600000
 20
1.200000
 30
0.000000
  8
3
 62
7
  6
L000000000000000000
  0
SEQEND
  0
POLYLINE
  8
3
 62
7
  6
L000000000000000000
 70
1
 66
1
  0
VERTEX
 10
18.600000
 20
1.200000
 30
0.000000
  8
3
 62
7
  6
L000000000000000000
  0
VERTEX
 10
18.600000
 20
0.300000
 30
0.000000
  8
3
 62
7
  6
L000000000000000000
  0
VERTEX
 10
19.400000
 20
0.300000
 30
0.000000
  8
3
 62
7
  6
L000000000000000000
  0
VERTEX
 10
19.400000
 20
1.200000
 30
0.000000
  8
3
 62
7
  6
L000000000000000000
  0
SEQEND
  0
POLYLINE
  8
3
 62
7
  6
L000000000000000000
 70
1
 66
1
  0
VERTEX
 10
17.400000
 20
1.200000
 30
0.000000
  8
3
 62
7
  6
L000000000000000000
  0
VERTEX
 10
17.400000
 20
0.300000
 30
0.000000
  8
3
 62
7
  6
L000000000000000000
  0
VERTEX
 10
18.200000
 20
0.300000
 30
0.000000
  8
3
 62
7
  6
L000000000000000000
  0
VERTEX
 10
18.200000
 20
1.200000
 30
0.000000
  8
3
 62
7
  6
L000000000000000000
  0
SEQEND
  0
POLYLINE
  8
3
 62
7
  6
L000000000000000000
 70
1
 66
1
  0
VERTEX
 10
21.000000
 20
2.500000
 30
0.000000
  8
3
 62
7
  6
L000000000000000000
  0
VERTEX
 10
21.000000
 20
1.600000
 30
0.000000
  8
3
 62
7
  6
L000000000000000000
  0
VERTEX
 10
21.800000
 20
1.600000
 30
0.000000
  8
3
 62
7
  6
L000000000000000000
  0
VERTEX
 10
21.800000
 20
2.500000
 30
0.000000
  8
3
 62
7
  6
L000000000000000000
  0
SEQEND
  0
POLYLINE
  8
3
 62
7
  6
L000000000000000000
 70
1
 66
1
  0
VERTEX
 10
19.800000
 20
2.500000
 30
0.000000
  8
3
 62
7
  6
L000000000000000000
  0
VERTEX
 10
19.800000
 20
1.600000
 30
0.000000
  8
3
 62
7
  6
L000000000000000000
  0
VERTEX
 10
20.600000
 20
1.600000
 30
0.000000
  8
3
 62
7
  6
L000000000000000000
  0
VERTEX
 10
20.600000
 20
2.500000
 30
0.000000
  8
3
 62
7
  6
L000000000000000000
  0
SEQEND
  0
POLYLINE
  8
3
 62
7
  6
L000000000000000000
 70
1
 66
1
  0
VERTEX
 10
18.600000
 20
2.500000
 30
0.000000
  8
3
 62
7
  6
L000000000000000000
  0
VERTEX
 10
18.600000
 20
1.600000
 30
0.000000
  8
3
 62
7
  6
L000000000000000000
  0
VERTEX
 10
19.400000
 20
1.600000
 30
0.000000
  8
3
 62
7
  6
L000000000000000000
  0
VERTEX
 10
19.400000
 20
2.500000
 30
0.000000
  8
3
 62
7
  6
L000000000000000000
  0
SEQEND
  0
POLYLINE
  8
3
 62
7
  6
L000000000000000000
 70
1
 66
1
  0
VERTEX
 10
17.400000
 20
2.500000
 30
0.000000
  8
3
 62
7
  6
L000000000000000000
  0
VERTEX
 10
17.400000
 20
1.600000
 30
0.000000
  8
3
 62
7
  6
L000000000000000000
  0
VERTEX
 10
18.200000
 20
1.600000
 30
0.000000
  8
3
 62
7
  6
L000000000000000000
  0
VERTEX
 10
18.200000
 20
2.500000
 30
0.000000
  8
3
 62
7
  6
L000000000000000000
  0
SEQEND
  0
POLYLINE
  8
3
 62
7
  6
L000000000000000000
 70
1
 66
1
  0
VERTEX
 10
21.000000
 20
3.800000
 30
0.000000
  8
3
 62
7
  6
L000000000000000000
  0
VERTEX
 10
21.000000
 20
2.900000
 30
0.000000
  8
3
 62
7
  6
L000000000000000000
  0
VERTEX
 10
21.800000
 20
2.900000
 30
0.000000
  8
3
 62
7
  6
L000000000000000000
  0
VERTEX
 10
21.800000
 20
3.800000
 30
0.000000
  8
3
 62
7
  6
L000000000000000000
  0
SEQEND
  0
POLYLINE
  8
3
 62
7
  6
L000000000000000000
 70
1
 66
1
  0
VERTEX
 10
19.800000
 20
3.800000
 30
0.000000
  8
3
 62
7
  6
L000000000000000000
  0
VERTEX
 10
19.800000
 20
2.900000
 30
0.000000
  8
3
 62
7
  6
L000000000000000000
  0
VERTEX
 10
20.600000
 20
2.900000
 30
0.000000
  8
3
 62
7
  6
L000000000000000000
  0
VERTEX
 10
20.600000
 20
3.800000
 30
0.000000
  8
3
 62
7
  6
L000000000000000000
  0
SEQEND
  0
POLYLINE
  8
3
 62
7
  6
L000000000000000000
 70
1
 66
1
  0
VERTEX
 10
18.600000
 20
3.800000
 30
0.000000
  8
3
 62
7
  6
L000000000000000000
  0
VERTEX
 10
18.600000
 20
2.900000
 30
0.000000
  8
3
 62
7
  6
L000000000000000000
  0
VERTEX
 10
19.400000
 20
2.900000
 30
0.000000
  8
3
 62
7
  6
L000000000000000000
  0
VERTEX
 10
19.400000
 20
3.800000
 30
0.000000
  8
3
 62
7
  6
L000000000000000000
  0
SEQEND
  0
POLYLINE
  8
3
 62
7
  6
L000000000000000000
 70
1
 66
1
  0
VERTEX
 10
17.400000
 20
3.800000
 30
0.000000
  8
3
 62
7
  6
L000000000000000000
  0
VERTEX
 10
17.400000
 20
2.900000
 30
0.000000
  8
3
 62
7
  6
L000000000000000000
  0
VERTEX
 10
18.200000
 20
2.900000
 30
0.000000
  8
3
 62
7
  6
L000000000000000000
  0
VERTEX
 10
18.200000
 20
3.800000
 30
0.000000
  8
3
 62
7
  6
L000000000000000000
  0
SEQEND
  0
POLYLINE
  8
3
 62
7
  6
L000000000000000000
 70
1
 66
1
  0
VERTEX
 10
21.000000
 20
5.100000
 30
0.000000
  8
3
 62
7
  6
L000000000000000000
  0
VERTEX
 10
21.000000
 20
4.200000
 30
0.000000
  8
3
 62
7
  6
L000000000000000000
  0
VERTEX
 10
21.800000
 20
4.200000
 30
0.000000
  8
3
 62
7
  6
L000000000000000000
  0
VERTEX
 10
21.800000
 20
5.100000
 30
0.000000
  8
3
 62
7
  6
L000000000000000000
  0
SEQEND
  0
POLYLINE
  8
3
 62
7
  6
L000000000000000000
 70
1
 66
1
  0
VERTEX
 10
19.800000
 20
5.100000
 30
0.000000
  8
3
 62
7
  6
L000000000000000000
  0
VERTEX
 10
19.800000
 20
4.200000
 30
0.000000
  8
3
 62
7
  6
L000000000000000000
  0
VERTEX
 10
20.600000
 20
4.200000
 30
0.000000
  8
3
 62
7
  6
L000000000000000000
  0
VERTEX
 10
20.600000
 20
5.100000
 30
0.000000
  8
3
 62
7
  6
L000000000000000000
  0
SEQEND
  0
POLYLINE
  8
3
 62
7
  6
L000000000000000000
 70
1
 66
1
  0
VERTEX
 10
18.600000
 20
5.100000
 30
0.000000
  8
3
 62
7
  6
L000000000000000000
  0
VERTEX
 10
18.600000
 20
4.200000
 30
0.000000
  8
3
 62
7
  6
L000000000000000000
  0
VERTEX
 10
19.400000
 20
4.200000
 30
0.000000
  8
3
 62
7
  6
L000000000000000000
  0
VERTEX
 10
19.400000
 20
5.100000
 30
0.000000
  8
3
 62
7
  6
L000000000000000000
  0
SEQEND
  0
POLYLINE
  8
3
 62
7
  6
L000000000000000000
 70
1
 66
1
  0
VERTEX
 10
17.400000
 20
5.100000
 30
0.000000
  8
3
 62
7
  6
L000000000000000000
  0
VERTEX
 10
17.400000
 20
4.200000
 30
0.000000
  8
3
 62
7
  6
L000000000000000000
  0
VERTEX
 10
18.200000
 20
4.200000
 30
0.000000
  8
3
 62
7
  6
L000000000000000000
  0
VERTEX
 10
18.200000
 20
5.100000
 30
0.000000
  8
3
 62
7
  6
L000000000000000000
  0
SEQEND
  0
POLYLINE
  8
3
 62
7
  6
L000000000000000000
 70
1
 66
1
  0
VERTEX
 10
16.200000
 20
1.200000
 30
0.000000
  8
3
 62
7
  6
L000000000000000000
  0
VERTEX
 10
16.200000
 20
0.300000
 30
0.000000
  8
3
 62
7
  6
L000000000000000000
  0
VERTEX
 10
17.000000
 20
0.300000
 30
0.000000
  8
3
 62
7
  6
L000000000000000000
  0
VERTEX
 10
17.000000
 20
1.200000
 30
0.000000
  8
3
 62
7
  6
L000000000000000000
  0
SEQEND
  0
POLYLINE
  8
3
 62
7
  6
L000000000000000000
 70
1
 66
1
  0
VERTEX
 10
16.200000
 20
2.500000
 30
0.000000
  8
3
 62
7
  6
L000000000000000000
  0
VERTEX
 10
16.200000
 20
1.600000
 30
0.000000
  8
3
 62
7
  6
L000000000000000000
  0
VERTEX
 10
17.000000
 20
1.600000
 30
0.000000
  8
3
 62
7
  6
L000000000000000000
  0
VERTEX
 10
17.000000
 20
2.500000
 30
0.000000
  8
3
 62
7
  6
L000000000000000000
  0
SEQEND
  0
POLYLINE
  8
3
 62
7
  6
L000000000000000000
 70
1
 66
1
  0
VERTEX
 10
16.200000
 20
3.800000
 30
0.000000
  8
3
 62
7
  6
L000000000000000000
  0
VERTEX
 10
16.200000
 20
2.900000
 30
0.000000
  8
3
 62
7
  6
L000000000000000000
  0
VERTEX
 10
17.000000
 20
2.900000
 30
0.000000
  8
3
 62
7
  6
L000000000000000000
  0
VERTEX
 10
17.000000
 20
3.800000
 30
0.000000
  8
3
 62
7
  6
L000000000000000000
  0
SEQEND
  0
POLYLINE
  8
3
 62
7
  6
L000000000000000000
 70
1
 66
1
  0
VERTEX
 10
16.200000
 20
5.100000
 30
0.000000
  8
3
 62
7
  6
L000000000000000000
  0
VERTEX
 10
16.200000
 20
4.200000
 30
0.000000
  8
3
 62
7
  6
L000000000000000000
  0
VERTEX
 10
17.000000
 20
4.200000
 30
0.000000
  8
3
 62
7
  6
L000000000000000000
  0
VERTEX
 10
17.000000
 20
5.100000
 30
0.000000
  8
3
 62
7
  6
L000000000000000000
  0
SEQEND
  0
POLYLINE
  8
3
 62
7
  6
L000000000000000000
 70
1
 66
1
  0
VERTEX
 10
45.000000
 20
23.400000
 30
0.000000
  8
3
 62
7
  6
L000000000000000000
  0
VERTEX
 10
45.000000
 20
22.500000
 30
0.000000
  8
3
 62
7
  6
L000000000000000000
  0
VERTEX
 10
45.800000
 20
22.500000
 30
0.000000
  8
3
 62
7
  6
L000000000000000000
  0
VERTEX
 10
45.800000
 20
23.400000
 30
0.000000
  8
3
 62
7
  6
L000000000000000000
  0
SEQEND
  0
POLYLINE
  8
3
 62
7
  6
L000000000000000000
 70
1
 66
1
  0
VERTEX
 10
46.200000
 20
23.400000
 30
0.000000
  8
3
 62
7
  6
L000000000000000000
  0
VERTEX
 10
46.200000
 20
22.500000
 30
0.000000
  8
3
 62
7
  6
L000000000000000000
  0
VERTEX
 10
47.000000
 20
22.500000
 30
0.000000
  8
3
 62
7
  6
L000000000000000000
  0
VERTEX
 10
47.000000
 20
23.400000
 30
0.000000
  8
3
 62
7
  6
L000000000000000000
  0
SEQEND
  0
POLYLINE
  8
3
 62
7
  6
L000000000000000000
 70
1
 66
1
  0
VERTEX
 10
47.400000
 20
23.400000
 30
0.000000
  8
3
 62
7
  6
L000000000000000000
  0
VERTEX
 10
47.400000
 20
22.500000
 30
0.000000
  8
3
 62
7
  6
L000000000000000000
  0
VERTEX
 10
48.200000
 20
22.500000
 30
0.000000
  8
3
 62
7
  6
L000000000000000000
  0
VERTEX
 10
48.200000
 20
23.400000
 30
0.000000
  8
3
 62
7
  6
L000000000000000000
  0
SEQEND
  0
POLYLINE
  8
3
 62
7
  6
L000000000000000000
 70
1
 66
1
  0
VERTEX
 10
48.600000
 20
23.400000
 30
0.000000
  8
3
 62
7
  6
L000000000000000000
  0
VERTEX
 10
48.600000
 20
22.500000
 30
0.000000
  8
3
 62
7
  6
L000000000000000000
  0
VERTEX
 10
49.400000
 20
22.500000
 30
0.000000
  8
3
 62
7
  6
L000000000000000000
  0
VERTEX
 10
49.400000
 20
23.400000
 30
0.000000
  8
3
 62
7
  6
L000000000000000000
  0
SEQEND
  0
POLYLINE
  8
3
 62
7
  6
L000000000000000000
 70
1
 66
1
  0
VERTEX
 10
45.000000
 20
58.600000
 30
0.000000
  8
3
 62
7
  6
L000000000000000000
  0
VERTEX
 10
45.000000
 20
59.500000
 30
0.000000
  8
3
 62
7
  6
L000000000000000000
  0
VERTEX
 10
45.800000
 20
59.500000
 30
0.000000
  8
3
 62
7
  6
L000000000000000000
  0
VERTEX
 10
45.800000
 20
58.600000
 30
0.000000
  8
3
 62
7
  6
L000000000000000000
  0
SEQEND
  0
POLYLINE
  8
3
 62
7
  6
L000000000000000000
 70
1
 66
1
  0
VERTEX
 10
46.200000
 20
58.600000
 30
0.000000
  8
3
 62
7
  6
L000000000000000000
  0
VERTEX
 10
46.200000
 20
59.500000
 30
0.000000
  8
3
 62
7
  6
L000000000000000000
  0
VERTEX
 10
47.000000
 20
59.500000
 30
0.000000
  8
3
 62
7
  6
L000000000000000000
  0
VERTEX
 10
47.000000
 20
58.600000
 30
0.000000
  8
3
 62
7
  6
L000000000000000000
  0
SEQEND
  0
POLYLINE
  8
3
 62
7
  6
L000000000000000000
 70
1
 66
1
  0
VERTEX
 10
47.400000
 20
58.600000
 30
0.000000
  8
3
 62
7
  6
L000000000000000000
  0
VERTEX
 10
47.400000
 20
59.500000
 30
0.000000
  8
3
 62
7
  6
L000000000000000000
  0
VERTEX
 10
48.200000
 20
59.500000
 30
0.000000
  8
3
 62
7
  6
L000000000000000000
  0
VERTEX
 10
48.200000
 20
58.600000
 30
0.000000
  8
3
 62
7
  6
L000000000000000000
  0
SEQEND
  0
POLYLINE
  8
3
 62
7
  6
L000000000000000000
 70
1
 66
1
  0
VERTEX
 10
48.600000
 20
58.600000
 30
0.000000
  8
3
 62
7
  6
L000000000000000000
  0
VERTEX
 10
48.600000
 20
59.500000
 30
0.000000
  8
3
 62
7
  6
L000000000000000000
  0
VERTEX
 10
49.400000
 20
59.500000
 30
0.000000
  8
3
 62
7
  6
L000000000000000000
  0
VERTEX
 10
49.400000
 20
58.600000
 30
0.000000
  8
3
 62
7
  6
L000000000000000000
  0
SEQEND
  0
POLYLINE
  8
3
 62
7
  6
L000000000000000000
 70
1
 66
1
  0
VERTEX
 10
45.000000
 20
59.900000
 30
0.000000
  8
3
 62
7
  6
L000000000000000000
  0
VERTEX
 10
45.000000
 20
60.800000
 30
0.000000
  8
3
 62
7
  6
L000000000000000000
  0
VERTEX
 10
45.800000
 20
60.800000
 30
0.000000
  8
3
 62
7
  6
L000000000000000000
  0
VERTEX
 10
45.800000
 20
59.900000
 30
0.000000
  8
3
 62
7
  6
L000000000000000000
  0
SEQEND
  0
POLYLINE
  8
3
 62
7
  6
L000000000000000000
 70
1
 66
1
  0
VERTEX
 10
46.200000
 20
59.900000
 30
0.000000
  8
3
 62
7
  6
L000000000000000000
  0
VERTEX
 10
46.200000
 20
60.800000
 30
0.000000
  8
3
 62
7
  6
L000000000000000000
  0
VERTEX
 10
47.000000
 20
60.800000
 30
0.000000
  8
3
 62
7
  6
L000000000000000000
  0
VERTEX
 10
47.000000
 20
59.900000
 30
0.000000
  8
3
 62
7
  6
L000000000000000000
  0
SEQEND
  0
POLYLINE
  8
3
 62
7
  6
L000000000000000000
 70
1
 66
1
  0
VERTEX
 10
47.400000
 20
59.900000
 30
0.000000
  8
3
 62
7
  6
L000000000000000000
  0
VERTEX
 10
47.400000
 20
60.800000
 30
0.000000
  8
3
 62
7
  6
L000000000000000000
  0
VERTEX
 10
48.200000
 20
60.800000
 30
0.000000
  8
3
 62
7
  6
L000000000000000000
  0
VERTEX
 10
48.200000
 20
59.900000
 30
0.000000
  8
3
 62
7
  6
L000000000000000000
  0
SEQEND
  0
POLYLINE
  8
3
 62
7
  6
L000000000000000000
 70
1
 66
1
  0
VERTEX
 10
48.600000
 20
59.900000
 30
0.000000
  8
3
 62
7
  6
L000000000000000000
  0
VERTEX
 10
48.600000
 20
60.800000
 30
0.000000
  8
3
 62
7
  6
L000000000000000000
  0
VERTEX
 10
49.400000
 20
60.800000
 30
0.000000
  8
3
 62
7
  6
L000000000000000000
  0
VERTEX
 10
49.400000
 20
59.900000
 30
0.000000
  8
3
 62
7
  6
L000000000000000000
  0
SEQEND
  0
POLYLINE
  8
3
 62
7
  6
L000000000000000000
 70
1
 66
1
  0
VERTEX
 10
45.000000
 20
61.200000
 30
0.000000
  8
3
 62
7
  6
L000000000000000000
  0
VERTEX
 10
45.000000
 20
62.100000
 30
0.000000
  8
3
 62
7
  6
L000000000000000000
  0
VERTEX
 10
45.800000
 20
62.100000
 30
0.000000
  8
3
 62
7
  6
L000000000000000000
  0
VERTEX
 10
45.800000
 20
61.200000
 30
0.000000
  8
3
 62
7
  6
L000000000000000000
  0
SEQEND
  0
POLYLINE
  8
3
 62
7
  6
L000000000000000000
 70
1
 66
1
  0
VERTEX
 10
46.200000
 20
61.200000
 30
0.000000
  8
3
 62
7
  6
L000000000000000000
  0
VERTEX
 10
46.200000
 20
62.100000
 30
0.000000
  8
3
 62
7
  6
L000000000000000000
  0
VERTEX
 10
47.000000
 20
62.100000
 30
0.000000
  8
3
 62
7
  6
L000000000000000000
  0
VERTEX
 10
47.000000
 20
61.200000
 30
0.000000
  8
3
 62
7
  6
L000000000000000000
  0
SEQEND
  0
POLYLINE
  8
3
 62
7
  6
L000000000000000000
 70
1
 66
1
  0
VERTEX
 10
47.400000
 20
61.200000
 30
0.000000
  8
3
 62
7
  6
L000000000000000000
  0
VERTEX
 10
47.400000
 20
62.100000
 30
0.000000
  8
3
 62
7
  6
L000000000000000000
  0
VERTEX
 10
48.200000
 20
62.100000
 30
0.000000
  8
3
 62
7
  6
L000000000000000000
  0
VERTEX
 10
48.200000
 20
61.200000
 30
0.000000
  8
3
 62
7
  6
L000000000000000000
  0
SEQEND
  0
POLYLINE
  8
3
 62
7
  6
L000000000000000000
 70
1
 66
1
  0
VERTEX
 10
48.600000
 20
61.200000
 30
0.000000
  8
3
 62
7
  6
L000000000000000000
  0
VERTEX
 10
48.600000
 20
62.100000
 30
0.000000
  8
3
 62
7
  6
L000000000000000000
  0
VERTEX
 10
49.400000
 20
62.100000
 30
0.000000
  8
3
 62
7
  6
L000000000000000000
  0
VERTEX
 10
49.400000
 20
61.200000
 30
0.000000
  8
3
 62
7
  6
L000000000000000000
  0
SEQEND
  0
POLYLINE
  8
3
 62
7
  6
L000000000000000000
 70
1
 66
1
  0
VERTEX
 10
45.000000
 20
62.600000
 30
0.000000
  8
3
 62
7
  6
L000000000000000000
  0
VERTEX
 10
45.000000
 20
63.500000
 30
0.000000
  8
3
 62
7
  6
L000000000000000000
  0
VERTEX
 10
45.800000
 20
63.500000
 30
0.000000
  8
3
 62
7
  6
L000000000000000000
  0
VERTEX
 10
45.800000
 20
62.600000
 30
0.000000
  8
3
 62
7
  6
L000000000000000000
  0
SEQEND
  0
POLYLINE
  8
3
 62
7
  6
L000000000000000000
 70
1
 66
1
  0
VERTEX
 10
46.200000
 20
62.600000
 30
0.000000
  8
3
 62
7
  6
L000000000000000000
  0
VERTEX
 10
46.200000
 20
63.500000
 30
0.000000
  8
3
 62
7
  6
L000000000000000000
  0
VERTEX
 10
47.000000
 20
63.500000
 30
0.000000
  8
3
 62
7
  6
L000000000000000000
  0
VERTEX
 10
47.000000
 20
62.600000
 30
0.000000
  8
3
 62
7
  6
L000000000000000000
  0
SEQEND
  0
POLYLINE
  8
3
 62
7
  6
L000000000000000000
 70
1
 66
1
  0
VERTEX
 10
47.400000
 20
62.600000
 30
0.000000
  8
3
 62
7
  6
L000000000000000000
  0
VERTEX
 10
47.400000
 20
63.500000
 30
0.000000
  8
3
 62
7
  6
L000000000000000000
  0
VERTEX
 10
48.200000
 20
63.500000
 30
0.000000
  8
3
 62
7
  6
L000000000000000000
  0
VERTEX
 10
48.200000
 20
62.600000
 30
0.000000
  8
3
 62
7
  6
L000000000000000000
  0
SEQEND
  0
POLYLINE
  8
3
 62
7
  6
L000000000000000000
 70
1
 66
1
  0
VERTEX
 10
48.600000
 20
62.600000
 30
0.000000
  8
3
 62
7
  6
L000000000000000000
  0
VERTEX
 10
48.600000
 20
63.500000
 30
0.000000
  8
3
 62
7
  6
L000000000000000000
  0
VERTEX
 10
49.400000
 20
63.500000
 30
0.000000
  8
3
 62
7
  6
L000000000000000000
  0
VERTEX
 10
49.400000
 20
62.600000
 30
0.000000
  8
3
 62
7
  6
L000000000000000000
  0
SEQEND
  0
POLYLINE
  8
3
 62
7
  6
L000000000000000000
 70
1
 66
1
  0
VERTEX
 10
45.000000
 20
63.900000
 30
0.000000
  8
3
 62
7
  6
L000000000000000000
  0
VERTEX
 10
45.000000
 20
64.800000
 30
0.000000
  8
3
 62
7
  6
L000000000000000000
  0
VERTEX
 10
45.800000
 20
64.800000
 30
0.000000
  8
3
 62
7
  6
L000000000000000000
  0
VERTEX
 10
45.800000
 20
63.900000
 30
0.000000
  8
3
 62
7
  6
L000000000000000000
  0
SEQEND
  0
POLYLINE
  8
3
 62
7
  6
L000000000000000000
 70
1
 66
1
  0
VERTEX
 10
46.200000
 20
63.900000
 30
0.000000
  8
3
 62
7
  6
L000000000000000000
  0
VERTEX
 10
46.200000
 20
64.800000
 30
0.000000
  8
3
 62
7
  6
L000000000000000000
  0
VERTEX
 10
47.000000
 20
64.800000
 30
0.000000
  8
3
 62
7
  6
L000000000000000000
  0
VERTEX
 10
47.000000
 20
63.900000
 30
0.000000
  8
3
 62
7
  6
L000000000000000000
  0
SEQEND
  0
POLYLINE
  8
3
 62
7
  6
L000000000000000000
 70
1
 66
1
  0
VERTEX
 10
47.400000
 20
63.900000
 30
0.000000
  8
3
 62
7
  6
L000000000000000000
  0
VERTEX
 10
47.400000
 20
64.800000
 30
0.000000
  8
3
 62
7
  6
L000000000000000000
  0
VERTEX
 10
48.200000
 20
64.800000
 30
0.000000
  8
3
 62
7
  6
L000000000000000000
  0
VERTEX
 10
48.200000
 20
63.900000
 30
0.000000
  8
3
 62
7
  6
L000000000000000000
  0
SEQEND
  0
POLYLINE
  8
3
 62
7
  6
L000000000000000000
 70
1
 66
1
  0
VERTEX
 10
48.600000
 20
63.900000
 30
0.000000
  8
3
 62
7
  6
L000000000000000000
  0
VERTEX
 10
48.600000
 20
64.800000
 30
0.000000
  8
3
 62
7
  6
L000000000000000000
  0
VERTEX
 10
49.400000
 20
64.800000
 30
0.000000
  8
3
 62
7
  6
L000000000000000000
  0
VERTEX
 10
49.400000
 20
63.900000
 30
0.000000
  8
3
 62
7
  6
L000000000000000000
  0
SEQEND
  0
POLYLINE
  8
3
 62
7
  6
L000000000000000000
 70
1
 66
1
  0
VERTEX
 10
45.000000
 20
65.200000
 30
0.000000
  8
3
 62
7
  6
L000000000000000000
  0
VERTEX
 10
45.000000
 20
66.100000
 30
0.000000
  8
3
 62
7
  6
L000000000000000000
  0
VERTEX
 10
45.800000
 20
66.100000
 30
0.000000
  8
3
 62
7
  6
L000000000000000000
  0
VERTEX
 10
45.800000
 20
65.200000
 30
0.000000
  8
3
 62
7
  6
L000000000000000000
  0
SEQEND
  0
POLYLINE
  8
3
 62
7
  6
L000000000000000000
 70
1
 66
1
  0
VERTEX
 10
46.200000
 20
65.200000
 30
0.000000
  8
3
 62
7
  6
L000000000000000000
  0
VERTEX
 10
46.200000
 20
66.100000
 30
0.000000
  8
3
 62
7
  6
L000000000000000000
  0
VERTEX
 10
47.000000
 20
66.100000
 30
0.000000
  8
3
 62
7
  6
L000000000000000000
  0
VERTEX
 10
47.000000
 20
65.200000
 30
0.000000
  8
3
 62
7
  6
L000000000000000000
  0
SEQEND
  0
POLYLINE
  8
3
 62
7
  6
L000000000000000000
 70
1
 66
1
  0
VERTEX
 10
47.400000
 20
65.200000
 30
0.000000
  8
3
 62
7
  6
L000000000000000000
  0
VERTEX
 10
47.400000
 20
66.100000
 30
0.000000
  8
3
 62
7
  6
L000000000000000000
  0
VERTEX
 10
48.200000
 20
66.100000
 30
0.000000
  8
3
 62
7
  6
L000000000000000000
  0
VERTEX
 10
48.200000
 20
65.200000
 30
0.000000
  8
3
 62
7
  6
L000000000000000000
  0
SEQEND
  0
POLYLINE
  8
3
 62
7
  6
L000000000000000000
 70
1
 66
1
  0
VERTEX
 10
48.600000
 20
65.200000
 30
0.000000
  8
3
 62
7
  6
L000000000000000000
  0
VERTEX
 10
48.600000
 20
66.100000
 30
0.000000
  8
3
 62
7
  6
L000000000000000000
  0
VERTEX
 10
49.400000
 20
66.100000
 30
0.000000
  8
3
 62
7
  6
L000000000000000000
  0
VERTEX
 10
49.400000
 20
65.200000
 30
0.000000
  8
3
 62
7
  6
L000000000000000000
  0
SEQEND
  0
POLYLINE
  8
3
 62
7
  6
L000000000000000000
 70
1
 66
1
  0
VERTEX
 10
45.000000
 20
23.800000
 30
0.000000
  8
3
 62
7
  6
L000000000000000000
  0
VERTEX
 10
45.000000
 20
24.700000
 30
0.000000
  8
3
 62
7
  6
L000000000000000000
  0
VERTEX
 10
45.800000
 20
24.700000
 30
0.000000
  8
3
 62
7
  6
L000000000000000000
  0
VERTEX
 10
45.800000
 20
23.800000
 30
0.000000
  8
3
 62
7
  6
L000000000000000000
  0
SEQEND
  0
POLYLINE
  8
3
 62
7
  6
L000000000000000000
 70
1
 66
1
  0
VERTEX
 10
46.200000
 20
23.800000
 30
0.000000
  8
3
 62
7
  6
L000000000000000000
  0
VERTEX
 10
46.200000
 20
24.700000
 30
0.000000
  8
3
 62
7
  6
L000000000000000000
  0
VERTEX
 10
47.000000
 20
24.700000
 30
0.000000
  8
3
 62
7
  6
L000000000000000000
  0
VERTEX
 10
47.000000
 20
23.800000
 30
0.000000
  8
3
 62
7
  6
L000000000000000000
  0
SEQEND
  0
POLYLINE
  8
3
 62
7
  6
L000000000000000000
 70
1
 66
1
  0
VERTEX
 10
47.400000
 20
23.800000
 30
0.000000
  8
3
 62
7
  6
L000000000000000000
  0
VERTEX
 10
47.400000
 20
24.700000
 30
0.000000
  8
3
 62
7
  6
L000000000000000000
  0
VERTEX
 10
48.200000
 20
24.700000
 30
0.000000
  8
3
 62
7
  6
L000000000000000000
  0
VERTEX
 10
48.200000
 20
23.800000
 30
0.000000
  8
3
 62
7
  6
L000000000000000000
  0
SEQEND
  0
POLYLINE
  8
3
 62
7
  6
L000000000000000000
 70
1
 66
1
  0
VERTEX
 10
48.600000
 20
23.800000
 30
0.000000
  8
3
 62
7
  6
L000000000000000000
  0
VERTEX
 10
48.600000
 20
24.700000
 30
0.000000
  8
3
 62
7
  6
L000000000000000000
  0
VERTEX
 10
49.400000
 20
24.700000
 30
0.000000
  8
3
 62
7
  6
L000000000000000000
  0
VERTEX
 10
49.400000
 20
23.800000
 30
0.000000
  8
3
 62
7
  6
L000000000000000000
  0
SEQEND
  0
POLYLINE
  8
3
 62
7
  6
L000000000000000000
 70
1
 66
1
  0
VERTEX
 10
45.000000
 20
25.100000
 30
0.000000
  8
3
 62
7
  6
L000000000000000000
  0
VERTEX
 10
45.000000
 20
26.000000
 30
0.000000
  8
3
 62
7
  6
L000000000000000000
  0
VERTEX
 10
45.800000
 20
26.000000
 30
0.000000
  8
3
 62
7
  6
L000000000000000000
  0
VERTEX
 10
45.800000
 20
25.100000
 30
0.000000
  8
3
 62
7
  6
L000000000000000000
  0
SEQEND
  0
POLYLINE
  8
3
 62
7
  6
L000000000000000000
 70
1
 66
1
  0
VERTEX
 10
46.200000
 20
25.100000
 30
0.000000
  8
3
 62
7
  6
L000000000000000000
  0
VERTEX
 10
46.200000
 20
26.000000
 30
0.000000
  8
3
 62
7
  6
L000000000000000000
  0
VERTEX
 10
47.000000
 20
26.000000
 30
0.000000
  8
3
 62
7
  6
L000000000000000000
  0
VERTEX
 10
47.000000
 20
25.100000
 30
0.000000
  8
3
 62
7
  6
L000000000000000000
  0
SEQEND
  0
POLYLINE
  8
3
 62
7
  6
L000000000000000000
 70
1
 66
1
  0
VERTEX
 10
47.400000
 20
25.100000
 30
0.000000
  8
3
 62
7
  6
L000000000000000000
  0
VERTEX
 10
47.400000
 20
26.000000
 30
0.000000
  8
3
 62
7
  6
L000000000000000000
  0
VERTEX
 10
48.200000
 20
26.000000
 30
0.000000
  8
3
 62
7
  6
L000000000000000000
  0
VERTEX
 10
48.200000
 20
25.100000
 30
0.000000
  8
3
 62
7
  6
L000000000000000000
  0
SEQEND
  0
POLYLINE
  8
3
 62
7
  6
L000000000000000000
 70
1
 66
1
  0
VERTEX
 10
48.600000
 20
25.100000
 30
0.000000
  8
3
 62
7
  6
L000000000000000000
  0
VERTEX
 10
48.600000
 20
26.000000
 30
0.000000
  8
3
 62
7
  6
L000000000000000000
  0
VERTEX
 10
49.400000
 20
26.000000
 30
0.000000
  8
3
 62
7
  6
L000000000000000000
  0
VERTEX
 10
49.400000
 20
25.100000
 30
0.000000
  8
3
 62
7
  6
L000000000000000000
  0
SEQEND
  0
POLYLINE
  8
3
 62
7
  6
L000000000000000000
 70
1
 66
1
  0
VERTEX
 10
45.000000
 20
26.400000
 30
0.000000
  8
3
 62
7
  6
L000000000000000000
  0
VERTEX
 10
45.000000
 20
27.300000
 30
0.000000
  8
3
 62
7
  6
L000000000000000000
  0
VERTEX
 10
45.800000
 20
27.300000
 30
0.000000
  8
3
 62
7
  6
L000000000000000000
  0
VERTEX
 10
45.800000
 20
26.400000
 30
0.000000
  8
3
 62
7
  6
L000000000000000000
  0
SEQEND
  0
POLYLINE
  8
3
 62
7
  6
L000000000000000000
 70
1
 66
1
  0
VERTEX
 10
46.200000
 20
26.400000
 30
0.000000
  8
3
 62
7
  6
L000000000000000000
  0
VERTEX
 10
46.200000
 20
27.300000
 30
0.000000
  8
3
 62
7
  6
L000000000000000000
  0
VERTEX
 10
47.000000
 20
27.300000
 30
0.000000
  8
3
 62
7
  6
L000000000000000000
  0
VERTEX
 10
47.000000
 20
26.400000
 30
0.000000
  8
3
 62
7
  6
L000000000000000000
  0
SEQEND
  0
POLYLINE
  8
3
 62
7
  6
L000000000000000000
 70
1
 66
1
  0
VERTEX
 10
47.400000
 20
26.400000
 30
0.000000
  8
3
 62
7
  6
L000000000000000000
  0
VERTEX
 10
47.400000
 20
27.300000
 30
0.000000
  8
3
 62
7
  6
L000000000000000000
  0
VERTEX
 10
48.200000
 20
27.300000
 30
0.000000
  8
3
 62
7
  6
L000000000000000000
  0
VERTEX
 10
48.200000
 20
26.400000
 30
0.000000
  8
3
 62
7
  6
L000000000000000000
  0
SEQEND
  0
POLYLINE
  8
3
 62
7
  6
L000000000000000000
 70
1
 66
1
  0
VERTEX
 10
48.600000
 20
26.400000
 30
0.000000
  8
3
 62
7
  6
L000000000000000000
  0
VERTEX
 10
48.600000
 20
27.300000
 30
0.000000
  8
3
 62
7
  6
L000000000000000000
  0
VERTEX
 10
49.400000
 20
27.300000
 30
0.000000
  8
3
 62
7
  6
L000000000000000000
  0
VERTEX
 10
49.400000
 20
26.400000
 30
0.000000
  8
3
 62
7
  6
L000000000000000000
  0
SEQEND
  0
POLYLINE
  8
3
 62
7
  6
L000000000000000000
 70
1
 66
1
  0
VERTEX
 10
45.000000
 20
27.800000
 30
0.000000
  8
3
 62
7
  6
L000000000000000000
  0
VERTEX
 10
45.000000
 20
28.700000
 30
0.000000
  8
3
 62
7
  6
L000000000000000000
  0
VERTEX
 10
45.800000
 20
28.700000
 30
0.000000
  8
3
 62
7
  6
L000000000000000000
  0
VERTEX
 10
45.800000
 20
27.800000
 30
0.000000
  8
3
 62
7
  6
L000000000000000000
  0
SEQEND
  0
POLYLINE
  8
3
 62
7
  6
L000000000000000000
 70
1
 66
1
  0
VERTEX
 10
46.200000
 20
27.800000
 30
0.000000
  8
3
 62
7
  6
L000000000000000000
  0
VERTEX
 10
46.200000
 20
28.700000
 30
0.000000
  8
3
 62
7
  6
L000000000000000000
  0
VERTEX
 10
47.000000
 20
28.700000
 30
0.000000
  8
3
 62
7
  6
L000000000000000000
  0
VERTEX
 10
47.000000
 20
27.800000
 30
0.000000
  8
3
 62
7
  6
L000000000000000000
  0
SEQEND
  0
POLYLINE
  8
3
 62
7
  6
L000000000000000000
 70
1
 66
1
  0
VERTEX
 10
47.400000
 20
27.800000
 30
0.000000
  8
3
 62
7
  6
L000000000000000000
  0
VERTEX
 10
47.400000
 20
28.700000
 30
0.000000
  8
3
 62
7
  6
L000000000000000000
  0
VERTEX
 10
48.200000
 20
28.700000
 30
0.000000
  8
3
 62
7
  6
L000000000000000000
  0
VERTEX
 10
48.200000
 20
27.800000
 30
0.000000
  8
3
 62
7
  6
L000000000000000000
  0
SEQEND
  0
POLYLINE
  8
3
 62
7
  6
L000000000000000000
 70
1
 66
1
  0
VERTEX
 10
48.600000
 20
27.800000
 30
0.000000
  8
3
 62
7
  6
L000000000000000000
  0
VERTEX
 10
48.600000
 20
28.700000
 30
0.000000
  8
3
 62
7
  6
L000000000000000000
  0
VERTEX
 10
49.400000
 20
28.700000
 30
0.000000
  8
3
 62
7
  6
L000000000000000000
  0
VERTEX
 10
49.400000
 20
27.800000
 30
0.000000
  8
3
 62
7
  6
L000000000000000000
  0
SEQEND
  0
POLYLINE
  8
3
 62
7
  6
L000000000000000000
 70
1
 66
1
  0
VERTEX
 10
45.000000
 20
29.100000
 30
0.000000
  8
3
 62
7
  6
L000000000000000000
  0
VERTEX
 10
45.000000
 20
30.000000
 30
0.000000
  8
3
 62
7
  6
L000000000000000000
  0
VERTEX
 10
45.800000
 20
30.000000
 30
0.000000
  8
3
 62
7
  6
L000000000000000000
  0
VERTEX
 10
45.800000
 20
29.100000
 30
0.000000
  8
3
 62
7
  6
L000000000000000000
  0
SEQEND
  0
POLYLINE
  8
3
 62
7
  6
L000000000000000000
 70
1
 66
1
  0
VERTEX
 10
46.200000
 20
29.100000
 30
0.000000
  8
3
 62
7
  6
L000000000000000000
  0
VERTEX
 10
46.200000
 20
30.000000
 30
0.000000
  8
3
 62
7
  6
L000000000000000000
  0
VERTEX
 10
47.000000
 20
30.000000
 30
0.000000
  8
3
 62
7
  6
L000000000000000000
  0
VERTEX
 10
47.000000
 20
29.100000
 30
0.000000
  8
3
 62
7
  6
L000000000000000000
  0
SEQEND
  0
POLYLINE
  8
3
 62
7
  6
L000000000000000000
 70
1
 66
1
  0
VERTEX
 10
47.400000
 20
29.100000
 30
0.000000
  8
3
 62
7
  6
L000000000000000000
  0
VERTEX
 10
47.400000
 20
30.000000
 30
0.000000
  8
3
 62
7
  6
L000000000000000000
  0
VERTEX
 10
48.200000
 20
30.000000
 30
0.000000
  8
3
 62
7
  6
L000000000000000000
  0
VERTEX
 10
48.200000
 20
29.100000
 30
0.000000
  8
3
 62
7
  6
L000000000000000000
  0
SEQEND
  0
POLYLINE
  8
3
 62
7
  6
L000000000000000000
 70
1
 66
1
  0
VERTEX
 10
48.600000
 20
29.100000
 30
0.000000
  8
3
 62
7
  6
L000000000000000000
  0
VERTEX
 10
48.600000
 20
30.000000
 30
0.000000
  8
3
 62
7
  6
L000000000000000000
  0
VERTEX
 10
49.400000
 20
30.000000
 30
0.000000
  8
3
 62
7
  6
L000000000000000000
  0
VERTEX
 10
49.400000
 20
29.100000
 30
0.000000
  8
3
 62
7
  6
L000000000000000000
  0
SEQEND
  0
POLYLINE
  8
3
 62
7
  6
L000000000000000000
 70
1
 66
1
  0
VERTEX
 10
45.000000
 20
30.400000
 30
0.000000
  8
3
 62
7
  6
L000000000000000000
  0
VERTEX
 10
45.000000
 20
31.300000
 30
0.000000
  8
3
 62
7
  6
L000000000000000000
  0
VERTEX
 10
45.800000
 20
31.300000
 30
0.000000
  8
3
 62
7
  6
L000000000000000000
  0
VERTEX
 10
45.800000
 20
30.400000
 30
0.000000
  8
3
 62
7
  6
L000000000000000000
  0
SEQEND
  0
POLYLINE
  8
3
 62
7
  6
L000000000000000000
 70
1
 66
1
  0
VERTEX
 10
46.200000
 20
30.400000
 30
0.000000
  8
3
 62
7
  6
L000000000000000000
  0
VERTEX
 10
46.200000
 20
31.300000
 30
0.000000
  8
3
 62
7
  6
L000000000000000000
  0
VERTEX
 10
47.000000
 20
31.300000
 30
0.000000
  8
3
 62
7
  6
L000000000000000000
  0
VERTEX
 10
47.000000
 20
30.400000
 30
0.000000
  8
3
 62
7
  6
L000000000000000000
  0
SEQEND
  0
POLYLINE
  8
3
 62
7
  6
L000000000000000000
 70
1
 66
1
  0
VERTEX
 10
47.400000
 20
30.400000
 30
0.000000
  8
3
 62
7
  6
L000000000000000000
  0
VERTEX
 10
47.400000
 20
31.300000
 30
0.000000
  8
3
 62
7
  6
L000000000000000000
  0
VERTEX
 10
48.200000
 20
31.300000
 30
0.000000
  8
3
 62
7
  6
L000000000000000000
  0
VERTEX
 10
48.200000
 20
30.400000
 30
0.000000
  8
3
 62
7
  6
L000000000000000000
  0
SEQEND
  0
POLYLINE
  8
3
 62
7
  6
L000000000000000000
 70
1
 66
1
  0
VERTEX
 10
48.600000
 20
30.400000
 30
0.000000
  8
3
 62
7
  6
L000000000000000000
  0
VERTEX
 10
48.600000
 20
31.300000
 30
0.000000
  8
3
 62
7
  6
L000000000000000000
  0
VERTEX
 10
49.400000
 20
31.300000
 30
0.000000
  8
3
 62
7
  6
L000000000000000000
  0
VERTEX
 10
49.400000
 20
30.400000
 30
0.000000
  8
3
 62
7
  6
L000000000000000000
  0
SEQEND
  0
POLYLINE
  8
3
 62
7
  6
L000000000000000000
 70
1
 66
1
  0
VERTEX
 10
45.000000
 20
31.700000
 30
0.000000
  8
3
 62
7
  6
L000000000000000000
  0
VERTEX
 10
45.000000
 20
32.600000
 30
0.000000
  8
3
 62
7
  6
L000000000000000000
  0
VERTEX
 10
45.800000
 20
32.600000
 30
0.000000
  8
3
 62
7
  6
L000000000000000000
  0
VERTEX
 10
45.800000
 20
31.700000
 30
0.000000
  8
3
 62
7
  6
L000000000000000000
  0
SEQEND
  0
POLYLINE
  8
3
 62
7
  6
L000000000000000000
 70
1
 66
1
  0
VERTEX
 10
46.200000
 20
31.700000
 30
0.000000
  8
3
 62
7
  6
L000000000000000000
  0
VERTEX
 10
46.200000
 20
32.600000
 30
0.000000
  8
3
 62
7
  6
L000000000000000000
  0
VERTEX
 10
47.000000
 20
32.600000
 30
0.000000
  8
3
 62
7
  6
L000000000000000000
  0
VERTEX
 10
47.000000
 20
31.700000
 30
0.000000
  8
3
 62
7
  6
L000000000000000000
  0
SEQEND
  0
POLYLINE
  8
3
 62
7
  6
L000000000000000000
 70
1
 66
1
  0
VERTEX
 10
47.400000
 20
31.700000
 30
0.000000
  8
3
 62
7
  6
L000000000000000000
  0
VERTEX
 10
47.400000
 20
32.600000
 30
0.000000
  8
3
 62
7
  6
L000000000000000000
  0
VERTEX
 10
48.200000
 20
32.600000
 30
0.000000
  8
3
 62
7
  6
L000000000000000000
  0
VERTEX
 10
48.200000
 20
31.700000
 30
0.000000
  8
3
 62
7
  6
L000000000000000000
  0
SEQEND
  0
POLYLINE
  8
3
 62
7
  6
L000000000000000000
 70
1
 66
1
  0
VERTEX
 10
48.600000
 20
31.700000
 30
0.000000
  8
3
 62
7
  6
L000000000000000000
  0
VERTEX
 10
48.600000
 20
32.600000
 30
0.000000
  8
3
 62
7
  6
L000000000000000000
  0
VERTEX
 10
49.400000
 20
32.600000
 30
0.000000
  8
3
 62
7
  6
L000000000000000000
  0
VERTEX
 10
49.400000
 20
31.700000
 30
0.000000
  8
3
 62
7
  6
L000000000000000000
  0
SEQEND
  0
POLYLINE
  8
3
 62
7
  6
L000000000000000000
 70
1
 66
1
  0
VERTEX
 10
45.000000
 20
33.000000
 30
0.000000
  8
3
 62
7
  6
L000000000000000000
  0
VERTEX
 10
45.000000
 20
33.900000
 30
0.000000
  8
3
 62
7
  6
L000000000000000000
  0
VERTEX
 10
45.800000
 20
33.900000
 30
0.000000
  8
3
 62
7
  6
L000000000000000000
  0
VERTEX
 10
45.800000
 20
33.000000
 30
0.000000
  8
3
 62
7
  6
L000000000000000000
  0
SEQEND
  0
POLYLINE
  8
3
 62
7
  6
L000000000000000000
 70
1
 66
1
  0
VERTEX
 10
46.200000
 20
33.000000
 30
0.000000
  8
3
 62
7
  6
L000000000000000000
  0
VERTEX
 10
46.200000
 20
33.900000
 30
0.000000
  8
3
 62
7
  6
L000000000000000000
  0
VERTEX
 10
47.000000
 20
33.900000
 30
0.000000
  8
3
 62
7
  6
L000000000000000000
  0
VERTEX
 10
47.000000
 20
33.000000
 30
0.000000
  8
3
 62
7
  6
L000000000000000000
  0
SEQEND
  0
POLYLINE
  8
3
 62
7
  6
L000000000000000000
 70
1
 66
1
  0
VERTEX
 10
47.400000
 20
33.000000
 30
0.000000
  8
3
 62
7
  6
L000000000000000000
  0
VERTEX
 10
47.400000
 20
33.900000
 30
0.000000
  8
3
 62
7
  6
L000000000000000000
  0
VERTEX
 10
48.200000
 20
33.900000
 30
0.000000
  8
3
 62
7
  6
L000000000000000000
  0
VERTEX
 10
48.200000
 20
33.000000
 30
0.000000
  8
3
 62
7
  6
L000000000000000000
  0
SEQEND
  0
POLYLINE
  8
3
 62
7
  6
L000000000000000000
 70
1
 66
1
  0
VERTEX
 10
48.600000
 20
33.000000
 30
0.000000
  8
3
 62
7
  6
L000000000000000000
  0
VERTEX
 10
48.600000
 20
33.900000
 30
0.000000
  8
3
 62
7
  6
L000000000000000000
  0
VERTEX
 10
49.400000
 20
33.900000
 30
0.000000
  8
3
 62
7
  6
L000000000000000000
  0
VERTEX
 10
49.400000
 20
33.000000
 30
0.000000
  8
3
 62
7
  6
L000000000000000000
  0
SEQEND
  0
POLYLINE
  8
3
 62
7
  6
L000000000000000000
 70
1
 66
1
  0
VERTEX
 10
45.000000
 20
34.300000
 30
0.000000
  8
3
 62
7
  6
L000000000000000000
  0
VERTEX
 10
45.000000
 20
35.200000
 30
0.000000
  8
3
 62
7
  6
L000000000000000000
  0
VERTEX
 10
45.800000
 20
35.200000
 30
0.000000
  8
3
 62
7
  6
L000000000000000000
  0
VERTEX
 10
45.800000
 20
34.300000
 30
0.000000
  8
3
 62
7
  6
L000000000000000000
  0
SEQEND
  0
POLYLINE
  8
3
 62
7
  6
L000000000000000000
 70
1
 66
1
  0
VERTEX
 10
46.200000
 20
34.300000
 30
0.000000
  8
3
 62
7
  6
L000000000000000000
  0
VERTEX
 10
46.200000
 20
35.200000
 30
0.000000
  8
3
 62
7
  6
L000000000000000000
  0
VERTEX
 10
47.000000
 20
35.200000
 30
0.000000
  8
3
 62
7
  6
L000000000000000000
  0
VERTEX
 10
47.000000
 20
34.300000
 30
0.000000
  8
3
 62
7
  6
L000000000000000000
  0
SEQEND
  0
POLYLINE
  8
3
 62
7
  6
L000000000000000000
 70
1
 66
1
  0
VERTEX
 10
47.400000
 20
34.300000
 30
0.000000
  8
3
 62
7
  6
L000000000000000000
  0
VERTEX
 10
47.400000
 20
35.200000
 30
0.000000
  8
3
 62
7
  6
L000000000000000000
  0
VERTEX
 10
48.200000
 20
35.200000
 30
0.000000
  8
3
 62
7
  6
L000000000000000000
  0
VERTEX
 10
48.200000
 20
34.300000
 30
0.000000
  8
3
 62
7
  6
L000000000000000000
  0
SEQEND
  0
POLYLINE
  8
3
 62
7
  6
L000000000000000000
 70
1
 66
1
  0
VERTEX
 10
48.600000
 20
34.300000
 30
0.000000
  8
3
 62
7
  6
L000000000000000000
  0
VERTEX
 10
48.600000
 20
35.200000
 30
0.000000
  8
3
 62
7
  6
L000000000000000000
  0
VERTEX
 10
49.400000
 20
35.200000
 30
0.000000
  8
3
 62
7
  6
L000000000000000000
  0
VERTEX
 10
49.400000
 20
34.300000
 30
0.000000
  8
3
 62
7
  6
L000000000000000000
  0
SEQEND
  0
POLYLINE
  8
3
 62
7
  6
L000000000000000000
 70
1
 66
1
  0
VERTEX
 10
45.000000
 20
35.600000
 30
0.000000
  8
3
 62
7
  6
L000000000000000000
  0
VERTEX
 10
45.000000
 20
36.500000
 30
0.000000
  8
3
 62
7
  6
L000000000000000000
  0
VERTEX
 10
45.800000
 20
36.500000
 30
0.000000
  8
3
 62
7
  6
L000000000000000000
  0
VERTEX
 10
45.800000
 20
35.600000
 30
0.000000
  8
3
 62
7
  6
L000000000000000000
  0
SEQEND
  0
POLYLINE
  8
3
 62
7
  6
L000000000000000000
 70
1
 66
1
  0
VERTEX
 10
46.200000
 20
35.600000
 30
0.000000
  8
3
 62
7
  6
L000000000000000000
  0
VERTEX
 10
46.200000
 20
36.500000
 30
0.000000
  8
3
 62
7
  6
L000000000000000000
  0
VERTEX
 10
47.000000
 20
36.500000
 30
0.000000
  8
3
 62
7
  6
L000000000000000000
  0
VERTEX
 10
47.000000
 20
35.600000
 30
0.000000
  8
3
 62
7
  6
L000000000000000000
  0
SEQEND
  0
POLYLINE
  8
3
 62
7
  6
L000000000000000000
 70
1
 66
1
  0
VERTEX
 10
47.400000
 20
35.600000
 30
0.000000
  8
3
 62
7
  6
L000000000000000000
  0
VERTEX
 10
47.400000
 20
36.500000
 30
0.000000
  8
3
 62
7
  6
L000000000000000000
  0
VERTEX
 10
48.200000
 20
36.500000
 30
0.000000
  8
3
 62
7
  6
L000000000000000000
  0
VERTEX
 10
48.200000
 20
35.600000
 30
0.000000
  8
3
 62
7
  6
L000000000000000000
  0
SEQEND
  0
POLYLINE
  8
3
 62
7
  6
L000000000000000000
 70
1
 66
1
  0
VERTEX
 10
48.600000
 20
35.600000
 30
0.000000
  8
3
 62
7
  6
L000000000000000000
  0
VERTEX
 10
48.600000
 20
36.500000
 30
0.000000
  8
3
 62
7
  6
L000000000000000000
  0
VERTEX
 10
49.400000
 20
36.500000
 30
0.000000
  8
3
 62
7
  6
L000000000000000000
  0
VERTEX
 10
49.400000
 20
35.600000
 30
0.000000
  8
3
 62
7
  6
L000000000000000000
  0
SEQEND
  0
POLYLINE
  8
3
 62
7
  6
L000000000000000000
 70
1
 66
1
  0
VERTEX
 10
45.000000
 20
36.900000
 30
0.000000
  8
3
 62
7
  6
L000000000000000000
  0
VERTEX
 10
45.000000
 20
37.800000
 30
0.000000
  8
3
 62
7
  6
L000000000000000000
  0
VERTEX
 10
45.800000
 20
37.800000
 30
0.000000
  8
3
 62
7
  6
L000000000000000000
  0
VERTEX
 10
45.800000
 20
36.900000
 30
0.000000
  8
3
 62
7
  6
L000000000000000000
  0
SEQEND
  0
POLYLINE
  8
3
 62
7
  6
L000000000000000000
 70
1
 66
1
  0
VERTEX
 10
46.200000
 20
36.900000
 30
0.000000
  8
3
 62
7
  6
L000000000000000000
  0
VERTEX
 10
46.200000
 20
37.800000
 30
0.000000
  8
3
 62
7
  6
L000000000000000000
  0
VERTEX
 10
47.000000
 20
37.800000
 30
0.000000
  8
3
 62
7
  6
L000000000000000000
  0
VERTEX
 10
47.000000
 20
36.900000
 30
0.000000
  8
3
 62
7
  6
L000000000000000000
  0
SEQEND
  0
POLYLINE
  8
3
 62
7
  6
L000000000000000000
 70
1
 66
1
  0
VERTEX
 10
47.400000
 20
36.900000
 30
0.000000
  8
3
 62
7
  6
L000000000000000000
  0
VERTEX
 10
47.400000
 20
37.800000
 30
0.000000
  8
3
 62
7
  6
L000000000000000000
  0
VERTEX
 10
48.200000
 20
37.800000
 30
0.000000
  8
3
 62
7
  6
L000000000000000000
  0
VERTEX
 10
48.200000
 20
36.900000
 30
0.000000
  8
3
 62
7
  6
L000000000000000000
  0
SEQEND
  0
POLYLINE
  8
3
 62
7
  6
L000000000000000000
 70
1
 66
1
  0
VERTEX
 10
48.600000
 20
36.900000
 30
0.000000
  8
3
 62
7
  6
L000000000000000000
  0
VERTEX
 10
48.600000
 20
37.800000
 30
0.000000
  8
3
 62
7
  6
L000000000000000000
  0
VERTEX
 10
49.400000
 20
37.800000
 30
0.000000
  8
3
 62
7
  6
L000000000000000000
  0
VERTEX
 10
49.400000
 20
36.900000
 30
0.000000
  8
3
 62
7
  6
L000000000000000000
  0
SEQEND
  0
POLYLINE
  8
3
 62
7
  6
L000000000000000000
 70
1
 66
1
  0
VERTEX
 10
45.000000
 20
57.300000
 30
0.000000
  8
3
 62
7
  6
L000000000000000000
  0
VERTEX
 10
45.000000
 20
58.200000
 30
0.000000
  8
3
 62
7
  6
L000000000000000000
  0
VERTEX
 10
45.800000
 20
58.200000
 30
0.000000
  8
3
 62
7
  6
L000000000000000000
  0
VERTEX
 10
45.800000
 20
57.300000
 30
0.000000
  8
3
 62
7
  6
L000000000000000000
  0
SEQEND
  0
POLYLINE
  8
3
 62
7
  6
L000000000000000000
 70
1
 66
1
  0
VERTEX
 10
46.200000
 20
57.300000
 30
0.000000
  8
3
 62
7
  6
L000000000000000000
  0
VERTEX
 10
46.200000
 20
58.200000
 30
0.000000
  8
3
 62
7
  6
L000000000000000000
  0
VERTEX
 10
47.000000
 20
58.200000
 30
0.000000
  8
3
 62
7
  6
L000000000000000000
  0
VERTEX
 10
47.000000
 20
57.300000
 30
0.000000
  8
3
 62
7
  6
L000000000000000000
  0
SEQEND
  0
POLYLINE
  8
3
 62
7
  6
L000000000000000000
 70
1
 66
1
  0
VERTEX
 10
47.400000
 20
57.300000
 30
0.000000
  8
3
 62
7
  6
L000000000000000000
  0
VERTEX
 10
47.400000
 20
58.200000
 30
0.000000
  8
3
 62
7
  6
L000000000000000000
  0
VERTEX
 10
48.200000
 20
58.200000
 30
0.000000
  8
3
 62
7
  6
L000000000000000000
  0
VERTEX
 10
48.200000
 20
57.300000
 30
0.000000
  8
3
 62
7
  6
L000000000000000000
  0
SEQEND
  0
POLYLINE
  8
3
 62
7
  6
L000000000000000000
 70
1
 66
1
  0
VERTEX
 10
48.600000
 20
57.300000
 30
0.000000
  8
3
 62
7
  6
L000000000000000000
  0
VERTEX
 10
48.600000
 20
58.200000
 30
0.000000
  8
3
 62
7
  6
L000000000000000000
  0
VERTEX
 10
49.400000
 20
58.200000
 30
0.000000
  8
3
 62
7
  6
L000000000000000000
  0
VERTEX
 10
49.400000
 20
57.300000
 30
0.000000
  8
3
 62
7
  6
L000000000000000000
  0
SEQEND
  0
POLYLINE
  8
3
 62
7
  6
L000000000000000000
 70
1
 66
1
  0
VERTEX
 10
45.000000
 20
56.000000
 30
0.000000
  8
3
 62
7
  6
L000000000000000000
  0
VERTEX
 10
45.000000
 20
56.900000
 30
0.000000
  8
3
 62
7
  6
L000000000000000000
  0
VERTEX
 10
45.800000
 20
56.900000
 30
0.000000
  8
3
 62
7
  6
L000000000000000000
  0
VERTEX
 10
45.800000
 20
56.000000
 30
0.000000
  8
3
 62
7
  6
L000000000000000000
  0
SEQEND
  0
POLYLINE
  8
3
 62
7
  6
L000000000000000000
 70
1
 66
1
  0
VERTEX
 10
46.200000
 20
56.000000
 30
0.000000
  8
3
 62
7
  6
L000000000000000000
  0
VERTEX
 10
46.200000
 20
56.900000
 30
0.000000
  8
3
 62
7
  6
L000000000000000000
  0
VERTEX
 10
47.000000
 20
56.900000
 30
0.000000
  8
3
 62
7
  6
L000000000000000000
  0
VERTEX
 10
47.000000
 20
56.000000
 30
0.000000
  8
3
 62
7
  6
L000000000000000000
  0
SEQEND
  0
POLYLINE
  8
3
 62
7
  6
L000000000000000000
 70
1
 66
1
  0
VERTEX
 10
47.400000
 20
56.000000
 30
0.000000
  8
3
 62
7
  6
L000000000000000000
  0
VERTEX
 10
47.400000
 20
56.900000
 30
0.000000
  8
3
 62
7
  6
L000000000000000000
  0
VERTEX
 10
48.200000
 20
56.900000
 30
0.000000
  8
3
 62
7
  6
L000000000000000000
  0
VERTEX
 10
48.200000
 20
56.000000
 30
0.000000
  8
3
 62
7
  6
L000000000000000000
  0
SEQEND
  0
POLYLINE
  8
3
 62
7
  6
L000000000000000000
 70
1
 66
1
  0
VERTEX
 10
48.600000
 20
56.000000
 30
0.000000
  8
3
 62
7
  6
L000000000000000000
  0
VERTEX
 10
48.600000
 20
56.900000
 30
0.000000
  8
3
 62
7
  6
L000000000000000000
  0
VERTEX
 10
49.400000
 20
56.900000
 30
0.000000
  8
3
 62
7
  6
L000000000000000000
  0
VERTEX
 10
49.400000
 20
56.000000
 30
0.000000
  8
3
 62
7
  6
L000000000000000000
  0
SEQEND
  0
POLYLINE
  8
3
 62
7
  6
L000000000000000000
 70
1
 66
1
  0
VERTEX
 10
45.000000
 20
54.700000
 30
0.000000
  8
3
 62
7
  6
L000000000000000000
  0
VERTEX
 10
45.000000
 20
55.600000
 30
0.000000
  8
3
 62
7
  6
L000000000000000000
  0
VERTEX
 10
45.800000
 20
55.600000
 30
0.000000
  8
3
 62
7
  6
L000000000000000000
  0
VERTEX
 10
45.800000
 20
54.700000
 30
0.000000
  8
3
 62
7
  6
L000000000000000000
  0
SEQEND
  0
POLYLINE
  8
3
 62
7
  6
L000000000000000000
 70
1
 66
1
  0
VERTEX
 10
46.200000
 20
54.700000
 30
0.000000
  8
3
 62
7
  6
L000000000000000000
  0
VERTEX
 10
46.200000
 20
55.600000
 30
0.000000
  8
3
 62
7
  6
L000000000000000000
  0
VERTEX
 10
47.000000
 20
55.600000
 30
0.000000
  8
3
 62
7
  6
L000000000000000000
  0
VERTEX
 10
47.000000
 20
54.700000
 30
0.000000
  8
3
 62
7
  6
L000000000000000000
  0
SEQEND
  0
POLYLINE
  8
3
 62
7
  6
L000000000000000000
 70
1
 66
1
  0
VERTEX
 10
47.400000
 20
54.700000
 30
0.000000
  8
3
 62
7
  6
L000000000000000000
  0
VERTEX
 10
47.400000
 20
55.600000
 30
0.000000
  8
3
 62
7
  6
L000000000000000000
  0
VERTEX
 10
48.200000
 20
55.600000
 30
0.000000
  8
3
 62
7
  6
L000000000000000000
  0
VERTEX
 10
48.200000
 20
54.700000
 30
0.000000
  8
3
 62
7
  6
L000000000000000000
  0
SEQEND
  0
POLYLINE
  8
3
 62
7
  6
L000000000000000000
 70
1
 66
1
  0
VERTEX
 10
48.600000
 20
54.700000
 30
0.000000
  8
3
 62
7
  6
L000000000000000000
  0
VERTEX
 10
48.600000
 20
55.600000
 30
0.000000
  8
3
 62
7
  6
L000000000000000000
  0
VERTEX
 10
49.400000
 20
55.600000
 30
0.000000
  8
3
 62
7
  6
L000000000000000000
  0
VERTEX
 10
49.400000
 20
54.700000
 30
0.000000
  8
3
 62
7
  6
L000000000000000000
  0
SEQEND
  0
POLYLINE
  8
3
 62
7
  6
L000000000000000000
 70
1
 66
1
  0
VERTEX
 10
45.000000
 20
53.400000
 30
0.000000
  8
3
 62
7
  6
L000000000000000000
  0
VERTEX
 10
45.000000
 20
54.300000
 30
0.000000
  8
3
 62
7
  6
L000000000000000000
  0
VERTEX
 10
45.800000
 20
54.300000
 30
0.000000
  8
3
 62
7
  6
L000000000000000000
  0
VERTEX
 10
45.800000
 20
53.400000
 30
0.000000
  8
3
 62
7
  6
L000000000000000000
  0
SEQEND
  0
POLYLINE
  8
3
 62
7
  6
L000000000000000000
 70
1
 66
1
  0
VERTEX
 10
46.200000
 20
53.400000
 30
0.000000
  8
3
 62
7
  6
L000000000000000000
  0
VERTEX
 10
46.200000
 20
54.300000
 30
0.000000
  8
3
 62
7
  6
L000000000000000000
  0
VERTEX
 10
47.000000
 20
54.300000
 30
0.000000
  8
3
 62
7
  6
L000000000000000000
  0
VERTEX
 10
47.000000
 20
53.400000
 30
0.000000
  8
3
 62
7
  6
L000000000000000000
  0
SEQEND
  0
POLYLINE
  8
3
 62
7
  6
L000000000000000000
 70
1
 66
1
  0
VERTEX
 10
47.400000
 20
53.400000
 30
0.000000
  8
3
 62
7
  6
L000000000000000000
  0
VERTEX
 10
47.400000
 20
54.300000
 30
0.000000
  8
3
 62
7
  6
L000000000000000000
  0
VERTEX
 10
48.200000
 20
54.300000
 30
0.000000
  8
3
 62
7
  6
L000000000000000000
  0
VERTEX
 10
48.200000
 20
53.400000
 30
0.000000
  8
3
 62
7
  6
L000000000000000000
  0
SEQEND
  0
POLYLINE
  8
3
 62
7
  6
L000000000000000000
 70
1
 66
1
  0
VERTEX
 10
48.600000
 20
53.400000
 30
0.000000
  8
3
 62
7
  6
L000000000000000000
  0
VERTEX
 10
48.600000
 20
54.300000
 30
0.000000
  8
3
 62
7
  6
L000000000000000000
  0
VERTEX
 10
49.400000
 20
54.300000
 30
0.000000
  8
3
 62
7
  6
L000000000000000000
  0
VERTEX
 10
49.400000
 20
53.400000
 30
0.000000
  8
3
 62
7
  6
L000000000000000000
  0
SEQEND
  0
POLYLINE
  8
3
 62
7
  6
L000000000000000000
 70
1
 66
1
  0
VERTEX
 10
45.000000
 20
52.200000
 30
0.000000
  8
3
 62
7
  6
L000000000000000000
  0
VERTEX
 10
45.000000
 20
53.100000
 30
0.000000
  8
3
 62
7
  6
L000000000000000000
  0
VERTEX
 10
45.800000
 20
53.100000
 30
0.000000
  8
3
 62
7
  6
L000000000000000000
  0
VERTEX
 10
45.800000
 20
52.200000
 30
0.000000
  8
3
 62
7
  6
L000000000000000000
  0
SEQEND
  0
POLYLINE
  8
3
 62
7
  6
L000000000000000000
 70
1
 66
1
  0
VERTEX
 10
46.200000
 20
52.200000
 30
0.000000
  8
3
 62
7
  6
L000000000000000000
  0
VERTEX
 10
46.200000
 20
53.100000
 30
0.000000
  8
3
 62
7
  6
L000000000000000000
  0
VERTEX
 10
47.000000
 20
53.100000
 30
0.000000
  8
3
 62
7
  6
L000000000000000000
  0
VERTEX
 10
47.000000
 20
52.200000
 30
0.000000
  8
3
 62
7
  6
L000000000000000000
  0
SEQEND
  0
POLYLINE
  8
3
 62
7
  6
L000000000000000000
 70
1
 66
1
  0
VERTEX
 10
47.400000
 20
52.200000
 30
0.000000
  8
3
 62
7
  6
L000000000000000000
  0
VERTEX
 10
47.400000
 20
53.100000
 30
0.000000
  8
3
 62
7
  6
L000000000000000000
  0
VERTEX
 10
48.200000
 20
53.100000
 30
0.000000
  8
3
 62
7
  6
L000000000000000000
  0
VERTEX
 10
48.200000
 20
52.200000
 30
0.000000
  8
3
 62
7
  6
L000000000000000000
  0
SEQEND
  0
POLYLINE
  8
3
 62
7
  6
L000000000000000000
 70
1
 66
1
  0
VERTEX
 10
48.600000
 20
52.200000
 30
0.000000
  8
3
 62
7
  6
L000000000000000000
  0
VERTEX
 10
48.600000
 20
53.100000
 30
0.000000
  8
3
 62
7
  6
L000000000000000000
  0
VERTEX
 10
49.400000
 20
53.100000
 30
0.000000
  8
3
 62
7
  6
L000000000000000000
  0
VERTEX
 10
49.400000
 20
52.200000
 30
0.000000
  8
3
 62
7
  6
L000000000000000000
  0
SEQEND
  0
POLYLINE
  8
3
 62
7
  6
L000000000000000000
 70
1
 66
1
  0
VERTEX
 10
10.200000
 20
88.700000
 30
0.000000
  8
3
 62
7
  6
L000000000000000000
  0
VERTEX
 10
10.200000
 20
89.600000
 30
0.000000
  8
3
 62
7
  6
L000000000000000000
  0
VERTEX
 10
11.000000
 20
89.600000
 30
0.000000
  8
3
 62
7
  6
L000000000000000000
  0
VERTEX
 10
11.000000
 20
88.700000
 30
0.000000
  8
3
 62
7
  6
L000000000000000000
  0
SEQEND
  0
POLYLINE
  8
3
 62
7
  6
L000000000000000000
 70
1
 66
1
  0
VERTEX
 10
11.400000
 20
88.700000
 30
0.000000
  8
3
 62
7
  6
L000000000000000000
  0
VERTEX
 10
11.400000
 20
89.600000
 30
0.000000
  8
3
 62
7
  6
L000000000000000000
  0
VERTEX
 10
12.200000
 20
89.600000
 30
0.000000
  8
3
 62
7
  6
L000000000000000000
  0
VERTEX
 10
12.200000
 20
88.700000
 30
0.000000
  8
3
 62
7
  6
L000000000000000000
  0
SEQEND
  0
POLYLINE
  8
3
 62
7
  6
L000000000000000000
 70
1
 66
1
  0
VERTEX
 10
12.600000
 20
88.700000
 30
0.000000
  8
3
 62
7
  6
L000000000000000000
  0
VERTEX
 10
12.600000
 20
89.600000
 30
0.000000
  8
3
 62
7
  6
L000000000000000000
  0
VERTEX
 10
13.400000
 20
89.600000
 30
0.000000
  8
3
 62
7
  6
L000000000000000000
  0
VERTEX
 10
13.400000
 20
88.700000
 30
0.000000
  8
3
 62
7
  6
L000000000000000000
  0
SEQEND
  0
POLYLINE
  8
3
 62
7
  6
L000000000000000000
 70
1
 66
1
  0
VERTEX
 10
13.800000
 20
88.700000
 30
0.000000
  8
3
 62
7
  6
L000000000000000000
  0
VERTEX
 10
13.800000
 20
89.600000
 30
0.000000
  8
3
 62
7
  6
L000000000000000000
  0
VERTEX
 10
14.600000
 20
89.600000
 30
0.000000
  8
3
 62
7
  6
L000000000000000000
  0
VERTEX
 10
14.600000
 20
88.700000
 30
0.000000
  8
3
 62
7
  6
L000000000000000000
  0
SEQEND
  0
POLYLINE
  8
3
 62
7
  6
L000000000000000000
 70
1
 66
1
  0
VERTEX
 10
15.000000
 20
88.700000
 30
0.000000
  8
3
 62
7
  6
L000000000000000000
  0
VERTEX
 10
15.000000
 20
89.600000
 30
0.000000
  8
3
 62
7
  6
L000000000000000000
  0
VERTEX
 10
15.800000
 20
89.600000
 30
0.000000
  8
3
 62
7
  6
L000000000000000000
  0
VERTEX
 10
15.800000
 20
88.700000
 30
0.000000
  8
3
 62
7
  6
L000000000000000000
  0
SEQEND
  0
POLYLINE
  8
3
 62
7
  6
L000000000000000000
 70
1
 66
1
  0
VERTEX
 10
15.000000
 20
87.400000
 30
0.000000
  8
3
 62
7
  6
L000000000000000000
  0
VERTEX
 10
15.000000
 20
88.300000
 30
0.000000
  8
3
 62
7
  6
L000000000000000000
  0
VERTEX
 10
15.800000
 20
88.300000
 30
0.000000
  8
3
 62
7
  6
L000000000000000000
  0
VERTEX
 10
15.800000
 20
87.400000
 30
0.000000
  8
3
 62
7
  6
L000000000000000000
  0
SEQEND
  0
POLYLINE
  8
3
 62
7
  6
L000000000000000000
 70
1
 66
1
  0
VERTEX
 10
13.800000
 20
87.400000
 30
0.000000
  8
3
 62
7
  6
L000000000000000000
  0
VERTEX
 10
13.800000
 20
88.300000
 30
0.000000
  8
3
 62
7
  6
L000000000000000000
  0
VERTEX
 10
14.600000
 20
88.300000
 30
0.000000
  8
3
 62
7
  6
L000000000000000000
  0
VERTEX
 10
14.600000
 20
87.400000
 30
0.000000
  8
3
 62
7
  6
L000000000000000000
  0
SEQEND
  0
POLYLINE
  8
3
 62
7
  6
L000000000000000000
 70
1
 66
1
  0
VERTEX
 10
12.600000
 20
87.400000
 30
0.000000
  8
3
 62
7
  6
L000000000000000000
  0
VERTEX
 10
12.600000
 20
88.300000
 30
0.000000
  8
3
 62
7
  6
L000000000000000000
  0
VERTEX
 10
13.400000
 20
88.300000
 30
0.000000
  8
3
 62
7
  6
L000000000000000000
  0
VERTEX
 10
13.400000
 20
87.400000
 30
0.000000
  8
3
 62
7
  6
L000000000000000000
  0
SEQEND
  0
POLYLINE
  8
3
 62
7
  6
L000000000000000000
 70
1
 66
1
  0
VERTEX
 10
11.400000
 20
87.400000
 30
0.000000
  8
3
 62
7
  6
L000000000000000000
  0
VERTEX
 10
11.400000
 20
88.300000
 30
0.000000
  8
3
 62
7
  6
L000000000000000000
  0
VERTEX
 10
12.200000
 20
88.300000
 30
0.000000
  8
3
 62
7
  6
L000000000000000000
  0
VERTEX
 10
12.200000
 20
87.400000
 30
0.000000
  8
3
 62
7
  6
L000000000000000000
  0
SEQEND
  0
POLYLINE
  8
3
 62
7
  6
L000000000000000000
 70
1
 66
1
  0
VERTEX
 10
10.200000
 20
87.400000
 30
0.000000
  8
3
 62
7
  6
L000000000000000000
  0
VERTEX
 10
10.200000
 20
88.300000
 30
0.000000
  8
3
 62
7
  6
L000000000000000000
  0
VERTEX
 10
11.000000
 20
88.300000
 30
0.000000
  8
3
 62
7
  6
L000000000000000000
  0
VERTEX
 10
11.000000
 20
87.400000
 30
0.000000
  8
3
 62
7
  6
L000000000000000000
  0
SEQEND
  0
POLYLINE
  8
3
 62
7
  6
L000000000000000000
 70
1
 66
1
  0
VERTEX
 10
10.200000
 20
86.100000
 30
0.000000
  8
3
 62
7
  6
L000000000000000000
  0
VERTEX
 10
10.200000
 20
87.000000
 30
0.000000
  8
3
 62
7
  6
L000000000000000000
  0
VERTEX
 10
11.000000
 20
87.000000
 30
0.000000
  8
3
 62
7
  6
L000000000000000000
  0
VERTEX
 10
11.000000
 20
86.100000
 30
0.000000
  8
3
 62
7
  6
L000000000000000000
  0
SEQEND
  0
POLYLINE
  8
3
 62
7
  6
L000000000000000000
 70
1
 66
1
  0
VERTEX
 10
11.400000
 20
86.100000
 30
0.000000
  8
3
 62
7
  6
L000000000000000000
  0
VERTEX
 10
11.400000
 20
87.000000
 30
0.000000
  8
3
 62
7
  6
L000000000000000000
  0
VERTEX
 10
12.200000
 20
87.000000
 30
0.000000
  8
3
 62
7
  6
L000000000000000000
  0
VERTEX
 10
12.200000
 20
86.100000
 30
0.000000
  8
3
 62
7
  6
L000000000000000000
  0
SEQEND
  0
POLYLINE
  8
3
 62
7
  6
L000000000000000000
 70
1
 66
1
  0
VERTEX
 10
12.600000
 20
86.100000
 30
0.000000
  8
3
 62
7
  6
L000000000000000000
  0
VERTEX
 10
12.600000
 20
87.000000
 30
0.000000
  8
3
 62
7
  6
L000000000000000000
  0
VERTEX
 10
13.400000
 20
87.000000
 30
0.000000
  8
3
 62
7
  6
L000000000000000000
  0
VERTEX
 10
13.400000
 20
86.100000
 30
0.000000
  8
3
 62
7
  6
L000000000000000000
  0
SEQEND
  0
POLYLINE
  8
3
 62
7
  6
L000000000000000000
 70
1
 66
1
  0
VERTEX
 10
13.800000
 20
86.100000
 30
0.000000
  8
3
 62
7
  6
L000000000000000000
  0
VERTEX
 10
13.800000
 20
87.000000
 30
0.000000
  8
3
 62
7
  6
L000000000000000000
  0
VERTEX
 10
14.600000
 20
87.000000
 30
0.000000
  8
3
 62
7
  6
L000000000000000000
  0
VERTEX
 10
14.600000
 20
86.100000
 30
0.000000
  8
3
 62
7
  6
L000000000000000000
  0
SEQEND
  0
POLYLINE
  8
3
 62
7
  6
L000000000000000000
 70
1
 66
1
  0
VERTEX
 10
15.000000
 20
86.100000
 30
0.000000
  8
3
 62
7
  6
L000000000000000000
  0
VERTEX
 10
15.000000
 20
87.000000
 30
0.000000
  8
3
 62
7
  6
L000000000000000000
  0
VERTEX
 10
15.800000
 20
87.000000
 30
0.000000
  8
3
 62
7
  6
L000000000000000000
  0
VERTEX
 10
15.800000
 20
86.100000
 30
0.000000
  8
3
 62
7
  6
L000000000000000000
  0
SEQEND
  0
POLYLINE
  8
3
 62
7
  6
L000000000000000000
 70
1
 66
1
  0
VERTEX
 10
15.000000
 20
84.800000
 30
0.000000
  8
3
 62
7
  6
L000000000000000000
  0
VERTEX
 10
15.000000
 20
85.700000
 30
0.000000
  8
3
 62
7
  6
L000000000000000000
  0
VERTEX
 10
15.800000
 20
85.700000
 30
0.000000
  8
3
 62
7
  6
L000000000000000000
  0
VERTEX
 10
15.800000
 20
84.800000
 30
0.000000
  8
3
 62
7
  6
L000000000000000000
  0
SEQEND
  0
POLYLINE
  8
3
 62
7
  6
L000000000000000000
 70
1
 66
1
  0
VERTEX
 10
13.800000
 20
84.800000
 30
0.000000
  8
3
 62
7
  6
L000000000000000000
  0
VERTEX
 10
13.800000
 20
85.700000
 30
0.000000
  8
3
 62
7
  6
L000000000000000000
  0
VERTEX
 10
14.600000
 20
85.700000
 30
0.000000
  8
3
 62
7
  6
L000000000000000000
  0
VERTEX
 10
14.600000
 20
84.800000
 30
0.000000
  8
3
 62
7
  6
L000000000000000000
  0
SEQEND
  0
POLYLINE
  8
3
 62
7
  6
L000000000000000000
 70
1
 66
1
  0
VERTEX
 10
12.600000
 20
84.800000
 30
0.000000
  8
3
 62
7
  6
L000000000000000000
  0
VERTEX
 10
12.600000
 20
85.700000
 30
0.000000
  8
3
 62
7
  6
L000000000000000000
  0
VERTEX
 10
13.400000
 20
85.700000
 30
0.000000
  8
3
 62
7
  6
L000000000000000000
  0
VERTEX
 10
13.400000
 20
84.800000
 30
0.000000
  8
3
 62
7
  6
L000000000000000000
  0
SEQEND
  0
POLYLINE
  8
3
 62
7
  6
L000000000000000000
 70
1
 66
1
  0
VERTEX
 10
11.400000
 20
84.800000
 30
0.000000
  8
3
 62
7
  6
L000000000000000000
  0
VERTEX
 10
11.400000
 20
85.700000
 30
0.000000
  8
3
 62
7
  6
L000000000000000000
  0
VERTEX
 10
12.200000
 20
85.700000
 30
0.000000
  8
3
 62
7
  6
L000000000000000000
  0
VERTEX
 10
12.200000
 20
84.800000
 30
0.000000
  8
3
 62
7
  6
L000000000000000000
  0
SEQEND
  0
POLYLINE
  8
3
 62
7
  6
L000000000000000000
 70
1
 66
1
  0
VERTEX
 10
10.200000
 20
84.800000
 30
0.000000
  8
3
 62
7
  6
L000000000000000000
  0
VERTEX
 10
10.200000
 20
85.700000
 30
0.000000
  8
3
 62
7
  6
L000000000000000000
  0
VERTEX
 10
11.000000
 20
85.700000
 30
0.000000
  8
3
 62
7
  6
L000000000000000000
  0
VERTEX
 10
11.000000
 20
84.800000
 30
0.000000
  8
3
 62
7
  6
L000000000000000000
  0
SEQEND
  0
POLYLINE
  8
3
 62
7
  6
L000000000000000000
 70
1
 66
1
  0
VERTEX
 10
9.000000
 20
88.700000
 30
0.000000
  8
3
 62
7
  6
L000000000000000000
  0
VERTEX
 10
9.000000
 20
89.600000
 30
0.000000
  8
3
 62
7
  6
L000000000000000000
  0
VERTEX
 10
9.800000
 20
89.600000
 30
0.000000
  8
3
 62
7
  6
L000000000000000000
  0
VERTEX
 10
9.800000
 20
88.700000
 30
0.000000
  8
3
 62
7
  6
L000000000000000000
  0
SEQEND
  0
POLYLINE
  8
3
 62
7
  6
L000000000000000000
 70
1
 66
1
  0
VERTEX
 10
9.000000
 20
87.400000
 30
0.000000
  8
3
 62
7
  6
L000000000000000000
  0
VERTEX
 10
9.000000
 20
88.300000
 30
0.000000
  8
3
 62
7
  6
L000000000000000000
  0
VERTEX
 10
9.800000
 20
88.300000
 30
0.000000
  8
3
 62
7
  6
L000000000000000000
  0
VERTEX
 10
9.800000
 20
87.400000
 30
0.000000
  8
3
 62
7
  6
L000000000000000000
  0
SEQEND
  0
POLYLINE
  8
3
 62
7
  6
L000000000000000000
 70
1
 66
1
  0
VERTEX
 10
9.000000
 20
86.100000
 30
0.000000
  8
3
 62
7
  6
L000000000000000000
  0
VERTEX
 10
9.000000
 20
87.000000
 30
0.000000
  8
3
 62
7
  6
L000000000000000000
  0
VERTEX
 10
9.800000
 20
87.000000
 30
0.000000
  8
3
 62
7
  6
L000000000000000000
  0
VERTEX
 10
9.800000
 20
86.100000
 30
0.000000
  8
3
 62
7
  6
L000000000000000000
  0
SEQEND
  0
POLYLINE
  8
3
 62
7
  6
L000000000000000000
 70
1
 66
1
  0
VERTEX
 10
9.000000
 20
84.800000
 30
0.000000
  8
3
 62
7
  6
L000000000000000000
  0
VERTEX
 10
9.000000
 20
85.700000
 30
0.000000
  8
3
 62
7
  6
L000000000000000000
  0
VERTEX
 10
9.800000
 20
85.700000
 30
0.000000
  8
3
 62
7
  6
L000000000000000000
  0
VERTEX
 10
9.800000
 20
84.800000
 30
0.000000
  8
3
 62
7
  6
L000000000000000000
  0
SEQEND
  0
POLYLINE
  8
3
 62
7
  6
L000000000000000000
 70
1
 66
1
  0
VERTEX
 10
10.200000
 20
4.200000
 30
0.000000
  8
3
 62
7
  6
L000000000000000000
  0
VERTEX
 10
10.200000
 20
5.100000
 30
0.000000
  8
3
 62
7
  6
L000000000000000000
  0
VERTEX
 10
11.000000
 20
5.100000
 30
0.000000
  8
3
 62
7
  6
L000000000000000000
  0
VERTEX
 10
11.000000
 20
4.200000
 30
0.000000
  8
3
 62
7
  6
L000000000000000000
  0
SEQEND
  0
POLYLINE
  8
3
 62
7
  6
L000000000000000000
 70
1
 66
1
  0
VERTEX
 10
11.400000
 20
4.200000
 30
0.000000
  8
3
 62
7
  6
L000000000000000000
  0
VERTEX
 10
11.400000
 20
5.100000
 30
0.000000
  8
3
 62
7
  6
L000000000000000000
  0
VERTEX
 10
12.200000
 20
5.100000
 30
0.000000
  8
3
 62
7
  6
L000000000000000000
  0
VERTEX
 10
12.200000
 20
4.200000
 30
0.000000
  8
3
 62
7
  6
L000000000000000000
  0
SEQEND
  0
POLYLINE
  8
3
 62
7
  6
L000000000000000000
 70
1
 66
1
  0
VERTEX
 10
12.600000
 20
4.200000
 30
0.000000
  8
3
 62
7
  6
L000000000000000000
  0
VERTEX
 10
12.600000
 20
5.100000
 30
0.000000
  8
3
 62
7
  6
L000000000000000000
  0
VERTEX
 10
13.400000
 20
5.100000
 30
0.000000
  8
3
 62
7
  6
L000000000000000000
  0
VERTEX
 10
13.400000
 20
4.200000
 30
0.000000
  8
3
 62
7
  6
L000000000000000000
  0
SEQEND
  0
POLYLINE
  8
3
 62
7
  6
L000000000000000000
 70
1
 66
1
  0
VERTEX
 10
13.800000
 20
4.200000
 30
0.000000
  8
3
 62
7
  6
L000000000000000000
  0
VERTEX
 10
13.800000
 20
5.100000
 30
0.000000
  8
3
 62
7
  6
L000000000000000000
  0
VERTEX
 10
14.600000
 20
5.100000
 30
0.000000
  8
3
 62
7
  6
L000000000000000000
  0
VERTEX
 10
14.600000
 20
4.200000
 30
0.000000
  8
3
 62
7
  6
L000000000000000000
  0
SEQEND
  0
POLYLINE
  8
3
 62
7
  6
L000000000000000000
 70
1
 66
1
  0
VERTEX
 10
15.000000
 20
4.200000
 30
0.000000
  8
3
 62
7
  6
L000000000000000000
  0
VERTEX
 10
15.000000
 20
5.100000
 30
0.000000
  8
3
 62
7
  6
L000000000000000000
  0
VERTEX
 10
15.800000
 20
5.100000
 30
0.000000
  8
3
 62
7
  6
L000000000000000000
  0
VERTEX
 10
15.800000
 20
4.200000
 30
0.000000
  8
3
 62
7
  6
L000000000000000000
  0
SEQEND
  0
POLYLINE
  8
3
 62
7
  6
L000000000000000000
 70
1
 66
1
  0
VERTEX
 10
15.000000
 20
2.900000
 30
0.000000
  8
3
 62
7
  6
L000000000000000000
  0
VERTEX
 10
15.000000
 20
3.800000
 30
0.000000
  8
3
 62
7
  6
L000000000000000000
  0
VERTEX
 10
15.800000
 20
3.800000
 30
0.000000
  8
3
 62
7
  6
L000000000000000000
  0
VERTEX
 10
15.800000
 20
2.900000
 30
0.000000
  8
3
 62
7
  6
L000000000000000000
  0
SEQEND
  0
POLYLINE
  8
3
 62
7
  6
L000000000000000000
 70
1
 66
1
  0
VERTEX
 10
13.800000
 20
2.900000
 30
0.000000
  8
3
 62
7
  6
L000000000000000000
  0
VERTEX
 10
13.800000
 20
3.800000
 30
0.000000
  8
3
 62
7
  6
L000000000000000000
  0
VERTEX
 10
14.600000
 20
3.800000
 30
0.000000
  8
3
 62
7
  6
L000000000000000000
  0
VERTEX
 10
14.600000
 20
2.900000
 30
0.000000
  8
3
 62
7
  6
L000000000000000000
  0
SEQEND
  0
POLYLINE
  8
3
 62
7
  6
L000000000000000000
 70
1
 66
1
  0
VERTEX
 10
12.600000
 20
2.900000
 30
0.000000
  8
3
 62
7
  6
L000000000000000000
  0
VERTEX
 10
12.600000
 20
3.800000
 30
0.000000
  8
3
 62
7
  6
L000000000000000000
  0
VERTEX
 10
13.400000
 20
3.800000
 30
0.000000
  8
3
 62
7
  6
L000000000000000000
  0
VERTEX
 10
13.400000
 20
2.900000
 30
0.000000
  8
3
 62
7
  6
L000000000000000000
  0
SEQEND
  0
POLYLINE
  8
3
 62
7
  6
L000000000000000000
 70
1
 66
1
  0
VERTEX
 10
11.400000
 20
2.900000
 30
0.000000
  8
3
 62
7
  6
L000000000000000000
  0
VERTEX
 10
11.400000
 20
3.800000
 30
0.000000
  8
3
 62
7
  6
L000000000000000000
  0
VERTEX
 10
12.200000
 20
3.800000
 30
0.000000
  8
3
 62
7
  6
L000000000000000000
  0
VERTEX
 10
12.200000
 20
2.900000
 30
0.000000
  8
3
 62
7
  6
L000000000000000000
  0
SEQEND
  0
POLYLINE
  8
3
 62
7
  6
L000000000000000000
 70
1
 66
1
  0
VERTEX
 10
10.200000
 20
2.900000
 30
0.000000
  8
3
 62
7
  6
L000000000000000000
  0
VERTEX
 10
10.200000
 20
3.800000
 30
0.000000
  8
3
 62
7
  6
L000000000000000000
  0
VERTEX
 10
11.000000
 20
3.800000
 30
0.000000
  8
3
 62
7
  6
L000000000000000000
  0
VERTEX
 10
11.000000
 20
2.900000
 30
0.000000
  8
3
 62
7
  6
L000000000000000000
  0
SEQEND
  0
POLYLINE
  8
3
 62
7
  6
L000000000000000000
 70
1
 66
1
  0
VERTEX
 10
10.200000
 20
1.600000
 30
0.000000
  8
3
 62
7
  6
L000000000000000000
  0
VERTEX
 10
10.200000
 20
2.500000
 30
0.000000
  8
3
 62
7
  6
L000000000000000000
  0
VERTEX
 10
11.000000
 20
2.500000
 30
0.000000
  8
3
 62
7
  6
L000000000000000000
  0
VERTEX
 10
11.000000
 20
1.600000
 30
0.000000
  8
3
 62
7
  6
L000000000000000000
  0
SEQEND
  0
POLYLINE
  8
3
 62
7
  6
L000000000000000000
 70
1
 66
1
  0
VERTEX
 10
11.400000
 20
1.600000
 30
0.000000
  8
3
 62
7
  6
L000000000000000000
  0
VERTEX
 10
11.400000
 20
2.500000
 30
0.000000
  8
3
 62
7
  6
L000000000000000000
  0
VERTEX
 10
12.200000
 20
2.500000
 30
0.000000
  8
3
 62
7
  6
L000000000000000000
  0
VERTEX
 10
12.200000
 20
1.600000
 30
0.000000
  8
3
 62
7
  6
L000000000000000000
  0
SEQEND
  0
POLYLINE
  8
3
 62
7
  6
L000000000000000000
 70
1
 66
1
  0
VERTEX
 10
12.600000
 20
1.600000
 30
0.000000
  8
3
 62
7
  6
L000000000000000000
  0
VERTEX
 10
12.600000
 20
2.500000
 30
0.000000
  8
3
 62
7
  6
L000000000000000000
  0
VERTEX
 10
13.400000
 20
2.500000
 30
0.000000
  8
3
 62
7
  6
L000000000000000000
  0
VERTEX
 10
13.400000
 20
1.600000
 30
0.000000
  8
3
 62
7
  6
L000000000000000000
  0
SEQEND
  0
POLYLINE
  8
3
 62
7
  6
L000000000000000000
 70
1
 66
1
  0
VERTEX
 10
13.800000
 20
1.600000
 30
0.000000
  8
3
 62
7
  6
L000000000000000000
  0
VERTEX
 10
13.800000
 20
2.500000
 30
0.000000
  8
3
 62
7
  6
L000000000000000000
  0
VERTEX
 10
14.600000
 20
2.500000
 30
0.000000
  8
3
 62
7
  6
L000000000000000000
  0
VERTEX
 10
14.600000
 20
1.600000
 30
0.000000
  8
3
 62
7
  6
L000000000000000000
  0
SEQEND
  0
POLYLINE
  8
3
 62
7
  6
L000000000000000000
 70
1
 66
1
  0
VERTEX
 10
15.000000
 20
1.600000
 30
0.000000
  8
3
 62
7
  6
L000000000000000000
  0
VERTEX
 10
15.000000
 20
2.500000
 30
0.000000
  8
3
 62
7
  6
L000000000000000000
  0
VERTEX
 10
15.800000
 20
2.500000
 30
0.000000
  8
3
 62
7
  6
L000000000000000000
  0
VERTEX
 10
15.800000
 20
1.600000
 30
0.000000
  8
3
 62
7
  6
L000000000000000000
  0
SEQEND
  0
POLYLINE
  8
3
 62
7
  6
L000000000000000000
 70
1
 66
1
  0
VERTEX
 10
15.000000
 20
0.300000
 30
0.000000
  8
3
 62
7
  6
L000000000000000000
  0
VERTEX
 10
15.000000
 20
1.200000
 30
0.000000
  8
3
 62
7
  6
L000000000000000000
  0
VERTEX
 10
15.800000
 20
1.200000
 30
0.000000
  8
3
 62
7
  6
L000000000000000000
  0
VERTEX
 10
15.800000
 20
0.300000
 30
0.000000
  8
3
 62
7
  6
L000000000000000000
  0
SEQEND
  0
POLYLINE
  8
3
 62
7
  6
L000000000000000000
 70
1
 66
1
  0
VERTEX
 10
13.800000
 20
0.300000
 30
0.000000
  8
3
 62
7
  6
L000000000000000000
  0
VERTEX
 10
13.800000
 20
1.200000
 30
0.000000
  8
3
 62
7
  6
L000000000000000000
  0
VERTEX
 10
14.600000
 20
1.200000
 30
0.000000
  8
3
 62
7
  6
L000000000000000000
  0
VERTEX
 10
14.600000
 20
0.300000
 30
0.000000
  8
3
 62
7
  6
L000000000000000000
  0
SEQEND
  0
POLYLINE
  8
3
 62
7
  6
L000000000000000000
 70
1
 66
1
  0
VERTEX
 10
12.600000
 20
0.300000
 30
0.000000
  8
3
 62
7
  6
L000000000000000000
  0
VERTEX
 10
12.600000
 20
1.200000
 30
0.000000
  8
3
 62
7
  6
L000000000000000000
  0
VERTEX
 10
13.400000
 20
1.200000
 30
0.000000
  8
3
 62
7
  6
L000000000000000000
  0
VERTEX
 10
13.400000
 20
0.300000
 30
0.000000
  8
3
 62
7
  6
L000000000000000000
  0
SEQEND
  0
POLYLINE
  8
3
 62
7
  6
L000000000000000000
 70
1
 66
1
  0
VERTEX
 10
11.400000
 20
0.300000
 30
0.000000
  8
3
 62
7
  6
L000000000000000000
  0
VERTEX
 10
11.400000
 20
1.200000
 30
0.000000
  8
3
 62
7
  6
L000000000000000000
  0
VERTEX
 10
12.200000
 20
1.200000
 30
0.000000
  8
3
 62
7
  6
L000000000000000000
  0
VERTEX
 10
12.200000
 20
0.300000
 30
0.000000
  8
3
 62
7
  6
L000000000000000000
  0
SEQEND
  0
POLYLINE
  8
3
 62
7
  6
L000000000000000000
 70
1
 66
1
  0
VERTEX
 10
10.200000
 20
0.300000
 30
0.000000
  8
3
 62
7
  6
L000000000000000000
  0
VERTEX
 10
10.200000
 20
1.200000
 30
0.000000
  8
3
 62
7
  6
L000000000000000000
  0
VERTEX
 10
11.000000
 20
1.200000
 30
0.000000
  8
3
 62
7
  6
L000000000000000000
  0
VERTEX
 10
11.000000
 20
0.300000
 30
0.000000
  8
3
 62
7
  6
L000000000000000000
  0
SEQEND
  0
POLYLINE
  8
3
 62
7
  6
L000000000000000000
 70
1
 66
1
  0
VERTEX
 10
9.000000
 20
4.200000
 30
0.000000
  8
3
 62
7
  6
L000000000000000000
  0
VERTEX
 10
9.000000
 20
5.100000
 30
0.000000
  8
3
 62
7
  6
L000000000000000000
  0
VERTEX
 10
9.800000
 20
5.100000
 30
0.000000
  8
3
 62
7
  6
L000000000000000000
  0
VERTEX
 10
9.800000
 20
4.200000
 30
0.000000
  8
3
 62
7
  6
L000000000000000000
  0
SEQEND
  0
POLYLINE
  8
3
 62
7
  6
L000000000000000000
 70
1
 66
1
  0
VERTEX
 10
9.000000
 20
2.900000
 30
0.000000
  8
3
 62
7
  6
L000000000000000000
  0
VERTEX
 10
9.000000
 20
3.800000
 30
0.000000
  8
3
 62
7
  6
L000000000000000000
  0
VERTEX
 10
9.800000
 20
3.800000
 30
0.000000
  8
3
 62
7
  6
L000000000000000000
  0
VERTEX
 10
9.800000
 20
2.900000
 30
0.000000
  8
3
 62
7
  6
L000000000000000000
  0
SEQEND
  0
POLYLINE
  8
3
 62
7
  6
L000000000000000000
 70
1
 66
1
  0
VERTEX
 10
9.000000
 20
1.600000
 30
0.000000
  8
3
 62
7
  6
L000000000000000000
  0
VERTEX
 10
9.000000
 20
2.500000
 30
0.000000
  8
3
 62
7
  6
L000000000000000000
  0
VERTEX
 10
9.800000
 20
2.500000
 30
0.000000
  8
3
 62
7
  6
L000000000000000000
  0
VERTEX
 10
9.800000
 20
1.600000
 30
0.000000
  8
3
 62
7
  6
L000000000000000000
  0
SEQEND
  0
POLYLINE
  8
3
 62
7
  6
L000000000000000000
 70
1
 66
1
  0
VERTEX
 10
9.000000
 20
0.300000
 30
0.000000
  8
3
 62
7
  6
L000000000000000000
  0
VERTEX
 10
9.000000
 20
1.200000
 30
0.000000
  8
3
 62
7
  6
L000000000000000000
  0
VERTEX
 10
9.800000
 20
1.200000
 30
0.000000
  8
3
 62
7
  6
L000000000000000000
  0
VERTEX
 10
9.800000
 20
0.300000
 30
0.000000
  8
3
 62
7
  6
L000000000000000000
  0
SEQEND
  0
SOLID
  8
47
 62
255
  6
CONTINUOUS
 10
5.000000
 20
53.000000
 11
5.000000
 21
37.000000
 12
2.000000
 22
53.000000
 13
2.000000
 23
37.000000
  0
POLYLINE
  8
47
 62
7
  6
CONTINUOUS
 70
1
 66
1
  0
VERTEX
 10
5.000000
 20
53.000000
 30
0.000000
  8
47
 62
7
  6
CONTINUOUS
  0
VERTEX
 10
5.000000
 20
37.000000
 30
0.000000
  8
47
 62
7
  6
CONTINUOUS
  0
VERTEX
 10
2.000000
 20
37.000000
 30
0.000000
  8
47
 62
7
  6
CONTINUOUS
  0
VERTEX
 10
2.000000
 20
53.000000
 30
0.000000
  8
47
 62
7
  6
CONTINUOUS
  0
SEQEND
  0
CIRCLE
  8
47
 62
7
  6
CONTINUOUS
 10
3.500000
 20
50.100000
 30
0.0
 40
0.600000
  0
POLYLINE
  8
47
 62
7
  6
CONTINUOUS
 70
1
 66
1
  0
VERTEX
 10
4.900000
 20
38.500000
 30
0.000000
  8
47
 62
7
  6
CONTINUOUS
  0
VERTEX
 10
4.900000
 20
51.500000
 30
0.000000
  8
47
 62
7
  6
CONTINUOUS
  0
VERTEX
 10
2.100000
 20
51.500000
 30
0.000000
  8
47
 62
7
  6
CONTINUOUS
  0
VERTEX
 10
2.100000
 20
38.500000
 30
0.000000
  8
47
 62
7
  6
CONTINUOUS
  0
SEQEND
  0
POLYLINE
  8
47
 62
7
  6
CONTINUOUS
 70
0
 66
1
  0
VERTEX
 10
4.100000
 20
50.300000
  8
47
 62
7
  6
CONTINUOUS
  0
VERTEX
 10
4.400000
 20
50.300000
  8
47
 62
7
  6
CONTINUOUS
  0
VERTEX
 10
4.400000
 20
49.900000
  8
47
 62
7
  6
CONTINUOUS
  0
VERTEX
 10
4.100000
 20
49.900000
  8
47
 62
7
  6
CONTINUOUS
  0
SEQEND
  0
POLYLINE
  8
47
 62
7
  6
CONTINUOUS
 70
0
 66
1
  0
VERTEX
 10
2.900000
 20
50.300000
  8
47
 62
7
  6
CONTINUOUS
  0
VERTEX
 10
2.600000
 20
50.300000
  8
47
 62
7
  6
CONTINUOUS
  0
VERTEX
 10
2.600000
 20
49.900000
  8
47
 62
7
  6
CONTINUOUS
  0
VERTEX
 10
2.900000
 20
49.900000
  8
47
 62
7
  6
CONTINUOUS
  0
SEQEND
  0
CIRCLE
  8
47
 62
7
  6
CONTINUOUS
 10
3.500000
 20
50.100000
 30
0.0
 40
1.200000
  0
CIRCLE
  8
47
 62
7
  6
CONTINUOUS
 10
3.500000
 20
50.100000
 30
0.0
 40
0.100000
  0
ENDBLK
  0
ENDSEC
  0
SECTION
  2
ENTITIES
  0
INSERT
  8
0
 2
tzt206
 10
0.000000
 20
0.000000
 30
0.0
 50
0.0
  0
ENDSEC
  0
EOF
